ISO-10303-21;
HEADER;
FILE_DESCRIPTION (( 'STEP AP214' ),
    '1' );
FILE_NAME ('14070515.step',
    '2016-05-09T12:17:15',
    ( '' ),
    ( '' ),
    'SwSTEP 2.0',
    'SolidWorks 2015',
    '' );
FILE_SCHEMA (( 'AUTOMOTIVE_DESIGN' ));
ENDSEC;

DATA;
#1 = CARTESIAN_POINT ( 'NONE',  ( 69.99999999999998600, 5.835000000000000000, -0.8350000000000047400 ) ) ;
#2 = DIRECTION ( 'NONE',  ( -0.0000000000000000000, -1.000000000000000000, -0.0000000000000000000 ) ) ;
#3 = CARTESIAN_POINT ( 'NONE',  ( 69.99999999999998600, 5.835000000000000000, 0.8350000000000047400 ) ) ;
#4 = DIRECTION ( 'NONE',  ( -1.000000000000000000, -0.0000000000000000000, -0.0000000000000000000 ) ) ;
#5 = CARTESIAN_POINT ( 'NONE',  ( 75.00000000000000000, 2.500000000000000000, -2.499999999999999600 ) ) ;
#6 = CARTESIAN_POINT ( 'NONE',  ( 75.00000000000000000, 2.499999999999999600, 2.500000000000000400 ) ) ;
#7 = DIRECTION ( 'NONE',  ( 0.0000000000000000000, -8.673617379884035500E-017, 1.000000000000000000 ) ) ;
#8 = DIRECTION ( 'NONE',  ( 0.0000000000000000000, 1.000000000000000000, 0.0000000000000000000 ) ) ;
#9 = CARTESIAN_POINT ( 'NONE',  ( 69.99999999999998600, 2.500000000000000000, -0.8350000000000047400 ) ) ;
#10 = CARTESIAN_POINT ( 'NONE',  ( 75.00000000000000000, -2.500000000000000400, 2.500000000000000400 ) ) ;
#11 = CARTESIAN_POINT ( 'NONE',  ( 75.00000000000000000, -2.499999999999999600, -2.499999999999999600 ) ) ;
#12 = EDGE_LOOP ( 'NONE', ( #135, #134 ) ) ;
#13 = DIRECTION ( 'NONE',  ( 0.0000000000000000000, -1.734723475976807100E-016, 1.000000000000000000 ) ) ;
#14 = UNCERTAINTY_MEASURE_WITH_UNIT (LENGTH_MEASURE( 1.000000000000000100E-005 ), #106, 'distance_accuracy_value', 'NONE');
#15 = DIRECTION ( 'NONE',  ( -1.000000000000000000, -0.0000000000000000000, -0.0000000000000000000 ) ) ;
#16 = DIRECTION ( 'NONE',  ( 0.0000000000000000000, 1.000000000000000000, 0.0000000000000000000 ) ) ;
#17 = CARTESIAN_POINT ( 'NONE',  ( 75.00000000000000000, -2.500000000000000400, 2.500000000000000400 ) ) ;
#18 = DIRECTION ( 'NONE',  ( 0.0000000000000000000, 0.0000000000000000000, -1.000000000000000000 ) ) ;
#19 = DIRECTION ( 'NONE',  ( -0.0000000000000000000, 1.000000000000000000, 8.673617379884035500E-017 ) ) ;
#20 = CARTESIAN_POINT ( 'NONE',  ( 69.99999999999998600, 2.500000000000000000, 0.0000000000000000000 ) ) ;
#21 = PRODUCT_DEFINITION_CONTEXT ( 'detailed design', #362, 'design' ) ;
#22 = CARTESIAN_POINT ( 'NONE',  ( 75.00000000000000000, -2.499999999999999600, -2.499999999999999600 ) ) ;
#23 = CARTESIAN_POINT ( 'NONE',  ( -75.00000000000000000, 2.500000000000000000, -2.499999999999999600 ) ) ;
#24 = CARTESIAN_POINT ( 'NONE',  ( 75.00000000000000000, -2.499999999999999600, -2.499999999999999600 ) ) ;
#25 = DIRECTION ( 'NONE',  ( -1.000000000000000000, -0.0000000000000000000, -0.0000000000000000000 ) ) ;
#26 = DIRECTION ( 'NONE',  ( 0.0000000000000000000, 1.734723475976807100E-016, -1.000000000000000000 ) ) ;
#27 = PLANE ( 'NONE',  #310 ) ;
#28 = CARTESIAN_POINT ( 'NONE',  ( 75.00000000000000000, -2.499999999999999600, -2.499999999999999600 ) ) ;
#29 = DIRECTION ( 'NONE',  ( 0.0000000000000000000, 0.0000000000000000000, -1.000000000000000000 ) ) ;
#30 = DIRECTION ( 'NONE',  ( -0.0000000000000000000, 1.000000000000000000, 1.734723475976807100E-016 ) ) ;
#31 = CARTESIAN_POINT ( 'NONE',  ( 69.99999999999998600, -2.499999999999998700, 0.0000000000000000000 ) ) ;
#32 = DIRECTION ( 'NONE',  ( 0.0000000000000000000, 0.0000000000000000000, -1.000000000000000000 ) ) ;
#33 = CARTESIAN_POINT ( 'NONE',  ( 69.99999999999998600, 5.835000000000000000, 0.0000000000000000000 ) ) ;
#34 = DIRECTION ( 'NONE',  ( 0.0000000000000000000, -1.000000000000000000, -1.734723475976807100E-016 ) ) ;
#35 = DIRECTION ( 'NONE',  ( -0.0000000000000000000, -1.000000000000000000, -0.0000000000000000000 ) ) ;
#36 = DIRECTION ( 'NONE',  ( 1.000000000000000000, 0.0000000000000000000, -0.0000000000000000000 ) ) ;
#37 = DIRECTION ( 'NONE',  ( 0.0000000000000000000, 0.0000000000000000000, 1.000000000000000000 ) ) ;
#38 = DIRECTION ( 'NONE',  ( 1.000000000000000000, 0.0000000000000000000, -0.0000000000000000000 ) ) ;
#39 = DIRECTION ( 'NONE',  ( 0.0000000000000000000, 0.0000000000000000000, 1.000000000000000000 ) ) ;
#40 = DIRECTION ( 'NONE',  ( 1.000000000000000000, 0.0000000000000000000, -0.0000000000000000000 ) ) ;
#41 = CARTESIAN_POINT ( 'NONE',  ( 69.99999999999998600, -2.499999999999998700, 0.0000000000000000000 ) ) ;
#42 = DIRECTION ( 'NONE',  ( 0.0000000000000000000, -0.0000000000000000000, 1.000000000000000000 ) ) ;
#43 = VECTOR ( 'NONE', #151, 1000.000000000000000 ) ;
#44 = CARTESIAN_POINT ( 'NONE',  ( 75.00000000000000000, 0.0000000000000000000, 0.0000000000000000000 ) ) ;
#45 = CARTESIAN_POINT ( 'NONE',  ( 75.00000000000000000, -2.500000000000000400, 2.500000000000000400 ) ) ;
#46 = CARTESIAN_POINT ( 'NONE',  ( 69.99999999999998600, -5.835000000000000000, 0.0000000000000000000 ) ) ;
#47 = CLOSED_SHELL ( 'NONE', ( #298, #295, #303, #291, #305, #326, #288, #300, #353, #299, #323, #302 ) ) ;
#48 = PLANE ( 'NONE',  #304 ) ;
#49 = PLANE ( 'NONE',  #313 ) ;
#50 = DIRECTION ( 'NONE',  ( 0.0000000000000000000, -0.0000000000000000000, 1.000000000000000000 ) ) ;
#51 = DIRECTION ( 'NONE',  ( 0.0000000000000000000, 1.000000000000000000, 0.0000000000000000000 ) ) ;
#52 = CARTESIAN_POINT ( 'NONE',  ( 75.00000000000000000, -2.499999999999999600, -2.499999999999999600 ) ) ;
#53 = PLANE ( 'NONE',  #315 ) ;
#54 = DIRECTION ( 'NONE',  ( -0.0000000000000000000, 0.0000000000000000000, -1.000000000000000000 ) ) ;
#55 = DIRECTION ( 'NONE',  ( 1.000000000000000000, 0.0000000000000000000, -0.0000000000000000000 ) ) ;
#56 = CARTESIAN_POINT ( 'NONE',  ( 69.99999999999998600, 5.835000000000000000, 0.0000000000000000000 ) ) ;
#57 = PLANE ( 'NONE',  #317 ) ;
#58 = EDGE_LOOP ( 'NONE', ( #89, #85, #84, #230 ) ) ;
#59 = VECTOR ( 'NONE', #86, 1000.000000000000000 ) ;
#60 = VECTOR ( 'NONE', #206, 1000.000000000000000 ) ;
#61 = DIRECTION ( 'NONE',  ( -0.0000000000000000000, 1.000000000000000000, 1.734723475976807100E-016 ) ) ;
#62 = LINE ( 'NONE', #10, #236 ) ;
#63 = DIRECTION ( 'NONE',  ( 0.0000000000000000000, 0.0000000000000000000, -1.000000000000000000 ) ) ;
#64 = PLANE ( 'NONE',  #316 ) ;
#65 = CARTESIAN_POINT ( 'NONE',  ( -75.00000000000000000, 0.0000000000000000000, 0.0000000000000000000 ) ) ;
#66 = VERTEX_POINT ( 'NONE', #98 ) ;
#67 = CARTESIAN_POINT ( 'NONE',  ( 69.99999999999998600, -5.835000000000000000, 0.0000000000000000000 ) ) ;
#68 = DIRECTION ( 'NONE',  ( 0.0000000000000000000, 1.000000000000000000, 0.0000000000000000000 ) ) ;
#69 = DIRECTION ( 'NONE',  ( -0.0000000000000000000, -1.000000000000000000, -0.0000000000000000000 ) ) ;
#70 = CARTESIAN_POINT ( 'NONE',  ( 69.99999999999998600, 5.835000000000000000, 0.0000000000000000000 ) ) ;
#71 = DIRECTION ( 'NONE',  ( 0.0000000000000000000, 1.000000000000000000, 0.0000000000000000000 ) ) ;
#72 = DIRECTION ( 'NONE',  ( 0.0000000000000000000, 0.0000000000000000000, -1.000000000000000000 ) ) ;
#73 = VECTOR ( 'NONE', #13, 1000.000000000000000 ) ;
#74 = DIRECTION ( 'NONE',  ( -0.0000000000000000000, -1.000000000000000000, -0.0000000000000000000 ) ) ;
#75 = ORIENTED_EDGE ( 'NONE', *, *, #359, .F. ) ;
#76 = ORIENTED_EDGE ( 'NONE', *, *, #343, .F. ) ;
#77 = VECTOR ( 'NONE', #15, 1000.000000000000000 ) ;
#78 = CARTESIAN_POINT ( 'NONE',  ( -75.00000000000000000, -2.499999999999999600, -2.499999999999999600 ) ) ;
#79 = FACE_OUTER_BOUND ( 'NONE', #173, .T. ) ;
#80 = ORIENTED_EDGE ( 'NONE', *, *, #347, .T. ) ;
#81 = CARTESIAN_POINT ( 'NONE',  ( -75.00000000000000000, -2.500000000000000400, 2.500000000000000400 ) ) ;
#82 = ORIENTED_EDGE ( 'NONE', *, *, #226, .T. ) ;
#83 = CARTESIAN_POINT ( 'NONE',  ( 69.99999999999998600, 5.835000000000000000, -0.8350000000000047400 ) ) ;
#84 = ORIENTED_EDGE ( 'NONE', *, *, #229, .T. ) ;
#85 = ORIENTED_EDGE ( 'NONE', *, *, #345, .T. ) ;
#86 = DIRECTION ( 'NONE',  ( -0.0000000000000000000, -1.000000000000000000, -0.0000000000000000000 ) ) ;
#87 = ORIENTED_EDGE ( 'NONE', *, *, #347, .F. ) ;
#88 = ORIENTED_EDGE ( 'NONE', *, *, #240, .T. ) ;
#89 = ORIENTED_EDGE ( 'NONE', *, *, #350, .F. ) ;
#90 = ORIENTED_EDGE ( 'NONE', *, *, #346, .F. ) ;
#91 = CARTESIAN_POINT ( 'NONE',  ( 69.99999999999998600, 5.835000000000000000, 0.0000000000000000000 ) ) ;
#92 = DIRECTION ( 'NONE',  ( 0.0000000000000000000, 0.0000000000000000000, -1.000000000000000000 ) ) ;
#93 = CARTESIAN_POINT ( 'NONE',  ( 0.0000000000000000000, 0.0000000000000000000, 0.0000000000000000000 ) ) ;
#94 = CARTESIAN_POINT ( 'NONE',  ( 69.99999999999998600, 5.835000000000000000, 0.0000000000000000000 ) ) ;
#95 = DIRECTION ( 'NONE',  ( 0.0000000000000000000, 8.673617379884035500E-017, -1.000000000000000000 ) ) ;
#96 = CARTESIAN_POINT ( 'NONE',  ( 75.00000000000000000, 2.500000000000000000, -2.499999999999999600 ) ) ;
#97 = DIRECTION ( 'NONE',  ( -0.0000000000000000000, 0.0000000000000000000, -1.000000000000000000 ) ) ;
#98 = CARTESIAN_POINT ( 'NONE',  ( -75.00000000000000000, -2.499999999999999600, -2.499999999999999600 ) ) ;
#99 = CARTESIAN_POINT ( 'NONE',  ( 69.99999999999998600, -5.835000000000000000, -0.8350000000000047400 ) ) ;
#100 = CARTESIAN_POINT ( 'NONE',  ( 69.99999999999998600, -2.499999999999998700, -0.8350000000000047400 ) ) ;
#101 = DIRECTION ( 'NONE',  ( 0.0000000000000000000, -1.734723475976807100E-016, 1.000000000000000000 ) ) ;
#102 = CARTESIAN_POINT ( 'NONE',  ( 69.99999999999998600, 2.500000000000000000, 0.0000000000000000000 ) ) ;
#103 = DIRECTION ( 'NONE',  ( -0.0000000000000000000, 1.000000000000000000, 8.673617379884035500E-017 ) ) ;
#104 =( NAMED_UNIT ( * ) SI_UNIT ( $, .STERADIAN. ) SOLID_ANGLE_UNIT ( ) );
#105 =( NAMED_UNIT ( * ) PLANE_ANGLE_UNIT ( ) SI_UNIT ( $, .RADIAN. ) );
#106 =( LENGTH_UNIT ( ) NAMED_UNIT ( * ) SI_UNIT ( .MILLI., .METRE. ) );
#107 = DIRECTION ( 'NONE',  ( 0.0000000000000000000, 0.0000000000000000000, -1.000000000000000000 ) ) ;
#108 = LINE ( 'NONE', #191, #285 ) ;
#109 = APPLICATION_PROTOCOL_DEFINITION ( 'draft international standard', 'automotive_design', 1998, #154 ) ;
#110 = CARTESIAN_POINT ( 'NONE',  ( 69.99999999999998600, 5.835000000000000000, 0.0000000000000000000 ) ) ;
#111 = CARTESIAN_POINT ( 'NONE',  ( 75.00000000000000000, 2.499999999999999600, 2.500000000000000400 ) ) ;
#112 = CARTESIAN_POINT ( 'NONE',  ( 75.00000000000000000, -2.499999999999999600, -2.499999999999999600 ) ) ;
#113 = CARTESIAN_POINT ( 'NONE',  ( 69.99999999999998600, 2.500000000000000000, 0.8350000000000047400 ) ) ;
#114 = CARTESIAN_POINT ( 'NONE',  ( -75.00000000000000000, -2.500000000000000400, 2.500000000000000400 ) ) ;
#115 = VECTOR ( 'NONE', #223, 1000.000000000000000 ) ;
#116 = LINE ( 'NONE', #22, #186 ) ;
#117 = VECTOR ( 'NONE', #254, 1000.000000000000000 ) ;
#118 = SURFACE_STYLE_FILL_AREA ( #189 ) ;
#119 = LINE ( 'NONE', #215, #115 ) ;
#120 = CIRCLE ( 'NONE', #330, 0.8350000000000047400 ) ;
#121 = CIRCLE ( 'NONE', #331, 0.8350000000000047400 ) ;
#122 = VERTEX_POINT ( 'NONE', #99 ) ;
#123 = CIRCLE ( 'NONE', #333, 0.8350000000000047400 ) ;
#124 = VERTEX_POINT ( 'NONE', #127 ) ;
#125 = ORIENTED_EDGE ( 'NONE', *, *, #227, .T. ) ;
#126 = ORIENTED_EDGE ( 'NONE', *, *, #338, .F. ) ;
#127 = CARTESIAN_POINT ( 'NONE',  ( 75.00000000000000000, 2.500000000000000000, -2.499999999999999600 ) ) ;
#128 = ORIENTED_EDGE ( 'NONE', *, *, #351, .F. ) ;
#129 = ORIENTED_EDGE ( 'NONE', *, *, #342, .F. ) ;
#130 = ORIENTED_EDGE ( 'NONE', *, *, #361, .T. ) ;
#131 = ORIENTED_EDGE ( 'NONE', *, *, #240, .F. ) ;
#132 = ORIENTED_EDGE ( 'NONE', *, *, #339, .F. ) ;
#133 = ORIENTED_EDGE ( 'NONE', *, *, #359, .T. ) ;
#134 = ORIENTED_EDGE ( 'NONE', *, *, #229, .F. ) ;
#135 = ORIENTED_EDGE ( 'NONE', *, *, #348, .F. ) ;
#136 = ORIENTED_EDGE ( 'NONE', *, *, #319, .F. ) ;
#137 = ORIENTED_EDGE ( 'NONE', *, *, #227, .F. ) ;
#138 = ORIENTED_EDGE ( 'NONE', *, *, #345, .F. ) ;
#139 = ORIENTED_EDGE ( 'NONE', *, *, #337, .F. ) ;
#140 = ORIENTED_EDGE ( 'NONE', *, *, #351, .T. ) ;
#141 = ORIENTED_EDGE ( 'NONE', *, *, #338, .T. ) ;
#142 = ORIENTED_EDGE ( 'NONE', *, *, #334, .T. ) ;
#143 = ORIENTED_EDGE ( 'NONE', *, *, #249, .F. ) ;
#144 = EDGE_LOOP ( 'NONE', ( #141, #140, #129, #139 ) ) ;
#145 = ORIENTED_EDGE ( 'NONE', *, *, #249, .T. ) ;
#146 = ORIENTED_EDGE ( 'NONE', *, *, #349, .T. ) ;
#147 = VERTEX_POINT ( 'NONE', #113 ) ;
#148 = EDGE_LOOP ( 'NONE', ( #87, #145, #82, #90 ) ) ;
#149 = VERTEX_POINT ( 'NONE', #112 ) ;
#150 = VERTEX_POINT ( 'NONE', #111 ) ;
#151 = DIRECTION ( 'NONE',  ( -0.0000000000000000000, -1.000000000000000000, -0.0000000000000000000 ) ) ;
#152 = VERTEX_POINT ( 'NONE', #114 ) ;
#153 = ORIENTED_EDGE ( 'NONE', *, *, #356, .T. ) ;
#154 = APPLICATION_CONTEXT ( 'automotive_design' ) ;
#155 = ORIENTED_EDGE ( 'NONE', *, *, #336, .T. ) ;
#156 = ORIENTED_EDGE ( 'NONE', *, *, #336, .F. ) ;
#157 = ORIENTED_EDGE ( 'NONE', *, *, #342, .T. ) ;
#158 = EDGE_LOOP ( 'NONE', ( #205, #76, #128, #146 ) ) ;
#159 = ORIENTED_EDGE ( 'NONE', *, *, #343, .T. ) ;
#160 = ORIENTED_EDGE ( 'NONE', *, *, #319, .T. ) ;
#161 = ORIENTED_EDGE ( 'NONE', *, *, #350, .T. ) ;
#162 = ORIENTED_EDGE ( 'NONE', *, *, #361, .F. ) ;
#163 = ORIENTED_EDGE ( 'NONE', *, *, #335, .F. ) ;
#164 = ORIENTED_EDGE ( 'NONE', *, *, #337, .T. ) ;
#165 = VERTEX_POINT ( 'NONE', #100 ) ;
#166 = DIRECTION ( 'NONE',  ( 0.0000000000000000000, -1.000000000000000000, -8.673617379884035500E-017 ) ) ;
#167 = EDGE_LOOP ( 'NONE', ( #160, #161 ) ) ;
#168 = FACE_OUTER_BOUND ( 'NONE', #277, .T. ) ;
#169 = CARTESIAN_POINT ( 'NONE',  ( -75.00000000000000000, 2.499999999999999600, 2.500000000000000400 ) ) ;
#170 = COLOUR_RGB ( '',0.7921568627450980000, 0.8196078431372548800, 0.9333333333333333500 ) ;
#171 = CARTESIAN_POINT ( 'NONE',  ( 69.99999999999998600, 5.835000000000000000, -0.8350000000000047400 ) ) ;
#172 = PRESENTATION_STYLE_ASSIGNMENT (( #199 ) ) ;
#173 = EDGE_LOOP ( 'NONE', ( #88, #340, #126, #245 ) ) ;
#174 = CIRCLE ( 'NONE', #314, 0.8350000000000047400 ) ;
#175 = CYLINDRICAL_SURFACE ( 'NONE', #320, 0.8350000000000047400 ) ;
#176 = FACE_OUTER_BOUND ( 'NONE', #207, .T. ) ;
#177 = DIRECTION ( 'NONE',  ( 1.000000000000000000, 0.0000000000000000000, 0.0000000000000000000 ) ) ;
#178 = CYLINDRICAL_SURFACE ( 'NONE', #321, 0.8350000000000047400 ) ;
#179 = FACE_OUTER_BOUND ( 'NONE', #283, .T. ) ;
#180 = FACE_OUTER_BOUND ( 'NONE', #144, .T. ) ;
#181 = FACE_OUTER_BOUND ( 'NONE', #148, .T. ) ;
#182 = FILL_AREA_STYLE_COLOUR ( '', #170 ) ;
#183 = FACE_OUTER_BOUND ( 'NONE', #58, .T. ) ;
#184 = FACE_BOUND ( 'NONE', #309, .T. ) ;
#185 = FACE_OUTER_BOUND ( 'NONE', #158, .T. ) ;
#186 = VECTOR ( 'NONE', #25, 1000.000000000000000 ) ;
#187 = LINE ( 'NONE', #24, #73 ) ;
#188 = FACE_OUTER_BOUND ( 'NONE', #239, .T. ) ;
#189 = FILL_AREA_STYLE ('',( #182 ) ) ;
#190 = CYLINDRICAL_SURFACE ( 'NONE', #311, 0.8350000000000047400 ) ;
#191 = CARTESIAN_POINT ( 'NONE',  ( 75.00000000000000000, 2.500000000000000000, -2.499999999999999600 ) ) ;
#192 = LINE ( 'NONE', #17, #77 ) ;
#193 = CIRCLE ( 'NONE', #312, 0.8350000000000047400 ) ;
#194 = FACE_BOUND ( 'NONE', #167, .T. ) ;
#195 = SURFACE_SIDE_STYLE ('',( #118 ) ) ;
#196 = FACE_OUTER_BOUND ( 'NONE', #266, .T. ) ;
#197 = FACE_OUTER_BOUND ( 'NONE', #263, .T. ) ;
#198 = CYLINDRICAL_SURFACE ( 'NONE', #318, 0.8350000000000047400 ) ;
#199 = SURFACE_STYLE_USAGE ( .BOTH. , #195 ) ;
#200 =( LENGTH_UNIT ( ) NAMED_UNIT ( * ) SI_UNIT ( .MILLI., .METRE. ) );
#201 = DIRECTION ( 'NONE',  ( 0.0000000000000000000, 1.000000000000000000, 0.0000000000000000000 ) ) ;
#202 = SHAPE_DEFINITION_REPRESENTATION ( #261, #273 ) ;
#203 =( NAMED_UNIT ( * ) PLANE_ANGLE_UNIT ( ) SI_UNIT ( $, .RADIAN. ) );
#204 =( LENGTH_UNIT ( ) NAMED_UNIT ( * ) SI_UNIT ( .MILLI., .METRE. ) );
#205 = ORIENTED_EDGE ( 'NONE', *, *, #339, .T. ) ;
#206 = DIRECTION ( 'NONE',  ( 0.0000000000000000000, -8.673617379884035500E-017, 1.000000000000000000 ) ) ;
#207 = EDGE_LOOP ( 'NONE', ( #131, #130, #133, #132 ) ) ;
#208 = DIRECTION ( 'NONE',  ( 0.0000000000000000000, 0.0000000000000000000, -1.000000000000000000 ) ) ;
#209 = LINE ( 'NONE', #11, #278 ) ;
#210 = SURFACE_STYLE_USAGE ( .BOTH. , #216 ) ;
#211 =( NAMED_UNIT ( * ) SI_UNIT ( $, .STERADIAN. ) SOLID_ANGLE_UNIT ( ) );
#212 = PLANE ( 'NONE',  #322 ) ;
#213 = DIRECTION ( 'NONE',  ( -0.0000000000000000000, -1.000000000000000000, -0.0000000000000000000 ) ) ;
#214 = APPLICATION_PROTOCOL_DEFINITION ( 'draft international standard', 'automotive_design', 1998, #362 ) ;
#215 = CARTESIAN_POINT ( 'NONE',  ( 69.99999999999998600, 5.835000000000000000, 0.8350000000000047400 ) ) ;
#216 = SURFACE_SIDE_STYLE ('',( #332 ) ) ;
#217 = DIRECTION ( 'NONE',  ( 0.0000000000000000000, 1.000000000000000000, 0.0000000000000000000 ) ) ;
#218 = LINE ( 'NONE', #1, #43 ) ;
#219 = DIRECTION ( 'NONE',  ( 0.0000000000000000000, 0.0000000000000000000, 1.000000000000000000 ) ) ;
#220 = UNCERTAINTY_MEASURE_WITH_UNIT (LENGTH_MEASURE( 1.000000000000000100E-005 ), #204, 'distance_accuracy_value', 'NONE');
#221 = CARTESIAN_POINT ( 'NONE',  ( 69.99999999999998600, -5.835000000000000000, 0.0000000000000000000 ) ) ;
#222 = CARTESIAN_POINT ( 'NONE',  ( -75.00000000000000000, -2.499999999999999600, -2.499999999999999600 ) ) ;
#223 = DIRECTION ( 'NONE',  ( -0.0000000000000000000, -1.000000000000000000, -0.0000000000000000000 ) ) ;
#224 = LINE ( 'NONE', #222, #117 ) ;
#225 = CARTESIAN_POINT ( 'NONE',  ( 75.00000000000000000, -2.500000000000000400, 2.500000000000000400 ) ) ;
#226 = EDGE_CURVE ( 'NONE', #147, #252, #123, .T. ) ;
#227 = EDGE_CURVE ( 'NONE', #272, #257, #121, .T. ) ;
#228 = CARTESIAN_POINT ( 'NONE',  ( 69.99999999999998600, 5.835000000000000000, 0.8350000000000047400 ) ) ;
#229 = EDGE_CURVE ( 'NONE', #270, #122, #120, .T. ) ;
#230 = ORIENTED_EDGE ( 'NONE', *, *, #356, .F. ) ;
#231 = DIRECTION ( 'NONE',  ( 0.0000000000000000000, 0.0000000000000000000, 1.000000000000000000 ) ) ;
#232 = DIRECTION ( 'NONE',  ( 0.0000000000000000000, 1.000000000000000000, 0.0000000000000000000 ) ) ;
#233 = CARTESIAN_POINT ( 'NONE',  ( -75.00000000000000000, 2.500000000000000000, -2.499999999999999600 ) ) ;
#234 =( NAMED_UNIT ( * ) SI_UNIT ( $, .STERADIAN. ) SOLID_ANGLE_UNIT ( ) );
#235 = CARTESIAN_POINT ( 'NONE',  ( 69.99999999999998600, -2.499999999999998700, 0.8350000000000047400 ) ) ;
#236 = VECTOR ( 'NONE', #16, 1000.000000000000000 ) ;
#237 = CARTESIAN_POINT ( 'NONE',  ( 69.99999999999998600, -5.835000000000000000, 0.8350000000000047400 ) ) ;
#238 = VECTOR ( 'NONE', #68, 1000.000000000000000 ) ;
#239 = EDGE_LOOP ( 'NONE', ( #162, #163, #164, #155 ) ) ;
#240 = EDGE_CURVE ( 'NONE', #66, #243, #224, .T. ) ;
#241 = LINE ( 'NONE', #5, #60 ) ;
#242 =( NAMED_UNIT ( * ) PLANE_ANGLE_UNIT ( ) SI_UNIT ( $, .RADIAN. ) );
#243 = VERTEX_POINT ( 'NONE', #233 ) ;
#244 = LINE ( 'NONE', #81, #238 ) ;
#245 = ORIENTED_EDGE ( 'NONE', *, *, #335, .T. ) ;
#246 = ORIENTED_EDGE ( 'NONE', *, *, #226, .F. ) ;
#247 = PLANE ( 'NONE',  #324 ) ;
#248 = AXIS2_PLACEMENT_3D ( 'NONE', #41, #61, #63 ) ;
#249 = EDGE_CURVE ( 'NONE', #257, #147, #119, .T. ) ;
#250 = ORIENTED_EDGE ( 'NONE', *, *, #334, .F. ) ;
#251 = FACE_OUTER_BOUND ( 'NONE', #12, .T. ) ;
#252 = VERTEX_POINT ( 'NONE', #9 ) ;
#253 = LINE ( 'NONE', #83, #59 ) ;
#254 = DIRECTION ( 'NONE',  ( 0.0000000000000000000, 1.000000000000000000, 0.0000000000000000000 ) ) ;
#255 = MANIFOLD_SOLID_BREP ( 'Boss-Extrude2', #47 ) ;
#256 = VECTOR ( 'NONE', #7, 1000.000000000000000 ) ;
#257 = VERTEX_POINT ( 'NONE', #228 ) ;
#258 = PRODUCT_CONTEXT ( 'NONE', #154, 'mechanical' ) ;
#259 = PRODUCT ( '14070515', '14070515', '', ( #258 ) ) ;
#260 = LINE ( 'NONE', #3, #265 ) ;
#261 = PRODUCT_DEFINITION_SHAPE ( 'NONE', 'NONE',  #292 ) ;
#262 = CARTESIAN_POINT ( 'NONE',  ( 69.99999999999998600, 5.835000000000000000, 0.0000000000000000000 ) ) ;
#263 = EDGE_LOOP ( 'NONE', ( #75, #156, #157, #159 ) ) ;
#264 = CIRCLE ( 'NONE', #248, 0.8350000000000047400 ) ;
#265 = VECTOR ( 'NONE', #2, 1000.000000000000000 ) ;
#266 = EDGE_LOOP ( 'NONE', ( #143, #137, #358, #142 ) ) ;
#267 = ORIENTED_EDGE ( 'NONE', *, *, #348, .T. ) ;
#268 = CIRCLE ( 'NONE', #308, 0.8350000000000047400 ) ;
#269 = VERTEX_POINT ( 'NONE', #225 ) ;
#270 = VERTEX_POINT ( 'NONE', #237 ) ;
#271 = FILL_AREA_STYLE ('',( #352 ) ) ;
#272 = VERTEX_POINT ( 'NONE', #171 ) ;
#273 = ADVANCED_BREP_SHAPE_REPRESENTATION ( '14070515', ( #255, #293 ), #306 ) ;
#274 = DIRECTION ( 'NONE',  ( 0.0000000000000000000, 0.0000000000000000000, 1.000000000000000000 ) ) ;
#275 = LINE ( 'NONE', #6, #355 ) ;
#276 = DIRECTION ( 'NONE',  ( -1.000000000000000000, -0.0000000000000000000, -0.0000000000000000000 ) ) ;
#277 = EDGE_LOOP ( 'NONE', ( #125, #80 ) ) ;
#278 = VECTOR ( 'NONE', #8, 1000.000000000000000 ) ;
#279 = LINE ( 'NONE', #23, #256 ) ;
#280 = UNCERTAINTY_MEASURE_WITH_UNIT (LENGTH_MEASURE( 1.000000000000000100E-005 ), #200, 'distance_accuracy_value', 'NONE');
#281 = LINE ( 'NONE', #78, #357 ) ;
#282 = VERTEX_POINT ( 'NONE', #169 ) ;
#283 = EDGE_LOOP ( 'NONE', ( #138, #136, #153, #267 ) ) ;
#284 = CIRCLE ( 'NONE', #307, 0.8350000000000047400 ) ;
#285 = VECTOR ( 'NONE', #276, 1000.000000000000000 ) ;
#286 = DIRECTION ( 'NONE',  ( 0.0000000000000000000, 0.0000000000000000000, 1.000000000000000000 ) ) ;
#287 = VERTEX_POINT ( 'NONE', #235 ) ;
#288 = ADVANCED_FACE ( 'NONE', ( #180 ), #247, .T. ) ;
#289 = PRODUCT_RELATED_PRODUCT_CATEGORY ( 'part', '', ( #259 ) ) ;
#290 = PRODUCT_DEFINITION_FORMATION_WITH_SPECIFIED_SOURCE ( 'ANY', '', #259, .NOT_KNOWN. ) ;
#291 = ADVANCED_FACE ( 'NONE', ( #184, #185 ), #212, .F. ) ;
#292 = PRODUCT_DEFINITION ( 'UNKNOWN', '', #290, #21 ) ;
#293 = AXIS2_PLACEMENT_3D ( 'NONE', #93, #274, #177 ) ;
#294 =( GEOMETRIC_REPRESENTATION_CONTEXT ( 3 ) GLOBAL_UNCERTAINTY_ASSIGNED_CONTEXT ( ( #220 ) ) GLOBAL_UNIT_ASSIGNED_CONTEXT ( ( #204, #203, #211 ) ) REPRESENTATION_CONTEXT ( 'NONE', 'WORKASPACE' ) );
#295 = ADVANCED_FACE ( 'NONE', ( #183 ), #178, .T. ) ;
#296 = MECHANICAL_DESIGN_GEOMETRIC_PRESENTATION_REPRESENTATION (  '', ( #301 ), #294 ) ;
#297 = PRESENTATION_LAYER_ASSIGNMENT (  '', '', ( #301 ) ) ;
#298 = ADVANCED_FACE ( 'NONE', ( #181 ), #175, .T. ) ;
#299 = ADVANCED_FACE ( 'NONE', ( #179 ), #198, .T. ) ;
#300 = ADVANCED_FACE ( 'NONE', ( #176 ), #57, .F. ) ;
#301 = STYLED_ITEM ( 'NONE', ( #354 ), #273 ) ;
#302 = ADVANCED_FACE ( 'NONE', ( #168 ), #64, .T. ) ;
#303 = ADVANCED_FACE ( 'NONE', ( #79 ), #53, .F. ) ;
#304 = AXIS2_PLACEMENT_3D ( 'NONE', #67, #71, #42 ) ;
#305 = ADVANCED_FACE ( 'NONE', ( #197 ), #49, .T. ) ;
#306 =( GEOMETRIC_REPRESENTATION_CONTEXT ( 3 ) GLOBAL_UNCERTAINTY_ASSIGNED_CONTEXT ( ( #14 ) ) GLOBAL_UNIT_ASSIGNED_CONTEXT ( ( #106, #105, #104 ) ) REPRESENTATION_CONTEXT ( 'NONE', 'WORKASPACE' ) );
#307 = AXIS2_PLACEMENT_3D ( 'NONE', #46, #201, #344 ) ;
#308 = AXIS2_PLACEMENT_3D ( 'NONE', #262, #341, #286 ) ;
#309 = EDGE_LOOP ( 'NONE', ( #250, #246 ) ) ;
#310 = AXIS2_PLACEMENT_3D ( 'NONE', #28, #34, #26 ) ;
#311 = AXIS2_PLACEMENT_3D ( 'NONE', #33, #35, #32 ) ;
#312 = AXIS2_PLACEMENT_3D ( 'NONE', #20, #19, #18 ) ;
#313 = AXIS2_PLACEMENT_3D ( 'NONE', #45, #37, #36 ) ;
#314 = AXIS2_PLACEMENT_3D ( 'NONE', #31, #30, #29 ) ;
#315 = AXIS2_PLACEMENT_3D ( 'NONE', #52, #39, #38 ) ;
#316 = AXIS2_PLACEMENT_3D ( 'NONE', #56, #51, #50 ) ;
#317 = AXIS2_PLACEMENT_3D ( 'NONE', #65, #55, #54 ) ;
#318 = AXIS2_PLACEMENT_3D ( 'NONE', #70, #69, #72 ) ;
#319 = EDGE_CURVE ( 'NONE', #165, #287, #174, .T. ) ;
#320 = AXIS2_PLACEMENT_3D ( 'NONE', #91, #74, #92 ) ;
#321 = AXIS2_PLACEMENT_3D ( 'NONE', #94, #213, #208 ) ;
#322 = AXIS2_PLACEMENT_3D ( 'NONE', #96, #166, #95 ) ;
#323 = ADVANCED_FACE ( 'NONE', ( #196 ), #190, .T. ) ;
#324 = AXIS2_PLACEMENT_3D ( 'NONE', #44, #40, #97 ) ;
#325 =( GEOMETRIC_REPRESENTATION_CONTEXT ( 3 ) GLOBAL_UNCERTAINTY_ASSIGNED_CONTEXT ( ( #280 ) ) GLOBAL_UNIT_ASSIGNED_CONTEXT ( ( #200, #242, #234 ) ) REPRESENTATION_CONTEXT ( 'NONE', 'WORKASPACE' ) );
#326 = ADVANCED_FACE ( 'NONE', ( #194, #188 ), #27, .T. ) ;
#327 = MECHANICAL_DESIGN_GEOMETRIC_PRESENTATION_REPRESENTATION (  '', ( #329 ), #325 ) ;
#328 = PRESENTATION_LAYER_ASSIGNMENT (  '', '', ( #329 ) ) ;
#329 = STYLED_ITEM ( 'NONE', ( #172 ), #255 ) ;
#330 = AXIS2_PLACEMENT_3D ( 'NONE', #221, #232, #231 ) ;
#331 = AXIS2_PLACEMENT_3D ( 'NONE', #110, #217, #219 ) ;
#332 = SURFACE_STYLE_FILL_AREA ( #271 ) ;
#333 = AXIS2_PLACEMENT_3D ( 'NONE', #102, #103, #107 ) ;
#334 = EDGE_CURVE ( 'NONE', #252, #147, #193, .T. ) ;
#335 = EDGE_CURVE ( 'NONE', #149, #66, #116, .T. ) ;
#336 = EDGE_CURVE ( 'NONE', #269, #152, #192, .T. ) ;
#337 = EDGE_CURVE ( 'NONE', #149, #269, #187, .T. ) ;
#338 = EDGE_CURVE ( 'NONE', #149, #124, #209, .T. ) ;
#339 = EDGE_CURVE ( 'NONE', #243, #282, #279, .T. ) ;
#340 = ORIENTED_EDGE ( 'NONE', *, *, #349, .F. ) ;
#341 = DIRECTION ( 'NONE',  ( 0.0000000000000000000, 1.000000000000000000, 0.0000000000000000000 ) ) ;
#342 = EDGE_CURVE ( 'NONE', #269, #150, #62, .T. ) ;
#343 = EDGE_CURVE ( 'NONE', #150, #282, #275, .T. ) ;
#344 = DIRECTION ( 'NONE',  ( 0.0000000000000000000, 0.0000000000000000000, 1.000000000000000000 ) ) ;
#345 = EDGE_CURVE ( 'NONE', #287, #270, #260, .T. ) ;
#346 = EDGE_CURVE ( 'NONE', #272, #252, #218, .T. ) ;
#347 = EDGE_CURVE ( 'NONE', #257, #272, #268, .T. ) ;
#348 = EDGE_CURVE ( 'NONE', #122, #270, #284, .T. ) ;
#349 = EDGE_CURVE ( 'NONE', #124, #243, #108, .T. ) ;
#350 = EDGE_CURVE ( 'NONE', #287, #165, #264, .T. ) ;
#351 = EDGE_CURVE ( 'NONE', #124, #150, #241, .T. ) ;
#352 = FILL_AREA_STYLE_COLOUR ( '', #360 ) ;
#353 = ADVANCED_FACE ( 'NONE', ( #251 ), #48, .F. ) ;
#354 = PRESENTATION_STYLE_ASSIGNMENT (( #210 ) ) ;
#355 = VECTOR ( 'NONE', #4, 1000.000000000000000 ) ;
#356 = EDGE_CURVE ( 'NONE', #165, #122, #253, .T. ) ;
#357 = VECTOR ( 'NONE', #101, 1000.000000000000000 ) ;
#358 = ORIENTED_EDGE ( 'NONE', *, *, #346, .T. ) ;
#359 = EDGE_CURVE ( 'NONE', #152, #282, #244, .T. ) ;
#360 = COLOUR_RGB ( '',0.7921568627450980000, 0.8196078431372548800, 0.9333333333333333500 ) ;
#361 = EDGE_CURVE ( 'NONE', #66, #152, #281, .T. ) ;
#362 = APPLICATION_CONTEXT ( 'automotive_design' ) ;
ENDSEC;
END-ISO-10303-21;
