ISO-10303-21;
HEADER;
FILE_DESCRIPTION (( 'STEP AP214' ),
    '1' );
FILE_NAME ('14070520.step',
    '2016-05-09T12:17:17',
    ( '' ),
    ( '' ),
    'SwSTEP 2.0',
    'SolidWorks 2015',
    '' );
FILE_SCHEMA (( 'AUTOMOTIVE_DESIGN' ));
ENDSEC;

DATA;
#1 = DIRECTION ( 'NONE',  ( -0.0000000000000000000, 1.000000000000000000, 1.734723475976807100E-016 ) ) ;
#2 = APPLICATION_PROTOCOL_DEFINITION ( 'draft international standard', 'automotive_design', 1998, #3 ) ;
#3 = APPLICATION_CONTEXT ( 'automotive_design' ) ;
#4 = PRODUCT_CONTEXT ( 'NONE', #23, 'mechanical' ) ;
#5 = DIRECTION ( 'NONE',  ( 1.000000000000000000, 0.0000000000000000000, 0.0000000000000000000 ) ) ;
#6 = DIRECTION ( 'NONE',  ( 0.0000000000000000000, 0.0000000000000000000, 1.000000000000000000 ) ) ;
#7 =( NAMED_UNIT ( * ) SI_UNIT ( $, .STERADIAN. ) SOLID_ANGLE_UNIT ( ) );
#8 = DIRECTION ( 'NONE',  ( 0.0000000000000000000, 0.0000000000000000000, -1.000000000000000000 ) ) ;
#9 = VERTEX_POINT ( 'NONE', #296 ) ;
#10 = EDGE_CURVE ( 'NONE', #166, #174, #140, .T. ) ;
#11 =( LENGTH_UNIT ( ) NAMED_UNIT ( * ) SI_UNIT ( .MILLI., .METRE. ) );
#12 = SURFACE_STYLE_USAGE ( .BOTH. , #19 ) ;
#13 = UNCERTAINTY_MEASURE_WITH_UNIT (LENGTH_MEASURE( 1.000000000000000100E-005 ), #11, 'distance_accuracy_value', 'NONE');
#14 = ORIENTED_EDGE ( 'NONE', *, *, #350, .T. ) ;
#15 = CARTESIAN_POINT ( 'NONE',  ( 95.00000000000000000, -2.499999999999998700, 0.0000000000000000000 ) ) ;
#16 = DIRECTION ( 'NONE',  ( 0.0000000000000000000, 1.000000000000000000, 0.0000000000000000000 ) ) ;
#17 = DIRECTION ( 'NONE',  ( -0.0000000000000000000, -1.000000000000000000, -0.0000000000000000000 ) ) ;
#18 = DIRECTION ( 'NONE',  ( 0.0000000000000000000, 0.0000000000000000000, 1.000000000000000000 ) ) ;
#19 = SURFACE_SIDE_STYLE ('',( #131 ) ) ;
#20 = FILL_AREA_STYLE_COLOUR ( '', #133 ) ;
#21 = FILL_AREA_STYLE ('',( #20 ) ) ;
#22 = PRODUCT ( '14070520', '14070520', '', ( #4 ) ) ;
#23 = APPLICATION_CONTEXT ( 'automotive_design' ) ;
#24 = DIRECTION ( 'NONE',  ( -0.0000000000000000000, 1.000000000000000000, 1.734723475976807100E-016 ) ) ;
#25 = CARTESIAN_POINT ( 'NONE',  ( 95.00000000000000000, -2.499999999999998700, 0.0000000000000000000 ) ) ;
#26 = DIRECTION ( 'NONE',  ( 0.0000000000000000000, 0.0000000000000000000, -1.000000000000000000 ) ) ;
#27 = DIRECTION ( 'NONE',  ( 0.0000000000000000000, -8.673617379884035500E-017, 1.000000000000000000 ) ) ;
#28 = DIRECTION ( 'NONE',  ( 0.0000000000000000000, 0.0000000000000000000, 1.000000000000000000 ) ) ;
#29 = APPLICATION_PROTOCOL_DEFINITION ( 'draft international standard', 'automotive_design', 1998, #23 ) ;
#30 = CARTESIAN_POINT ( 'NONE',  ( 95.00000000000000000, 5.835000000000000000, 0.8350000000000047400 ) ) ;
#31 =( NAMED_UNIT ( * ) SI_UNIT ( $, .STERADIAN. ) SOLID_ANGLE_UNIT ( ) );
#32 = CARTESIAN_POINT ( 'NONE',  ( 95.00000000000000000, 2.500000000000000000, 0.0000000000000000000 ) ) ;
#33 =( NAMED_UNIT ( * ) PLANE_ANGLE_UNIT ( ) SI_UNIT ( $, .RADIAN. ) );
#34 = ORIENTED_EDGE ( 'NONE', *, *, #330, .T. ) ;
#35 = ORIENTED_EDGE ( 'NONE', *, *, #356, .F. ) ;
#36 = VERTEX_POINT ( 'NONE', #348 ) ;
#37 =( LENGTH_UNIT ( ) NAMED_UNIT ( * ) SI_UNIT ( .MILLI., .METRE. ) );
#38 = DIRECTION ( 'NONE',  ( -1.000000000000000000, -0.0000000000000000000, -0.0000000000000000000 ) ) ;
#39 = PLANE ( 'NONE',  #340 ) ;
#40 = CARTESIAN_POINT ( 'NONE',  ( 95.00000000000000000, 2.500000000000000000, 0.8350000000000047400 ) ) ;
#41 = ORIENTED_EDGE ( 'NONE', *, *, #170, .F. ) ;
#42 = CARTESIAN_POINT ( 'NONE',  ( 0.0000000000000000000, 0.0000000000000000000, 0.0000000000000000000 ) ) ;
#43 = VECTOR ( 'NONE', #94, 1000.000000000000000 ) ;
#44 = ORIENTED_EDGE ( 'NONE', *, *, #357, .F. ) ;
#45 = DIRECTION ( 'NONE',  ( -0.0000000000000000000, -1.000000000000000000, -0.0000000000000000000 ) ) ;
#46 = ORIENTED_EDGE ( 'NONE', *, *, #353, .T. ) ;
#47 = ORIENTED_EDGE ( 'NONE', *, *, #334, .T. ) ;
#48 = CARTESIAN_POINT ( 'NONE',  ( 100.0000000000000000, -2.499999999999999600, -2.499999999999999600 ) ) ;
#49 = ORIENTED_EDGE ( 'NONE', *, *, #350, .F. ) ;
#50 = EDGE_LOOP ( 'NONE', ( #85, #252, #88, #87 ) ) ;
#51 = ORIENTED_EDGE ( 'NONE', *, *, #322, .T. ) ;
#52 = ORIENTED_EDGE ( 'NONE', *, *, #209, .T. ) ;
#53 = EDGE_LOOP ( 'NONE', ( #150, #154 ) ) ;
#54 = ORIENTED_EDGE ( 'NONE', *, *, #354, .T. ) ;
#55 = ORIENTED_EDGE ( 'NONE', *, *, #358, .F. ) ;
#56 = ORIENTED_EDGE ( 'NONE', *, *, #336, .T. ) ;
#57 = DIRECTION ( 'NONE',  ( 0.0000000000000000000, 1.000000000000000000, 0.0000000000000000000 ) ) ;
#58 = ORIENTED_EDGE ( 'NONE', *, *, #349, .F. ) ;
#59 = ORIENTED_EDGE ( 'NONE', *, *, #336, .F. ) ;
#60 = ORIENTED_EDGE ( 'NONE', *, *, #353, .F. ) ;
#61 = SURFACE_STYLE_FILL_AREA ( #118 ) ;
#62 = FACE_OUTER_BOUND ( 'NONE', #149, .T. ) ;
#63 = PRODUCT_DEFINITION_SHAPE ( 'NONE', 'NONE',  #211 ) ;
#64 = LINE ( 'NONE', #283, #106 ) ;
#65 = CARTESIAN_POINT ( 'NONE',  ( 95.00000000000000000, 5.835000000000000000, 0.8350000000000047400 ) ) ;
#66 = ORIENTED_EDGE ( 'NONE', *, *, #188, .F. ) ;
#67 = DIRECTION ( 'NONE',  ( 0.0000000000000000000, -8.673617379884035500E-017, 1.000000000000000000 ) ) ;
#68 = CARTESIAN_POINT ( 'NONE',  ( 95.00000000000000000, -5.835000000000000000, 0.0000000000000000000 ) ) ;
#69 = CARTESIAN_POINT ( 'NONE',  ( 100.0000000000000000, 2.499999999999999600, 2.500000000000000400 ) ) ;
#70 = CARTESIAN_POINT ( 'NONE',  ( 100.0000000000000000, 2.500000000000000000, -2.499999999999999600 ) ) ;
#71 = CARTESIAN_POINT ( 'NONE',  ( 95.00000000000000000, 5.835000000000000000, 0.0000000000000000000 ) ) ;
#72 = CARTESIAN_POINT ( 'NONE',  ( 95.00000000000000000, 5.835000000000000000, -0.8350000000000047400 ) ) ;
#73 = CARTESIAN_POINT ( 'NONE',  ( -100.0000000000000000, -2.500000000000000400, 2.500000000000000400 ) ) ;
#74 =( NAMED_UNIT ( * ) PLANE_ANGLE_UNIT ( ) SI_UNIT ( $, .RADIAN. ) );
#75 = DIRECTION ( 'NONE',  ( 0.0000000000000000000, 1.000000000000000000, 0.0000000000000000000 ) ) ;
#76 = PRODUCT_DEFINITION_CONTEXT ( 'detailed design', #3, 'design' ) ;
#77 = CARTESIAN_POINT ( 'NONE',  ( 100.0000000000000000, -2.500000000000000400, 2.500000000000000400 ) ) ;
#78 = FACE_OUTER_BOUND ( 'NONE', #50, .T. ) ;
#79 = DIRECTION ( 'NONE',  ( 0.0000000000000000000, 0.0000000000000000000, 1.000000000000000000 ) ) ;
#80 = CARTESIAN_POINT ( 'NONE',  ( 95.00000000000000000, 5.835000000000000000, 0.0000000000000000000 ) ) ;
#81 = PLANE ( 'NONE',  #341 ) ;
#82 = CARTESIAN_POINT ( 'NONE',  ( 95.00000000000000000, -5.835000000000000000, 0.0000000000000000000 ) ) ;
#83 = ORIENTED_EDGE ( 'NONE', *, *, #209, .F. ) ;
#84 = ORIENTED_EDGE ( 'NONE', *, *, #330, .F. ) ;
#85 = ORIENTED_EDGE ( 'NONE', *, *, #304, .F. ) ;
#86 = ORIENTED_EDGE ( 'NONE', *, *, #304, .T. ) ;
#87 = ORIENTED_EDGE ( 'NONE', *, *, #355, .F. ) ;
#88 = ORIENTED_EDGE ( 'NONE', *, *, #360, .T. ) ;
#89 = ORIENTED_EDGE ( 'NONE', *, *, #303, .F. ) ;
#90 = EDGE_LOOP ( 'NONE', ( #218, #60, #35, #34 ) ) ;
#91 = FACE_OUTER_BOUND ( 'NONE', #238, .T. ) ;
#92 = FACE_BOUND ( 'NONE', #175, .T. ) ;
#93 = CYLINDRICAL_SURFACE ( 'NONE', #338, 0.8350000000000047400 ) ;
#94 = DIRECTION ( 'NONE',  ( -1.000000000000000000, -0.0000000000000000000, -0.0000000000000000000 ) ) ;
#95 = FACE_OUTER_BOUND ( 'NONE', #195, .T. ) ;
#96 = FACE_OUTER_BOUND ( 'NONE', #256, .T. ) ;
#97 = FACE_OUTER_BOUND ( 'NONE', #147, .T. ) ;
#98 = FACE_OUTER_BOUND ( 'NONE', #183, .T. ) ;
#99 = FACE_OUTER_BOUND ( 'NONE', #53, .T. ) ;
#100 = CIRCLE ( 'NONE', #320, 0.8350000000000047400 ) ;
#101 = CYLINDRICAL_SURFACE ( 'NONE', #319, 0.8350000000000047400 ) ;
#102 = CARTESIAN_POINT ( 'NONE',  ( 100.0000000000000000, -2.499999999999999600, -2.499999999999999600 ) ) ;
#103 = LINE ( 'NONE', #70, #228 ) ;
#104 = CIRCLE ( 'NONE', #317, 0.8350000000000047400 ) ;
#105 = FACE_OUTER_BOUND ( 'NONE', #177, .T. ) ;
#106 = VECTOR ( 'NONE', #282, 1000.000000000000000 ) ;
#107 = CYLINDRICAL_SURFACE ( 'NONE', #327, 0.8350000000000047400 ) ;
#108 = FACE_OUTER_BOUND ( 'NONE', #90, .T. ) ;
#109 = CYLINDRICAL_SURFACE ( 'NONE', #329, 0.8350000000000047400 ) ;
#110 = DIRECTION ( 'NONE',  ( 0.0000000000000000000, 1.000000000000000000, 0.0000000000000000000 ) ) ;
#111 = FACE_BOUND ( 'NONE', #293, .T. ) ;
#112 = CARTESIAN_POINT ( 'NONE',  ( 100.0000000000000000, -2.500000000000000400, 2.500000000000000400 ) ) ;
#113 = CARTESIAN_POINT ( 'NONE',  ( 95.00000000000000000, 5.835000000000000000, 0.8350000000000047400 ) ) ;
#114 = DIRECTION ( 'NONE',  ( 0.0000000000000000000, -0.0000000000000000000, 1.000000000000000000 ) ) ;
#115 = SURFACE_SIDE_STYLE ('',( #61 ) ) ;
#116 = SHAPE_DEFINITION_REPRESENTATION ( #63, #325 ) ;
#117 = DIRECTION ( 'NONE',  ( -0.0000000000000000000, -1.000000000000000000, -0.0000000000000000000 ) ) ;
#118 = FILL_AREA_STYLE ('',( #193 ) ) ;
#119 = VECTOR ( 'NONE', #128, 1000.000000000000000 ) ;
#120 = DIRECTION ( 'NONE',  ( -0.0000000000000000000, 1.000000000000000000, 8.673617379884035500E-017 ) ) ;
#121 = CARTESIAN_POINT ( 'NONE',  ( 100.0000000000000000, 2.499999999999999600, 2.500000000000000400 ) ) ;
#122 = DIRECTION ( 'NONE',  ( 0.0000000000000000000, 0.0000000000000000000, -1.000000000000000000 ) ) ;
#123 = LINE ( 'NONE', #65, #132 ) ;
#124 = DIRECTION ( 'NONE',  ( 1.000000000000000000, 0.0000000000000000000, -0.0000000000000000000 ) ) ;
#125 = LINE ( 'NONE', #73, #135 ) ;
#126 = DIRECTION ( 'NONE',  ( 0.0000000000000000000, 0.0000000000000000000, 1.000000000000000000 ) ) ;
#127 = VECTOR ( 'NONE', #67, 1000.000000000000000 ) ;
#128 = DIRECTION ( 'NONE',  ( 0.0000000000000000000, -1.734723475976807100E-016, 1.000000000000000000 ) ) ;
#129 = LINE ( 'NONE', #159, #214 ) ;
#130 = VECTOR ( 'NONE', #255, 1000.000000000000000 ) ;
#131 = SURFACE_STYLE_FILL_AREA ( #21 ) ;
#132 = VECTOR ( 'NONE', #45, 1000.000000000000000 ) ;
#133 = COLOUR_RGB ( '',0.7921568627450980000, 0.8196078431372548800, 0.9333333333333333500 ) ;
#134 = UNCERTAINTY_MEASURE_WITH_UNIT (LENGTH_MEASURE( 1.000000000000000100E-005 ), #197, 'distance_accuracy_value', 'NONE');
#135 = VECTOR ( 'NONE', #16, 1000.000000000000000 ) ;
#136 = VECTOR ( 'NONE', #212, 1000.000000000000000 ) ;
#137 = LINE ( 'NONE', #315, #136 ) ;
#138 = CARTESIAN_POINT ( 'NONE',  ( 100.0000000000000000, 0.0000000000000000000, 0.0000000000000000000 ) ) ;
#139 = VECTOR ( 'NONE', #310, 1000.000000000000000 ) ;
#140 = LINE ( 'NONE', #309, #139 ) ;
#141 = DIRECTION ( 'NONE',  ( 0.0000000000000000000, 0.0000000000000000000, -1.000000000000000000 ) ) ;
#142 = LINE ( 'NONE', #48, #151 ) ;
#143 = COLOUR_RGB ( '',0.7921568627450980000, 0.8196078431372548800, 0.9333333333333333500 ) ;
#144 = ORIENTED_EDGE ( 'NONE', *, *, #349, .T. ) ;
#145 = ORIENTED_EDGE ( 'NONE', *, *, #358, .T. ) ;
#146 = ORIENTED_EDGE ( 'NONE', *, *, #10, .F. ) ;
#147 = EDGE_LOOP ( 'NONE', ( #55, #54, #56, #58 ) ) ;
#148 = PRESENTATION_STYLE_ASSIGNMENT (( #298 ) ) ;
#149 = EDGE_LOOP ( 'NONE', ( #52, #260, #146, #318 ) ) ;
#150 = ORIENTED_EDGE ( 'NONE', *, *, #313, .F. ) ;
#151 = VECTOR ( 'NONE', #206, 1000.000000000000000 ) ;
#152 = EDGE_LOOP ( 'NONE', ( #203, #66, #144, #231 ) ) ;
#153 = ORIENTED_EDGE ( 'NONE', *, *, #361, .F. ) ;
#154 = ORIENTED_EDGE ( 'NONE', *, *, #328, .F. ) ;
#155 = ORIENTED_EDGE ( 'NONE', *, *, #10, .T. ) ;
#156 = ORIENTED_EDGE ( 'NONE', *, *, #357, .T. ) ;
#157 = VERTEX_POINT ( 'NONE', #299 ) ;
#158 = ORIENTED_EDGE ( 'NONE', *, *, #322, .F. ) ;
#159 = CARTESIAN_POINT ( 'NONE',  ( 100.0000000000000000, 2.500000000000000000, -2.499999999999999600 ) ) ;
#160 = CARTESIAN_POINT ( 'NONE',  ( -100.0000000000000000, 2.500000000000000000, -2.499999999999999600 ) ) ;
#161 = PLANE ( 'NONE',  #333 ) ;
#162 = PLANE ( 'NONE',  #337 ) ;
#163 = CARTESIAN_POINT ( 'NONE',  ( 100.0000000000000000, -2.500000000000000400, 2.500000000000000400 ) ) ;
#164 = CARTESIAN_POINT ( 'NONE',  ( 95.00000000000000000, -5.835000000000000000, 0.8350000000000047400 ) ) ;
#165 = CARTESIAN_POINT ( 'NONE',  ( 95.00000000000000000, 5.835000000000000000, 0.0000000000000000000 ) ) ;
#166 = VERTEX_POINT ( 'NONE', #163 ) ;
#167 = DIRECTION ( 'NONE',  ( 1.000000000000000000, 0.0000000000000000000, -0.0000000000000000000 ) ) ;
#168 = CARTESIAN_POINT ( 'NONE',  ( 95.00000000000000000, 5.835000000000000000, 0.0000000000000000000 ) ) ;
#169 = LINE ( 'NONE', #102, #119 ) ;
#170 = EDGE_CURVE ( 'NONE', #157, #297, #137, .T. ) ;
#171 = DIRECTION ( 'NONE',  ( -0.0000000000000000000, 0.0000000000000000000, -1.000000000000000000 ) ) ;
#172 = ORIENTED_EDGE ( 'NONE', *, *, #359, .T. ) ;
#173 = DIRECTION ( 'NONE',  ( 1.000000000000000000, 0.0000000000000000000, -0.0000000000000000000 ) ) ;
#174 = VERTEX_POINT ( 'NONE', #69 ) ;
#175 = EDGE_LOOP ( 'NONE', ( #51, #47 ) ) ;
#176 =( NAMED_UNIT ( * ) SI_UNIT ( $, .STERADIAN. ) SOLID_ANGLE_UNIT ( ) );
#177 = EDGE_LOOP ( 'NONE', ( #153, #158, #276, #257 ) ) ;
#178 = DIRECTION ( 'NONE',  ( -0.0000000000000000000, 1.000000000000000000, 8.673617379884035500E-017 ) ) ;
#179 = PRESENTATION_STYLE_ASSIGNMENT (( #12 ) ) ;
#180 = VERTEX_POINT ( 'NONE', #240 ) ;
#181 = DIRECTION ( 'NONE',  ( 0.0000000000000000000, 0.0000000000000000000, 1.000000000000000000 ) ) ;
#182 = LINE ( 'NONE', #121, #275 ) ;
#183 = EDGE_LOOP ( 'NONE', ( #284, #44, #155, #46 ) ) ;
#184 = VERTEX_POINT ( 'NONE', #30 ) ;
#185 = DIRECTION ( 'NONE',  ( -0.0000000000000000000, 0.0000000000000000000, -1.000000000000000000 ) ) ;
#186 = DIRECTION ( 'NONE',  ( 0.0000000000000000000, 1.000000000000000000, 0.0000000000000000000 ) ) ;
#187 = DIRECTION ( 'NONE',  ( 0.0000000000000000000, 0.0000000000000000000, -1.000000000000000000 ) ) ;
#188 = EDGE_CURVE ( 'NONE', #236, #184, #278, .T. ) ;
#189 = ORIENTED_EDGE ( 'NONE', *, *, #334, .F. ) ;
#190 = CARTESIAN_POINT ( 'NONE',  ( 95.00000000000000000, 5.835000000000000000, 0.0000000000000000000 ) ) ;
#191 = CARTESIAN_POINT ( 'NONE',  ( 95.00000000000000000, 5.835000000000000000, -0.8350000000000047400 ) ) ;
#192 = DIRECTION ( 'NONE',  ( 0.0000000000000000000, -1.000000000000000000, -1.734723475976807100E-016 ) ) ;
#193 = FILL_AREA_STYLE_COLOUR ( '', #143 ) ;
#194 = LINE ( 'NONE', #112, #43 ) ;
#195 = EDGE_LOOP ( 'NONE', ( #189, #198, #229, #89 ) ) ;
#196 = CLOSED_SHELL ( 'NONE', ( #243, #254, #270, #269, #242, #250, #244, #251, #237, #272, #253, #249 ) ) ;
#197 =( LENGTH_UNIT ( ) NAMED_UNIT ( * ) SI_UNIT ( .MILLI., .METRE. ) );
#198 = ORIENTED_EDGE ( 'NONE', *, *, #361, .T. ) ;
#199 = PLANE ( 'NONE',  #332 ) ;
#200 = PRODUCT_RELATED_PRODUCT_CATEGORY ( 'part', '', ( #22 ) ) ;
#201 = PRODUCT_DEFINITION_FORMATION_WITH_SPECIFIED_SOURCE ( 'ANY', '', #22, .NOT_KNOWN. ) ;
#202 = DIRECTION ( 'NONE',  ( 0.0000000000000000000, -0.0000000000000000000, 1.000000000000000000 ) ) ;
#203 = ORIENTED_EDGE ( 'NONE', *, *, #354, .F. ) ;
#204 = CARTESIAN_POINT ( 'NONE',  ( 100.0000000000000000, -2.499999999999999600, -2.499999999999999600 ) ) ;
#205 =( NAMED_UNIT ( * ) PLANE_ANGLE_UNIT ( ) SI_UNIT ( $, .RADIAN. ) );
#206 = DIRECTION ( 'NONE',  ( 0.0000000000000000000, 1.000000000000000000, 0.0000000000000000000 ) ) ;
#207 = FACE_OUTER_BOUND ( 'NONE', #152, .T. ) ;
#208 = PLANE ( 'NONE',  #331 ) ;
#209 = EDGE_CURVE ( 'NONE', #351, #286, #142, .T. ) ;
#210 = DIRECTION ( 'NONE',  ( 0.0000000000000000000, 0.0000000000000000000, 1.000000000000000000 ) ) ;
#211 = PRODUCT_DEFINITION ( 'UNKNOWN', '', #201, #76 ) ;
#212 = DIRECTION ( 'NONE',  ( 0.0000000000000000000, -1.734723475976807100E-016, 1.000000000000000000 ) ) ;
#213 = VECTOR ( 'NONE', #246, 1000.000000000000000 ) ;
#214 = VECTOR ( 'NONE', #27, 1000.000000000000000 ) ;
#215 = LINE ( 'NONE', #113, #130 ) ;
#216 = VECTOR ( 'NONE', #17, 1000.000000000000000 ) ;
#217 = CIRCLE ( 'NONE', #308, 0.8350000000000047400 ) ;
#218 = ORIENTED_EDGE ( 'NONE', *, *, #355, .T. ) ;
#219 = AXIS2_PLACEMENT_3D ( 'NONE', #42, #6, #5 ) ;
#220 = DIRECTION ( 'NONE',  ( 1.000000000000000000, 0.0000000000000000000, -0.0000000000000000000 ) ) ;
#221 = DIRECTION ( 'NONE',  ( 0.0000000000000000000, 1.000000000000000000, 0.0000000000000000000 ) ) ;
#222 = LINE ( 'NONE', #160, #127 ) ;
#223 = LINE ( 'NONE', #362, #213 ) ;
#224 = CARTESIAN_POINT ( 'NONE',  ( 95.00000000000000000, -2.499999999999998700, -0.8350000000000047400 ) ) ;
#225 = MANIFOLD_SOLID_BREP ( 'Boss-Extrude2', #196 ) ;
#226 = CARTESIAN_POINT ( 'NONE',  ( 95.00000000000000000, 2.500000000000000000, 0.0000000000000000000 ) ) ;
#227 = LINE ( 'NONE', #72, #216 ) ;
#228 = VECTOR ( 'NONE', #292, 1000.000000000000000 ) ;
#229 = ORIENTED_EDGE ( 'NONE', *, *, #328, .T. ) ;
#230 = CARTESIAN_POINT ( 'NONE',  ( 95.00000000000000000, 5.835000000000000000, 0.0000000000000000000 ) ) ;
#231 = ORIENTED_EDGE ( 'NONE', *, *, #352, .T. ) ;
#232 = CIRCLE ( 'NONE', #312, 0.8350000000000047400 ) ;
#233 = CIRCLE ( 'NONE', #316, 0.8350000000000047400 ) ;
#234 = CIRCLE ( 'NONE', #324, 0.8350000000000047400 ) ;
#235 = VERTEX_POINT ( 'NONE', #164 ) ;
#236 = VERTEX_POINT ( 'NONE', #191 ) ;
#237 = ADVANCED_FACE ( 'NONE', ( #99 ), #81, .F. ) ;
#238 = EDGE_LOOP ( 'NONE', ( #86, #84, #83, #14 ) ) ;
#239 = DIRECTION ( 'NONE',  ( 0.0000000000000000000, 0.0000000000000000000, -1.000000000000000000 ) ) ;
#240 = CARTESIAN_POINT ( 'NONE',  ( -100.0000000000000000, 2.500000000000000000, -2.499999999999999600 ) ) ;
#241 = CARTESIAN_POINT ( 'NONE',  ( -100.0000000000000000, 0.0000000000000000000, 0.0000000000000000000 ) ) ;
#242 = ADVANCED_FACE ( 'NONE', ( #98 ), #39, .T. ) ;
#243 = ADVANCED_FACE ( 'NONE', ( #97 ), #93, .T. ) ;
#244 = ADVANCED_FACE ( 'NONE', ( #62 ), #162, .T. ) ;
#245 = DIRECTION ( 'NONE',  ( -0.0000000000000000000, -1.000000000000000000, -0.0000000000000000000 ) ) ;
#246 = DIRECTION ( 'NONE',  ( -1.000000000000000000, -0.0000000000000000000, -0.0000000000000000000 ) ) ;
#247 = DIRECTION ( 'NONE',  ( -0.0000000000000000000, -1.000000000000000000, -0.0000000000000000000 ) ) ;
#248 = CARTESIAN_POINT ( 'NONE',  ( 100.0000000000000000, -2.499999999999999600, -2.499999999999999600 ) ) ;
#249 = ADVANCED_FACE ( 'NONE', ( #96 ), #161, .T. ) ;
#250 = ADVANCED_FACE ( 'NONE', ( #92, #314 ), #199, .T. ) ;
#251 = ADVANCED_FACE ( 'NONE', ( #78 ), #208, .F. ) ;
#252 = ORIENTED_EDGE ( 'NONE', *, *, #170, .T. ) ;
#253 = ADVANCED_FACE ( 'NONE', ( #207 ), #109, .T. ) ;
#254 = ADVANCED_FACE ( 'NONE', ( #95 ), #107, .T. ) ;
#255 = DIRECTION ( 'NONE',  ( -0.0000000000000000000, -1.000000000000000000, -0.0000000000000000000 ) ) ;
#256 = EDGE_LOOP ( 'NONE', ( #267, #145 ) ) ;
#257 = ORIENTED_EDGE ( 'NONE', *, *, #313, .T. ) ;
#258 = VERTEX_POINT ( 'NONE', #291 ) ;
#259 = DIRECTION ( 'NONE',  ( 0.0000000000000000000, 0.0000000000000000000, -1.000000000000000000 ) ) ;
#260 = ORIENTED_EDGE ( 'NONE', *, *, #356, .T. ) ;
#261 = ORIENTED_EDGE ( 'NONE', *, *, #352, .F. ) ;
#262 = CARTESIAN_POINT ( 'NONE',  ( -100.0000000000000000, -2.500000000000000400, 2.500000000000000400 ) ) ;
#263 = LINE ( 'NONE', #274, #264 ) ;
#264 = VECTOR ( 'NONE', #279, 1000.000000000000000 ) ;
#265 = CARTESIAN_POINT ( 'NONE',  ( 95.00000000000000000, 5.835000000000000000, 0.0000000000000000000 ) ) ;
#266 = CARTESIAN_POINT ( 'NONE',  ( 95.00000000000000000, -2.499999999999998700, 0.8350000000000047400 ) ) ;
#267 = ORIENTED_EDGE ( 'NONE', *, *, #188, .T. ) ;
#268 = UNCERTAINTY_MEASURE_WITH_UNIT (LENGTH_MEASURE( 1.000000000000000100E-005 ), #37, 'distance_accuracy_value', 'NONE');
#269 = ADVANCED_FACE ( 'NONE', ( #111, #108 ), #287, .F. ) ;
#270 = ADVANCED_FACE ( 'NONE', ( #91 ), #281, .F. ) ;
#271 = DIRECTION ( 'NONE',  ( 0.0000000000000000000, 8.673617379884035500E-017, -1.000000000000000000 ) ) ;
#272 = ADVANCED_FACE ( 'NONE', ( #105 ), #101, .T. ) ;
#273 = VERTEX_POINT ( 'NONE', #266 ) ;
#274 = CARTESIAN_POINT ( 'NONE',  ( 95.00000000000000000, 5.835000000000000000, -0.8350000000000047400 ) ) ;
#275 = VECTOR ( 'NONE', #38, 1000.000000000000000 ) ;
#276 = ORIENTED_EDGE ( 'NONE', *, *, #303, .T. ) ;
#277 = CARTESIAN_POINT ( 'NONE',  ( 100.0000000000000000, 2.500000000000000000, -2.499999999999999600 ) ) ;
#278 = CIRCLE ( 'NONE', #347, 0.8350000000000047400 ) ;
#279 = DIRECTION ( 'NONE',  ( -0.0000000000000000000, -1.000000000000000000, -0.0000000000000000000 ) ) ;
#280 = DIRECTION ( 'NONE',  ( 0.0000000000000000000, 1.734723475976807100E-016, -1.000000000000000000 ) ) ;
#281 = PLANE ( 'NONE',  #323 ) ;
#282 = DIRECTION ( 'NONE',  ( 0.0000000000000000000, 1.000000000000000000, 0.0000000000000000000 ) ) ;
#283 = CARTESIAN_POINT ( 'NONE',  ( -100.0000000000000000, -2.499999999999999600, -2.499999999999999600 ) ) ;
#284 = ORIENTED_EDGE ( 'NONE', *, *, #360, .F. ) ;
#285 = DIRECTION ( 'NONE',  ( -0.0000000000000000000, -1.000000000000000000, -0.0000000000000000000 ) ) ;
#286 = VERTEX_POINT ( 'NONE', #277 ) ;
#287 = PLANE ( 'NONE',  #326 ) ;
#288 = CARTESIAN_POINT ( 'NONE',  ( 100.0000000000000000, 2.500000000000000000, -2.499999999999999600 ) ) ;
#289 = CARTESIAN_POINT ( 'NONE',  ( 100.0000000000000000, -2.499999999999999600, -2.499999999999999600 ) ) ;
#290 = EDGE_LOOP ( 'NONE', ( #41, #49, #172, #156 ) ) ;
#291 = CARTESIAN_POINT ( 'NONE',  ( 95.00000000000000000, 2.500000000000000000, -0.8350000000000047400 ) ) ;
#292 = DIRECTION ( 'NONE',  ( -1.000000000000000000, -0.0000000000000000000, -0.0000000000000000000 ) ) ;
#293 = EDGE_LOOP ( 'NONE', ( #261, #59 ) ) ;
#294 = VERTEX_POINT ( 'NONE', #224 ) ;
#295 = CIRCLE ( 'NONE', #311, 0.8350000000000047400 ) ;
#296 = CARTESIAN_POINT ( 'NONE',  ( -100.0000000000000000, 2.499999999999999600, 2.500000000000000400 ) ) ;
#297 = VERTEX_POINT ( 'NONE', #262 ) ;
#298 = SURFACE_STYLE_USAGE ( .BOTH. , #115 ) ;
#299 = CARTESIAN_POINT ( 'NONE',  ( -100.0000000000000000, -2.499999999999999600, -2.499999999999999600 ) ) ;
#300 =( GEOMETRIC_REPRESENTATION_CONTEXT ( 3 ) GLOBAL_UNCERTAINTY_ASSIGNED_CONTEXT ( ( #13 ) ) GLOBAL_UNIT_ASSIGNED_CONTEXT ( ( #11, #74, #7 ) ) REPRESENTATION_CONTEXT ( 'NONE', 'WORKASPACE' ) );
#301 = MECHANICAL_DESIGN_GEOMETRIC_PRESENTATION_REPRESENTATION (  '', ( #305 ), #300 ) ;
#302 = PRESENTATION_LAYER_ASSIGNMENT (  '', '', ( #305 ) ) ;
#303 = EDGE_CURVE ( 'NONE', #294, #36, #263, .T. ) ;
#304 = EDGE_CURVE ( 'NONE', #157, #180, #64, .T. ) ;
#305 = STYLED_ITEM ( 'NONE', ( #179 ), #325 ) ;
#306 =( GEOMETRIC_REPRESENTATION_CONTEXT ( 3 ) GLOBAL_UNCERTAINTY_ASSIGNED_CONTEXT ( ( #268 ) ) GLOBAL_UNIT_ASSIGNED_CONTEXT ( ( #37, #33, #31 ) ) REPRESENTATION_CONTEXT ( 'NONE', 'WORKASPACE' ) );
#307 = DIRECTION ( 'NONE',  ( 0.0000000000000000000, 1.000000000000000000, 0.0000000000000000000 ) ) ;
#308 = AXIS2_PLACEMENT_3D ( 'NONE', #80, #75, #79 ) ;
#309 = CARTESIAN_POINT ( 'NONE',  ( 100.0000000000000000, -2.500000000000000400, 2.500000000000000400 ) ) ;
#310 = DIRECTION ( 'NONE',  ( 0.0000000000000000000, 1.000000000000000000, 0.0000000000000000000 ) ) ;
#311 = AXIS2_PLACEMENT_3D ( 'NONE', #226, #178, #141 ) ;
#312 = AXIS2_PLACEMENT_3D ( 'NONE', #32, #120, #187 ) ;
#313 = EDGE_CURVE ( 'NONE', #36, #235, #100, .T. ) ;
#314 = FACE_OUTER_BOUND ( 'NONE', #290, .T. ) ;
#315 = CARTESIAN_POINT ( 'NONE',  ( -100.0000000000000000, -2.499999999999999600, -2.499999999999999600 ) ) ;
#316 = AXIS2_PLACEMENT_3D ( 'NONE', #15, #1, #8 ) ;
#317 = AXIS2_PLACEMENT_3D ( 'NONE', #68, #57, #28 ) ;
#318 = ORIENTED_EDGE ( 'NONE', *, *, #359, .F. ) ;
#319 = AXIS2_PLACEMENT_3D ( 'NONE', #230, #245, #342 ) ;
#320 = AXIS2_PLACEMENT_3D ( 'NONE', #321, #307, #18 ) ;
#321 = CARTESIAN_POINT ( 'NONE',  ( 95.00000000000000000, -5.835000000000000000, 0.0000000000000000000 ) ) ;
#322 = EDGE_CURVE ( 'NONE', #294, #273, #234, .T. ) ;
#323 = AXIS2_PLACEMENT_3D ( 'NONE', #289, #210, #220 ) ;
#324 = AXIS2_PLACEMENT_3D ( 'NONE', #25, #24, #26 ) ;
#325 = ADVANCED_BREP_SHAPE_REPRESENTATION ( '14070520', ( #225, #219 ), #306 ) ;
#326 = AXIS2_PLACEMENT_3D ( 'NONE', #288, #339, #271 ) ;
#327 = AXIS2_PLACEMENT_3D ( 'NONE', #190, #285, #239 ) ;
#328 = EDGE_CURVE ( 'NONE', #235, #36, #104, .T. ) ;
#329 = AXIS2_PLACEMENT_3D ( 'NONE', #265, #247, #259 ) ;
#330 = EDGE_CURVE ( 'NONE', #286, #180, #103, .T. ) ;
#331 = AXIS2_PLACEMENT_3D ( 'NONE', #241, #167, #185 ) ;
#332 = AXIS2_PLACEMENT_3D ( 'NONE', #204, #192, #280 ) ;
#333 = AXIS2_PLACEMENT_3D ( 'NONE', #168, #186, #202 ) ;
#334 = EDGE_CURVE ( 'NONE', #273, #294, #233, .T. ) ;
#335 = VERTEX_POINT ( 'NONE', #40 ) ;
#336 = EDGE_CURVE ( 'NONE', #335, #258, #232, .T. ) ;
#337 = AXIS2_PLACEMENT_3D ( 'NONE', #138, #173, #171 ) ;
#338 = AXIS2_PLACEMENT_3D ( 'NONE', #165, #117, #122 ) ;
#339 = DIRECTION ( 'NONE',  ( 0.0000000000000000000, -1.000000000000000000, -8.673617379884035500E-017 ) ) ;
#340 = AXIS2_PLACEMENT_3D ( 'NONE', #77, #126, #124 ) ;
#341 = AXIS2_PLACEMENT_3D ( 'NONE', #82, #110, #114 ) ;
#342 = DIRECTION ( 'NONE',  ( 0.0000000000000000000, 0.0000000000000000000, -1.000000000000000000 ) ) ;
#343 =( GEOMETRIC_REPRESENTATION_CONTEXT ( 3 ) GLOBAL_UNCERTAINTY_ASSIGNED_CONTEXT ( ( #134 ) ) GLOBAL_UNIT_ASSIGNED_CONTEXT ( ( #197, #205, #176 ) ) REPRESENTATION_CONTEXT ( 'NONE', 'WORKASPACE' ) );
#344 = MECHANICAL_DESIGN_GEOMETRIC_PRESENTATION_REPRESENTATION (  '', ( #346 ), #343 ) ;
#345 = PRESENTATION_LAYER_ASSIGNMENT (  '', '', ( #346 ) ) ;
#346 = STYLED_ITEM ( 'NONE', ( #148 ), #225 ) ;
#347 = AXIS2_PLACEMENT_3D ( 'NONE', #71, #221, #181 ) ;
#348 = CARTESIAN_POINT ( 'NONE',  ( 95.00000000000000000, -5.835000000000000000, -0.8350000000000047400 ) ) ;
#349 = EDGE_CURVE ( 'NONE', #236, #258, #227, .T. ) ;
#350 = EDGE_CURVE ( 'NONE', #351, #157, #223, .T. ) ;
#351 = VERTEX_POINT ( 'NONE', #248 ) ;
#352 = EDGE_CURVE ( 'NONE', #258, #335, #295, .T. ) ;
#353 = EDGE_CURVE ( 'NONE', #174, #9, #182, .T. ) ;
#354 = EDGE_CURVE ( 'NONE', #184, #335, #215, .T. ) ;
#355 = EDGE_CURVE ( 'NONE', #180, #9, #222, .T. ) ;
#356 = EDGE_CURVE ( 'NONE', #286, #174, #129, .T. ) ;
#357 = EDGE_CURVE ( 'NONE', #166, #297, #194, .T. ) ;
#358 = EDGE_CURVE ( 'NONE', #184, #236, #217, .T. ) ;
#359 = EDGE_CURVE ( 'NONE', #351, #166, #169, .T. ) ;
#360 = EDGE_CURVE ( 'NONE', #297, #9, #125, .T. ) ;
#361 = EDGE_CURVE ( 'NONE', #273, #235, #123, .T. ) ;
#362 = CARTESIAN_POINT ( 'NONE',  ( 100.0000000000000000, -2.499999999999999600, -2.499999999999999600 ) ) ;
ENDSEC;
END-ISO-10303-21;
