ISO-10303-21;
HEADER;
FILE_DESCRIPTION (( 'STEP AP214' ),
    '1' );
FILE_NAME ('1427B2BK.STEP',
    '2021-09-09T19:25:24',
    ( '' ),
    ( '' ),
    'SwSTEP 2.0',
    'SolidWorks 2021',
    '' );
FILE_SCHEMA (( 'AUTOMOTIVE_DESIGN' ));
ENDSEC;

DATA;
#1 = CARTESIAN_POINT ( 'NONE',  ( 1.202035328598952679, 1.012795275590551380, 0.000000000000000000 ) ) ;
#2 = CARTESIAN_POINT ( 'NONE',  ( 1.251968503937008093, 0.000000000000000000, -7.452971151517734950E-18 ) ) ;
#3 = DIRECTION ( 'NONE',  ( -5.665538897647979615E-16, 1.000000000000000000, -0.000000000000000000 ) ) ;
#4 = ORIENTED_EDGE ( 'NONE', *, *, #97, .F. ) ;
#5 = EDGE_LOOP ( 'NONE', ( #78 ) ) ;
#6 = ORIENTED_EDGE ( 'NONE', *, *, #275, .F. ) ;
#7 = CARTESIAN_POINT ( 'NONE',  ( 0.000000000000000000, 0.6712598425196850682, 0.000000000000000000 ) ) ;
#8 = VERTEX_POINT ( 'NONE', #251 ) ;
#9 = ADVANCED_FACE ( 'NONE', ( #93, #123 ), #242, .F. ) ;
#10 = CARTESIAN_POINT ( 'NONE',  ( 0.1571736058484924370, 0.8297244094488188670, 1.120985751188030137E-17 ) ) ;
#11 = CARTESIAN_POINT ( 'NONE',  ( -0.09153543307086615954, 0.6712598425196850682, -0.1830708661417322358 ) ) ;
#12 = AXIS2_PLACEMENT_3D ( 'NONE', #239, #67, #138 ) ;
#13 = CARTESIAN_POINT ( 'NONE',  ( 0.2500000000000000000, 0.9212598425196850682, -0.09153543307086615954 ) ) ;
#14 = DIRECTION ( 'NONE',  ( 0.000000000000000000, 0.000000000000000000, 1.000000000000000000 ) ) ;
#15 =( LENGTH_UNIT ( ) NAMED_UNIT ( * ) SI_UNIT ( $, .METRE. ) );
#16 = DIRECTION ( 'NONE',  ( 0.000000000000000000, -0.000000000000000000, -1.000000000000000000 ) ) ;
#17 = CARTESIAN_POINT ( 'NONE',  ( 1.343503937007874072, 0.8713266671816304321, 0.000000000000000000 ) ) ;
#18 =( GEOMETRIC_REPRESENTATION_CONTEXT ( 3 ) GLOBAL_UNCERTAINTY_ASSIGNED_CONTEXT ( ( #161 ) ) GLOBAL_UNIT_ASSIGNED_CONTEXT ( ( #147, #79, #103 ) ) REPRESENTATION_CONTEXT ( 'NONE', 'WORKASPACE' ) );
#19 = FILL_AREA_STYLE ('',( #241 ) ) ;
#20 = DIMENSIONAL_EXPONENTS ( 1.000000000000000000, 0.000000000000000000, 0.000000000000000000, 0.000000000000000000, 0.000000000000000000, 0.000000000000000000, 0.000000000000000000 ) ;
#21 = CARTESIAN_POINT ( 'NONE',  ( 1.160433070866141669, 0.7640862366711926867, 1.120985751188029983E-17 ) ) ;
#22 = FACE_OUTER_BOUND ( 'NONE', #5, .T. ) ;
#23 = EDGE_LOOP ( 'NONE', ( #6 ) ) ;
#24 = AXIS2_PLACEMENT_3D ( 'NONE', #203, #278, #311 ) ;
#25 = CARTESIAN_POINT ( 'NONE',  ( 1.343503937007873406, 0.8713266671816298770, 0.1830708661417322636 ) ) ;
#26 = PRESENTATION_LAYER_ASSIGNMENT (  '', '', ( #271 ) ) ;
#27 = ORIENTED_EDGE ( 'NONE', *, *, #80, .T. ) ;
#28 = VERTEX_POINT ( 'NONE', #307 ) ;
#29 = EDGE_CURVE ( 'NONE', #280, #280, #165, .T. ) ;
#30 = ORIENTED_EDGE ( 'NONE', *, *, #266, .T. ) ;
#31 = ORIENTED_EDGE ( 'NONE', *, *, #80, .F. ) ;
#32 = CARTESIAN_POINT ( 'NONE',  ( 1.001968503937007871, 0.9212598425196850682, -0.09153543307086615954 ) ) ;
#33 = DIRECTION ( 'NONE',  ( 0.000000000000000000, 0.000000000000000000, -1.000000000000000000 ) ) ;
#34 = CARTESIAN_POINT ( 'NONE',  ( 0.09153543307086613179, 0.7640862366711926867, 0.1830708661417322636 ) ) ;
#35 = VERTEX_POINT ( 'NONE', #246 ) ;
#36 = CARTESIAN_POINT ( 'NONE',  ( 0.2499999999999999167, 0.8297244094488187560, 1.120985751188030137E-17 ) ) ;
#37 = CIRCLE ( 'NONE', #244, 0.09153543307086615954 ) ;
#38 = CARTESIAN_POINT ( 'NONE',  ( 0.04993317533805503861, 1.012795275590551158, 0.000000000000000000 ) ) ;
#39 = LENGTH_MEASURE_WITH_UNIT ( LENGTH_MEASURE( 0.02539999999999999897 ), #62 );
#40 = APPLICATION_PROTOCOL_DEFINITION ( 'draft international standard', 'automotive_design', 1998, #295 ) ;
#41 = ADVANCED_FACE ( 'NONE', ( #273, #55 ), #82, .T. ) ;
#42 = CARTESIAN_POINT ( 'NONE',  ( 7.452971151517734950E-18, 0.000000000000000000, -7.452971151517734950E-18 ) ) ;
#43 = FILL_AREA_STYLE_COLOUR ( '', #95 ) ;
#44 = CARTESIAN_POINT ( 'NONE',  ( 1.001968503937007871, 1.012795275590551158, -0.1830708661417322358 ) ) ;
#45 = AXIS2_PLACEMENT_3D ( 'NONE', #152, #206, #33 ) ;
#46 = CARTESIAN_POINT ( 'NONE',  ( 1.202035328598952679, 1.012795275590551158, 0.1830708661417322636 ) ) ;
#47 = DIMENSIONAL_EXPONENTS ( 1.000000000000000000, 0.000000000000000000, 0.000000000000000000, 0.000000000000000000, 0.000000000000000000, 0.000000000000000000, 0.000000000000000000 ) ;
#48 = APPLICATION_PROTOCOL_DEFINITION ( 'draft international standard', 'automotive_design', 1998, #230 ) ;
#49 = DIRECTION ( 'NONE',  ( 0.000000000000000000, -0.000000000000000000, 1.000000000000000000 ) ) ;
#50 = ORIENTED_EDGE ( 'NONE', *, *, #225, .F. ) ;
#51 = CARTESIAN_POINT ( 'NONE',  ( 1.251968503937008315, 0.6712598425196851792, 0.000000000000000000 ) ) ;
#52 = EDGE_LOOP ( 'NONE', ( #190 ) ) ;
#53 = DIRECTION ( 'NONE',  ( 0.000000000000000000, 0.000000000000000000, -1.000000000000000000 ) ) ;
#54 = EDGE_LOOP ( 'NONE', ( #27 ) ) ;
#55 = FACE_OUTER_BOUND ( 'NONE', #73, .T. ) ;
#56 = VERTEX_POINT ( 'NONE', #130 ) ;
#57 = EDGE_LOOP ( 'NONE', ( #291 ) ) ;
#58 = CARTESIAN_POINT ( 'NONE',  ( 0.2499999999999999167, 1.012795275590551158, 0.000000000000000000 ) ) ;
#59 = PRESENTATION_STYLE_ASSIGNMENT (( #302 ) ) ;
#60 = CARTESIAN_POINT ( 'NONE',  ( -0.09153543307086614567, 0.8713266671816299880, 0.1830708661417322636 ) ) ;
#61 = CARTESIAN_POINT ( 'NONE',  ( -0.09153543307086615954, 0.6712598425196850682, 0.000000000000000000 ) ) ;
#62 =( LENGTH_UNIT ( ) NAMED_UNIT ( * ) SI_UNIT ( $, .METRE. ) );
#63 = FACE_OUTER_BOUND ( 'NONE', #125, .T. ) ;
#64 = AXIS2_PLACEMENT_3D ( 'NONE', #175, #148, #220 ) ;
#65 = MECHANICAL_DESIGN_GEOMETRIC_PRESENTATION_REPRESENTATION (  '', ( #229 ), #18 ) ;
#66 = CARTESIAN_POINT ( 'NONE',  ( 1.160433070866141891, 0.7640862366711925757, 0.1830708661417322636 ) ) ;
#67 = DIRECTION ( 'NONE',  ( 0.000000000000000000, 0.000000000000000000, 1.000000000000000000 ) ) ;
#68 = CARTESIAN_POINT ( 'NONE',  ( 0.000000000000000000, 0.000000000000000000, 0.000000000000000000 ) ) ;
#69 = CARTESIAN_POINT ( 'NONE',  ( 1.343503937007873406, 0.8713266671816298770, -0.1830708661417322636 ) ) ;
#70 = AXIS2_PLACEMENT_3D ( 'NONE', #183, #305, #14 ) ;
#71 = CIRCLE ( 'NONE', #208, 0.05200787401574802349 ) ;
#72 = CARTESIAN_POINT ( 'NONE',  ( 1.001968503937007871, 0.8297244094488188670, -0.1830708661417322358 ) ) ;
#73 = EDGE_LOOP ( 'NONE', ( #4 ) ) ;
#74 = CARTESIAN_POINT ( 'NONE',  ( 1.343503937007874072, 0.6712598425196851792, -0.1830708661417322358 ) ) ;
#75 = EDGE_LOOP ( 'NONE', ( #118 ) ) ;
#76 = CIRCLE ( 'NONE', #70, 0.05200787401574802349 ) ;
#77 = ORIENTED_EDGE ( 'NONE', *, *, #312, .T. ) ;
#78 = ORIENTED_EDGE ( 'NONE', *, *, #266, .F. ) ;
#79 =( NAMED_UNIT ( * ) PLANE_ANGLE_UNIT ( ) SI_UNIT ( $, .RADIAN. ) );
#80 = EDGE_CURVE ( 'NONE', #304, #304, #37, .T. ) ;
#81 = DIRECTION ( 'NONE',  ( 0.000000000000000000, 0.000000000000000000, -1.000000000000000000 ) ) ;
#82 = CYLINDRICAL_SURFACE ( 'NONE', #24, 0.09153543307086615954 ) ;
#83 = CARTESIAN_POINT ( 'NONE',  ( 0.04993317533805503861, 1.012795275590551158, 0.000000000000000000 ) ) ;
#84 = VERTEX_POINT ( 'NONE', #13 ) ;
#85 = AXIS2_PLACEMENT_3D ( 'NONE', #7, #155, #227 ) ;
#86 = PLANE ( 'NONE',  #153 ) ;
#87 = ADVANCED_FACE ( 'NONE', ( #112 ), #146, .F. ) ;
#88 = CARTESIAN_POINT ( 'NONE',  ( 0.000000000000000000, 0.000000000000000000, 0.000000000000000000 ) ) ;
#89 = AXIS2_PLACEMENT_3D ( 'NONE', #96, #214, #243 ) ;
#90 = FACE_OUTER_BOUND ( 'NONE', #247, .T. ) ;
#91 = DIRECTION ( 'NONE',  ( 0.000000000000000000, -1.000000000000000000, 0.000000000000000000 ) ) ;
#92 = CARTESIAN_POINT ( 'NONE',  ( 1.251968503937008093, 0.000000000000000000, 0.000000000000000000 ) ) ;
#93 = FACE_OUTER_BOUND ( 'NONE', #57, .T. ) ;
#94 = CIRCLE ( 'NONE', #102, 0.09153543307086617342 ) ;
#95 = COLOUR_RGB ( '',0.7490196078431372584, 0.7490196078431372584, 0.7490196078431372584 ) ;
#96 = CARTESIAN_POINT ( 'NONE',  ( 1.251968503937007648, 0.6712598425196851792, 0.000000000000000000 ) ) ;
#97 = EDGE_CURVE ( 'NONE', #299, #299, #308, .T. ) ;
#98 = DIRECTION ( 'NONE',  ( 0.000000000000000000, 0.000000000000000000, 1.000000000000000000 ) ) ;
#99 = CARTESIAN_POINT ( 'NONE',  ( 1.001968503937007871, 1.012795275590551158, 0.000000000000000000 ) ) ;
#100 = EDGE_LOOP ( 'NONE', ( #268 ) ) ;
#101 =( LENGTH_UNIT ( ) NAMED_UNIT ( * ) SI_UNIT ( $, .METRE. ) );
#102 = AXIS2_PLACEMENT_3D ( 'NONE', #252, #260, #209 ) ;
#103 =( NAMED_UNIT ( * ) SI_UNIT ( $, .STERADIAN. ) SOLID_ANGLE_UNIT ( ) );
#104 = UNCERTAINTY_MEASURE_WITH_UNIT (LENGTH_MEASURE( 1.000000000000000082E-05 ), #135, 'distance_accuracy_value', 'NONE');
#105 = EDGE_LOOP ( 'NONE', ( #195 ) ) ;
#106 = CARTESIAN_POINT ( 'NONE',  ( -0.09153543307086615954, 0.6712598425196850682, 0.1830708661417322358 ) ) ;
#107 = FACE_OUTER_BOUND ( 'NONE', #54, .T. ) ;
#108 = CARTESIAN_POINT ( 'NONE',  ( 0.1571736058484924370, 0.8297244094488187560, -0.1830708661417322636 ) ) ;
#109 = CARTESIAN_POINT ( 'NONE',  ( 0.2500000000000000000, 0.9212598425196850682, 0.000000000000000000 ) ) ;
#110 = CARTESIAN_POINT ( 'NONE',  ( -0.09153543307086614567, 0.8713266671816299880, -0.1830708661417322636 ) ) ;
#111 = FACE_BOUND ( 'NONE', #221, .T. ) ;
#112 = FACE_OUTER_BOUND ( 'NONE', #294, .T. ) ;
#113 = CARTESIAN_POINT ( 'NONE',  ( 1.343503937007874072, 0.8713266671816304321, 0.000000000000000000 ) ) ;
#114 = CIRCLE ( 'NONE', #154, 0.09153543307086615954 ) ;
#115 = PRODUCT_CONTEXT ( 'NONE', #295, 'mechanical' ) ;
#116 = CARTESIAN_POINT ( 'NONE',  ( 1.160433070866141891, 0.7640862366711925757, -0.1830708661417322636 ) ) ;
#117 = CARTESIAN_POINT ( 'NONE',  ( 1.094794898088515156, 0.8297244094488188670, 1.120985751188029983E-17 ) ) ;
#118 = ORIENTED_EDGE ( 'NONE', *, *, #156, .T. ) ;
#119 = SURFACE_STYLE_FILL_AREA ( #19 ) ;
#120 = EDGE_LOOP ( 'NONE', ( #297 ) ) ;
#121 = DIRECTION ( 'NONE',  ( -1.000000000000000000, 0.000000000000000000, 2.084403273925084878E-17 ) ) ;
#122 = SURFACE_SIDE_STYLE ('',( #119 ) ) ;
#123 = FACE_OUTER_BOUND ( 'NONE', #316, .T. ) ;
#124 =( BOUNDED_SURFACE ( )  B_SPLINE_SURFACE ( 3, 3, ( 
 ( #127, #223, #83, #58 ),
 ( #106, #60, #303, #181 ),
 ( #250, #34, #129, #164 ),
 ( #185, #158, #10, #36 ),
 ( #132, #184, #108, #228 ),
 ( #11, #110, #284, #282 ),
 ( #61, #254, #38, #134 ) ),
 .UNSPECIFIED., .T., .F., .T. ) 
 B_SPLINE_SURFACE_WITH_KNOTS ( ( 4, 3, 4 ),
 ( 4, 4 ),
 ( 0.000000000000000000, 0.5000000000000000000, 1.000000000000000000 ),
 ( 0.000000000000000000, 1.000000000000000000 ),
 .UNSPECIFIED. ) 
 GEOMETRIC_REPRESENTATION_ITEM ( )  RATIONAL_B_SPLINE_SURFACE ( (
 ( 1.000000000000000000, 0.8047378541243649375, 0.8047378541243649375, 1.000000000000000000),
 ( 0.3333333333333333703, 0.2682459513747883495, 0.2682459513747883495, 0.3333333333333333703),
 ( 0.3333333333333333703, 0.2682459513747883495, 0.2682459513747883495, 0.3333333333333333703),
 ( 1.000000000000000000, 0.8047378541243649375, 0.8047378541243649375, 1.000000000000000000),
 ( 0.3333333333333333703, 0.2682459513747883495, 0.2682459513747883495, 0.3333333333333333703),
 ( 0.3333333333333333703, 0.2682459513747883495, 0.2682459513747883495, 0.3333333333333333703),
 ( 1.000000000000000000, 0.8047378541243649375, 0.8047378541243649375, 1.000000000000000000) ) ) 
 REPRESENTATION_ITEM ( '' )  SURFACE ( )  );
#125 = EDGE_LOOP ( 'NONE', ( #197 ) ) ;
#126 = EDGE_CURVE ( 'NONE', #178, #178, #76, .T. ) ;
#127 = CARTESIAN_POINT ( 'NONE',  ( -0.09153543307086615954, 0.6712598425196850682, 0.000000000000000000 ) ) ;
#128 = CARTESIAN_POINT ( 'NONE',  ( 1.251968503937008093, 0.000000000000000000, 0.05200787401574810676 ) ) ;
#129 = CARTESIAN_POINT ( 'NONE',  ( 0.1571736058484924370, 0.8297244094488187560, 0.1830708661417322636 ) ) ;
#130 = CARTESIAN_POINT ( 'NONE',  ( 1.343503937007874072, 2.384158435039370663E-17, 0.000000000000000000 ) ) ;
#131 = ADVANCED_FACE ( 'NONE', ( #111, #310 ), #86, .T. ) ;
#132 = CARTESIAN_POINT ( 'NONE',  ( 0.09153543307086617342, 0.6712598425196850682, -0.1830708661417322358 ) ) ;
#133 = MECHANICAL_DESIGN_GEOMETRIC_PRESENTATION_REPRESENTATION (  '', ( #271 ), #279 ) ;
#134 = CARTESIAN_POINT ( 'NONE',  ( 0.2499999999999999167, 1.012795275590551158, 0.000000000000000000 ) ) ;
#135 =( CONVERSION_BASED_UNIT ( 'INCH', #39 ) LENGTH_UNIT ( ) NAMED_UNIT ( #20 ) );
#136 = SHAPE_DEFINITION_REPRESENTATION ( #162, #269 ) ;
#137 = DIRECTION ( 'NONE',  ( 0.000000000000000000, 0.000000000000000000, -1.000000000000000000 ) ) ;
#138 = DIRECTION ( 'NONE',  ( 1.000000000000000000, 0.000000000000000000, 0.000000000000000000 ) ) ;
#139 = FACE_OUTER_BOUND ( 'NONE', #200, .T. ) ;
#140 = DIRECTION ( 'NONE',  ( 0.000000000000000000, 1.000000000000000000, 0.000000000000000000 ) ) ;
#141 = CONICAL_SURFACE ( 'NONE', #45, 0.05200787401574796104, 1.029744258676654978 ) ;
#142 = CARTESIAN_POINT ( 'NONE',  ( 1.343503937007874072, 0.6712598425196851792, 0.1830708661417322358 ) ) ;
#143 = CARTESIAN_POINT ( 'NONE',  ( 1.001968503937007871, 1.012795275590551158, 0.000000000000000000 ) ) ;
#144 = ORIENTED_EDGE ( 'NONE', *, *, #225, .T. ) ;
#145 = DIRECTION ( 'NONE',  ( 0.000000000000000000, -1.000000000000000000, 0.000000000000000000 ) ) ;
#146 = CONICAL_SURFACE ( 'NONE', #212, 0.05200787401574800267, 1.029744258676655422 ) ;
#147 =( CONVERSION_BASED_UNIT ( 'INCH', #196 ) LENGTH_UNIT ( ) NAMED_UNIT ( #257 ) );
#148 = DIRECTION ( 'NONE',  ( 0.000000000000000000, -1.000000000000000000, 0.000000000000000000 ) ) ;
#149 = PRODUCT ( '1427B2BK', '1427B2BK', '', ( #115 ) ) ;
#150 = ADVANCED_FACE ( 'NONE', ( #159 ), #141, .F. ) ;
#151 = VERTEX_POINT ( 'NONE', #224 ) ;
#152 = CARTESIAN_POINT ( 'NONE',  ( 7.452971151517734950E-18, 0.6250000000000000000, -7.452971151517734950E-18 ) ) ;
#153 = AXIS2_PLACEMENT_3D ( 'NONE', #88, #234, #16 ) ;
#154 = AXIS2_PLACEMENT_3D ( 'NONE', #68, #140, #192 ) ;
#155 = DIRECTION ( 'NONE',  ( 0.000000000000000000, 1.000000000000000000, 0.000000000000000000 ) ) ;
#156 = EDGE_CURVE ( 'NONE', #56, #56, #94, .T. ) ;
#157 = DIRECTION ( 'NONE',  ( 0.000000000000000000, 0.000000000000000000, -1.000000000000000000 ) ) ;
#158 = CARTESIAN_POINT ( 'NONE',  ( 0.09153543307086615954, 0.7640862366711924647, 1.120985751188030137E-17 ) ) ;
#159 = FACE_OUTER_BOUND ( 'NONE', #172, .T. ) ;
#160 = CIRCLE ( 'NONE', #249, 0.09153543307086617342 ) ;
#161 = UNCERTAINTY_MEASURE_WITH_UNIT (LENGTH_MEASURE( 1.000000000000000082E-05 ), #147, 'distance_accuracy_value', 'NONE');
#162 = PRODUCT_DEFINITION_SHAPE ( 'NONE', 'NONE',  #306 ) ;
#163 = PRESENTATION_STYLE_ASSIGNMENT (( #237 ) ) ;
#164 = CARTESIAN_POINT ( 'NONE',  ( 0.2499999999999999722, 0.8297244094488188670, 0.1830708661417322358 ) ) ;
#165 = CIRCLE ( 'NONE', #64, 0.05200787401574811369 ) ;
#166 = AXIS2_PLACEMENT_3D ( 'NONE', #233, #145, #121 ) ;
#167 = LENGTH_MEASURE_WITH_UNIT ( LENGTH_MEASURE( 0.02539999999999999897 ), #15 );
#168 = CYLINDRICAL_SURFACE ( 'NONE', #89, 0.09153543307086617342 ) ;
#169 = CYLINDRICAL_SURFACE ( 'NONE', #232, 0.09153543307086615954 ) ;
#170 = FACE_OUTER_BOUND ( 'NONE', #272, .T. ) ;
#171 = CARTESIAN_POINT ( 'NONE',  ( 1.160433070866141669, 0.6712598425196850682, -0.1830708661417322358 ) ) ;
#172 = EDGE_LOOP ( 'NONE', ( #144 ) ) ;
#173 = FACE_OUTER_BOUND ( 'NONE', #193, .T. ) ;
#174 = DIRECTION ( 'NONE',  ( 1.000000000000000000, 0.000000000000000000, 0.000000000000000000 ) ) ;
#175 = CARTESIAN_POINT ( 'NONE',  ( 1.251968503937008093, 0.000000000000000000, -7.452971151517734950E-18 ) ) ;
#176 = AXIS2_PLACEMENT_3D ( 'NONE', #42, #267, #213 ) ;
#177 = DIRECTION ( 'NONE',  ( -0.000000000000000000, 1.000000000000000000, -0.000000000000000000 ) ) ;
#178 = VERTEX_POINT ( 'NONE', #274 ) ;
#179 = ORIENTED_EDGE ( 'NONE', *, *, #210, .T. ) ;
#180 = CARTESIAN_POINT ( 'NONE',  ( 0.2500000000000000000, 0.9212598425196850682, 0.000000000000000000 ) ) ;
#181 = CARTESIAN_POINT ( 'NONE',  ( 0.2499999999999999722, 1.012795275590551158, 0.1830708661417322358 ) ) ;
#182 = CIRCLE ( 'NONE', #296, 0.09153543307086615954 ) ;
#183 = CARTESIAN_POINT ( 'NONE',  ( 7.452971151517734950E-18, 0.000000000000000000, -7.452971151517734950E-18 ) ) ;
#184 = CARTESIAN_POINT ( 'NONE',  ( 0.09153543307086617342, 0.7640862366711925757, -0.1830708661417322636 ) ) ;
#185 = CARTESIAN_POINT ( 'NONE',  ( 0.09153543307086615954, 0.6712598425196850682, 1.120985751188030137E-17 ) ) ;
#186 = CARTESIAN_POINT ( 'NONE',  ( 1.094794898088515156, 0.8297244094488188670, -0.1830708661417322636 ) ) ;
#187 = CARTESIAN_POINT ( 'NONE',  ( 1.343503937007874072, 0.6712598425196852903, 0.000000000000000000 ) ) ;
#188 =( CONVERSION_BASED_UNIT ( 'INCH', #167 ) LENGTH_UNIT ( ) NAMED_UNIT ( #47 ) );
#189 = CARTESIAN_POINT ( 'NONE',  ( 1.001968503937007871, 0.8297244094488187560, 1.120985751188030137E-17 ) ) ;
#190 = ORIENTED_EDGE ( 'NONE', *, *, #312, .F. ) ;
#191 = SURFACE_SIDE_STYLE ('',( #317 ) ) ;
#192 = DIRECTION ( 'NONE',  ( 0.000000000000000000, 0.000000000000000000, 1.000000000000000000 ) ) ;
#193 = EDGE_LOOP ( 'NONE', ( #50 ) ) ;
#194 = CARTESIAN_POINT ( 'NONE',  ( 1.202035328598952679, 1.012795275590551158, -0.1830708661417322636 ) ) ;
#195 = ORIENTED_EDGE ( 'NONE', *, *, #275, .T. ) ;
#196 = LENGTH_MEASURE_WITH_UNIT ( LENGTH_MEASURE( 0.02539999999999999897 ), #101 );
#197 = ORIENTED_EDGE ( 'NONE', *, *, #97, .T. ) ;
#198 =( GEOMETRIC_REPRESENTATION_CONTEXT ( 3 ) GLOBAL_UNCERTAINTY_ASSIGNED_CONTEXT ( ( #104 ) ) GLOBAL_UNIT_ASSIGNED_CONTEXT ( ( #135, #231, #289 ) ) REPRESENTATION_CONTEXT ( 'NONE', 'WORKASPACE' ) );
#199 = FACE_OUTER_BOUND ( 'NONE', #245, .T. ) ;
#200 = EDGE_LOOP ( 'NONE', ( #301 ) ) ;
#201 = DIRECTION ( 'NONE',  ( 0.000000000000000000, -1.000000000000000000, 0.000000000000000000 ) ) ;
#202 = DIRECTION ( 'NONE',  ( 1.000000000000000000, 0.000000000000000000, 0.000000000000000000 ) ) ;
#203 = CARTESIAN_POINT ( 'NONE',  ( 0.000000000000000000, 0.000000000000000000, 0.000000000000000000 ) ) ;
#204 = COLOUR_RGB ( '',0.7490196078431372584, 0.7490196078431372584, 0.7490196078431372584 ) ;
#205 = PRODUCT_DEFINITION_CONTEXT ( 'detailed design', #230, 'design' ) ;
#206 = DIRECTION ( 'NONE',  ( 0.000000000000000000, -1.000000000000000000, 0.000000000000000000 ) ) ;
#207 = ADVANCED_FACE ( 'NONE', ( #63, #248 ), #124, .T. ) ;
#208 = AXIS2_PLACEMENT_3D ( 'NONE', #262, #91, #288 ) ;
#209 = DIRECTION ( 'NONE',  ( 1.000000000000000000, 2.604628999999999670E-16, 0.000000000000000000 ) ) ;
#210 = EDGE_CURVE ( 'NONE', #151, #151, #222, .T. ) ;
#211 = DIRECTION ( 'NONE',  ( -1.000000000000000000, -0.000000000000000000, -0.000000000000000000 ) ) ;
#212 = AXIS2_PLACEMENT_3D ( 'NONE', #286, #201, #137 ) ;
#213 = DIRECTION ( 'NONE',  ( 0.000000000000000000, 0.000000000000000000, 1.000000000000000000 ) ) ;
#214 = DIRECTION ( 'NONE',  ( 2.604629000000000163E-16, -1.000000000000000000, 0.000000000000000000 ) ) ;
#215 =( NAMED_UNIT ( * ) SI_UNIT ( $, .STERADIAN. ) SOLID_ANGLE_UNIT ( ) );
#216 = FACE_OUTER_BOUND ( 'NONE', #75, .T. ) ;
#217 = CARTESIAN_POINT ( 'NONE',  ( 1.202035328598952679, 1.012795275590551380, 0.000000000000000000 ) ) ;
#218 = PRODUCT_DEFINITION_FORMATION_WITH_SPECIFIED_SOURCE ( 'ANY', '', #149, .NOT_KNOWN. ) ;
#219 = FACE_BOUND ( 'NONE', #100, .T. ) ;
#220 = DIRECTION ( 'NONE',  ( 0.000000000000000000, 0.000000000000000000, 1.000000000000000000 ) ) ;
#221 = EDGE_LOOP ( 'NONE', ( #276 ) ) ;
#222 = CIRCLE ( 'NONE', #166, 0.05200787401574814145 ) ;
#223 = CARTESIAN_POINT ( 'NONE',  ( -0.09153543307086615954, 0.8713266671816299880, 0.000000000000000000 ) ) ;
#224 = CARTESIAN_POINT ( 'NONE',  ( 1.199960629921259736, 0.6250000000000000000, -6.368917322834647343E-18 ) ) ;
#225 = EDGE_CURVE ( 'NONE', #8, #8, #71, .T. ) ;
#226 = UNCERTAINTY_MEASURE_WITH_UNIT (LENGTH_MEASURE( 1.000000000000000082E-05 ), #188, 'distance_accuracy_value', 'NONE');
#227 = DIRECTION ( 'NONE',  ( -1.000000000000000000, 0.000000000000000000, 0.000000000000000000 ) ) ;
#228 = CARTESIAN_POINT ( 'NONE',  ( 0.2499999999999999722, 0.8297244094488188670, -0.1830708661417322358 ) ) ;
#229 = STYLED_ITEM ( 'NONE', ( #59 ), #298 ) ;
#230 = APPLICATION_CONTEXT ( 'automotive_design' ) ;
#231 =( NAMED_UNIT ( * ) PLANE_ANGLE_UNIT ( ) SI_UNIT ( $, .RADIAN. ) );
#232 = AXIS2_PLACEMENT_3D ( 'NONE', #109, #202, #53 ) ;
#233 = CARTESIAN_POINT ( 'NONE',  ( 1.251968503937008093, 0.6250000000000000000, -7.452971151517734950E-18 ) ) ;
#234 = DIRECTION ( 'NONE',  ( 0.000000000000000000, -1.000000000000000000, 0.000000000000000000 ) ) ;
#235 = ADVANCED_FACE ( 'NONE', ( #90, #170 ), #256, .T. ) ;
#236 = CARTESIAN_POINT ( 'NONE',  ( 1.094794898088515156, 0.8297244094488188670, 0.1830708661417322636 ) ) ;
#237 = SURFACE_STYLE_USAGE ( .BOTH. , #191 ) ;
#238 = DIRECTION ( 'NONE',  ( 0.000000000000000000, 1.000000000000000000, 0.000000000000000000 ) ) ;
#239 = CARTESIAN_POINT ( 'NONE',  ( 0.000000000000000000, 0.000000000000000000, 0.000000000000000000 ) ) ;
#240 = CARTESIAN_POINT ( 'NONE',  ( 1.160433070866141669, 0.6712598425196850682, 0.1830708661417322358 ) ) ;
#241 = FILL_AREA_STYLE_COLOUR ( '', #204 ) ;
#242 = CYLINDRICAL_SURFACE ( 'NONE', #313, 0.05200787401574811369 ) ;
#243 = DIRECTION ( 'NONE',  ( 1.000000000000000000, 0.000000000000000000, 0.000000000000000000 ) ) ;
#244 = AXIS2_PLACEMENT_3D ( 'NONE', #281, #211, #81 ) ;
#245 = EDGE_LOOP ( 'NONE', ( #77 ) ) ;
#246 = CARTESIAN_POINT ( 'NONE',  ( 1.343503937007874516, 0.6712598425196851792, 0.000000000000000000 ) ) ;
#247 = EDGE_LOOP ( 'NONE', ( #31 ) ) ;
#248 = FACE_OUTER_BOUND ( 'NONE', #52, .T. ) ;
#249 = AXIS2_PLACEMENT_3D ( 'NONE', #51, #3, #292 ) ;
#250 = CARTESIAN_POINT ( 'NONE',  ( 0.09153543307086611791, 0.6712598425196850682, 0.1830708661417322358 ) ) ;
#251 = CARTESIAN_POINT ( 'NONE',  ( -0.05200787401574800961, 0.6250000000000000000, -6.368917322834647343E-18 ) ) ;
#252 = CARTESIAN_POINT ( 'NONE',  ( 1.251968503937008093, 0.000000000000000000, 0.000000000000000000 ) ) ;
#253 = PRODUCT_RELATED_PRODUCT_CATEGORY ( 'part', '', ( #149 ) ) ;
#254 = CARTESIAN_POINT ( 'NONE',  ( -0.09153543307086615954, 0.8713266671816299880, 0.000000000000000000 ) ) ;
#255 = PRESENTATION_LAYER_ASSIGNMENT (  '', '', ( #229 ) ) ;
#256 =( BOUNDED_SURFACE ( )  B_SPLINE_SURFACE ( 3, 3, ( 
 ( #143, #217, #17, #187 ),
 ( #263, #46, #25, #142 ),
 ( #314, #236, #66, #240 ),
 ( #189, #117, #21, #290 ),
 ( #72, #186, #116, #171 ),
 ( #44, #194, #69, #74 ),
 ( #99, #1, #113, #287 ) ),
 .UNSPECIFIED., .T., .F., .T. ) 
 B_SPLINE_SURFACE_WITH_KNOTS ( ( 4, 3, 4 ),
 ( 4, 4 ),
 ( 0.000000000000000000, 0.5000000000000000000, 1.000000000000000000 ),
 ( 0.000000000000000000, 1.000000000000000000 ),
 .UNSPECIFIED. ) 
 GEOMETRIC_REPRESENTATION_ITEM ( )  RATIONAL_B_SPLINE_SURFACE ( (
 ( 1.000000000000000000, 0.8047378541243651595, 0.8047378541243651595, 1.000000000000000000),
 ( 0.3333333333333333703, 0.2682459513747884050, 0.2682459513747884050, 0.3333333333333333703),
 ( 0.3333333333333333703, 0.2682459513747884050, 0.2682459513747884050, 0.3333333333333333703),
 ( 1.000000000000000000, 0.8047378541243651595, 0.8047378541243651595, 1.000000000000000000),
 ( 0.3333333333333333703, 0.2682459513747884050, 0.2682459513747884050, 0.3333333333333333703),
 ( 0.3333333333333333703, 0.2682459513747884050, 0.2682459513747884050, 0.3333333333333333703),
 ( 1.000000000000000000, 0.8047378541243651595, 0.8047378541243651595, 1.000000000000000000) ) ) 
 REPRESENTATION_ITEM ( '' )  SURFACE ( )  );
#257 = DIMENSIONAL_EXPONENTS ( 1.000000000000000000, 0.000000000000000000, 0.000000000000000000, 0.000000000000000000, 0.000000000000000000, 0.000000000000000000, 0.000000000000000000 ) ;
#258 =( NAMED_UNIT ( * ) PLANE_ANGLE_UNIT ( ) SI_UNIT ( $, .RADIAN. ) );
#259 = ADVANCED_FACE ( 'NONE', ( #22, #216 ), #168, .T. ) ;
#260 = DIRECTION ( 'NONE',  ( -2.604629000000000163E-16, 1.000000000000000000, -0.000000000000000000 ) ) ;
#261 = CYLINDRICAL_SURFACE ( 'NONE', #176, 0.05200787401574802349 ) ;
#262 = CARTESIAN_POINT ( 'NONE',  ( 7.452971151517734950E-18, 0.6250000000000000000, -7.452971151517734950E-18 ) ) ;
#263 = CARTESIAN_POINT ( 'NONE',  ( 1.001968503937007871, 1.012795275590551158, 0.1830708661417322358 ) ) ;
#264 = PLANE ( 'NONE',  #309 ) ;
#265 = ORIENTED_EDGE ( 'NONE', *, *, #29, .T. ) ;
#266 = EDGE_CURVE ( 'NONE', #35, #35, #160, .T. ) ;
#267 = DIRECTION ( 'NONE',  ( -0.000000000000000000, 1.000000000000000000, -0.000000000000000000 ) ) ;
#268 = ORIENTED_EDGE ( 'NONE', *, *, #29, .F. ) ;
#269 = ADVANCED_BREP_SHAPE_REPRESENTATION ( '1427B2BK', ( #298, #12 ), #198 ) ;
#270 = CLOSED_SHELL ( 'NONE', ( #300, #207, #235, #41, #259, #131, #293, #283, #9, #150, #87 ) ) ;
#271 = STYLED_ITEM ( 'NONE', ( #163 ), #269 ) ;
#272 = EDGE_LOOP ( 'NONE', ( #30 ) ) ;
#273 = FACE_OUTER_BOUND ( 'NONE', #105, .T. ) ;
#274 = CARTESIAN_POINT ( 'NONE',  ( 7.452971151517734950E-18, 0.000000000000000000, 0.05200787401574800961 ) ) ;
#275 = EDGE_CURVE ( 'NONE', #28, #28, #114, .T. ) ;
#276 = ORIENTED_EDGE ( 'NONE', *, *, #126, .T. ) ;
#277 = CARTESIAN_POINT ( 'NONE',  ( -0.09153543307086615954, 0.6712598425196850682, 0.000000000000000000 ) ) ;
#278 = DIRECTION ( 'NONE',  ( 0.000000000000000000, 1.000000000000000000, 0.000000000000000000 ) ) ;
#279 =( GEOMETRIC_REPRESENTATION_CONTEXT ( 3 ) GLOBAL_UNCERTAINTY_ASSIGNED_CONTEXT ( ( #226 ) ) GLOBAL_UNIT_ASSIGNED_CONTEXT ( ( #188, #258, #215 ) ) REPRESENTATION_CONTEXT ( 'NONE', 'WORKASPACE' ) );
#280 = VERTEX_POINT ( 'NONE', #128 ) ;
#281 = CARTESIAN_POINT ( 'NONE',  ( 1.001968503937007871, 0.9212598425196850682, 0.000000000000000000 ) ) ;
#282 = CARTESIAN_POINT ( 'NONE',  ( 0.2499999999999999722, 1.012795275590551158, -0.1830708661417322358 ) ) ;
#283 = ADVANCED_FACE ( 'NONE', ( #173, #315 ), #261, .F. ) ;
#284 = CARTESIAN_POINT ( 'NONE',  ( 0.04993317533805503167, 1.012795275590550936, -0.1830708661417322636 ) ) ;
#285 = FILL_AREA_STYLE ('',( #43 ) ) ;
#286 = CARTESIAN_POINT ( 'NONE',  ( 1.251968503937008093, 0.6250000000000000000, -7.452971151517734950E-18 ) ) ;
#287 = CARTESIAN_POINT ( 'NONE',  ( 1.343503937007874072, 0.6712598425196852903, 0.000000000000000000 ) ) ;
#288 = DIRECTION ( 'NONE',  ( -1.000000000000000000, 0.000000000000000000, 2.084403273925089809E-17 ) ) ;
#289 =( NAMED_UNIT ( * ) SI_UNIT ( $, .STERADIAN. ) SOLID_ANGLE_UNIT ( ) );
#290 = CARTESIAN_POINT ( 'NONE',  ( 1.160433070866141669, 0.6712598425196851792, 1.120985751188030137E-17 ) ) ;
#291 = ORIENTED_EDGE ( 'NONE', *, *, #210, .F. ) ;
#292 = DIRECTION ( 'NONE',  ( 1.000000000000000000, 0.000000000000000000, 0.000000000000000000 ) ) ;
#293 = ADVANCED_FACE ( 'NONE', ( #219, #139 ), #264, .F. ) ;
#294 = EDGE_LOOP ( 'NONE', ( #179 ) ) ;
#295 = APPLICATION_CONTEXT ( 'automotive_design' ) ;
#296 = AXIS2_PLACEMENT_3D ( 'NONE', #180, #174, #157 ) ;
#297 = ORIENTED_EDGE ( 'NONE', *, *, #126, .F. ) ;
#298 = MANIFOLD_SOLID_BREP ( 'Solid1', #270 ) ;
#299 = VERTEX_POINT ( 'NONE', #277 ) ;
#300 = ADVANCED_FACE ( 'NONE', ( #199, #107 ), #169, .T. ) ;
#301 = ORIENTED_EDGE ( 'NONE', *, *, #156, .F. ) ;
#302 = SURFACE_STYLE_USAGE ( .BOTH. , #122 ) ;
#303 = CARTESIAN_POINT ( 'NONE',  ( 0.04993317533805503167, 1.012795275590550936, 0.1830708661417322636 ) ) ;
#304 = VERTEX_POINT ( 'NONE', #32 ) ;
#305 = DIRECTION ( 'NONE',  ( -0.000000000000000000, 1.000000000000000000, -0.000000000000000000 ) ) ;
#306 = PRODUCT_DEFINITION ( 'UNKNOWN', '', #218, #205 ) ;
#307 = CARTESIAN_POINT ( 'NONE',  ( 0.000000000000000000, 0.000000000000000000, 0.09153543307086615954 ) ) ;
#308 = CIRCLE ( 'NONE', #85, 0.09153543307086615954 ) ;
#309 = AXIS2_PLACEMENT_3D ( 'NONE', #92, #238, #49 ) ;
#310 = FACE_OUTER_BOUND ( 'NONE', #23, .T. ) ;
#311 = DIRECTION ( 'NONE',  ( 0.000000000000000000, 0.000000000000000000, 1.000000000000000000 ) ) ;
#312 = EDGE_CURVE ( 'NONE', #84, #84, #182, .T. ) ;
#313 = AXIS2_PLACEMENT_3D ( 'NONE', #2, #177, #98 ) ;
#314 = CARTESIAN_POINT ( 'NONE',  ( 1.001968503937007871, 0.8297244094488188670, 0.1830708661417322358 ) ) ;
#315 = FACE_OUTER_BOUND ( 'NONE', #120, .T. ) ;
#316 = EDGE_LOOP ( 'NONE', ( #265 ) ) ;
#317 = SURFACE_STYLE_FILL_AREA ( #285 ) ;
ENDSEC;
END-ISO-10303-21;
