ISO-10303-21;
HEADER;
FILE_DESCRIPTION (( 'STEP AP214' ),
    '1' );
FILE_NAME ('1427E1BK.STEP',
    '2021-09-09T19:26:04',
    ( '' ),
    ( '' ),
    'SwSTEP 2.0',
    'SolidWorks 2021',
    '' );
FILE_SCHEMA (( 'AUTOMOTIVE_DESIGN' ));
ENDSEC;

DATA;
#1 = DIRECTION ( 'NONE',  ( 0.000000000000000000, -1.000000000000000000, 0.000000000000000000 ) ) ;
#2 = PRODUCT_DEFINITION_FORMATION_WITH_SPECIFIED_SOURCE ( 'ANY', '', #154, .NOT_KNOWN. ) ;
#3 = DIRECTION ( 'NONE',  ( -0.000000000000000000, 1.000000000000000000, -0.000000000000000000 ) ) ;
#4 = SURFACE_SIDE_STYLE ('',( #203 ) ) ;
#5 =( NAMED_UNIT ( * ) PLANE_ANGLE_UNIT ( ) SI_UNIT ( $, .RADIAN. ) );
#6 = EDGE_LOOP ( 'NONE', ( #144 ) ) ;
#7 = MECHANICAL_DESIGN_GEOMETRIC_PRESENTATION_REPRESENTATION (  '', ( #263 ), #59 ) ;
#8 = FACE_OUTER_BOUND ( 'NONE', #175, .T. ) ;
#9 = CARTESIAN_POINT ( 'NONE',  ( 0.09153543307086613179, 0.7837712760412711699, 0.1830708661417322636 ) ) ;
#10 = VERTEX_POINT ( 'NONE', #44 ) ;
#11 = EDGE_LOOP ( 'NONE', ( #202 ) ) ;
#12 = EDGE_LOOP ( 'NONE', ( #249 ) ) ;
#13 = DIMENSIONAL_EXPONENTS ( 1.000000000000000000, 0.000000000000000000, 0.000000000000000000, 0.000000000000000000, 0.000000000000000000, 0.000000000000000000, 0.000000000000000000 ) ;
#14 = DIRECTION ( 'NONE',  ( 1.000000000000000000, -1.165588000000000087E-16, 0.000000000000000000 ) ) ;
#15 = CARTESIAN_POINT ( 'NONE',  ( 0.04993317533805514269, 1.032480314960629642, 0.000000000000000000 ) ) ;
#16 = EDGE_LOOP ( 'NONE', ( #152 ) ) ;
#17 = ADVANCED_FACE ( 'NONE', ( #251, #168 ), #76, .T. ) ;
#18 = CARTESIAN_POINT ( 'NONE',  ( 2.091535433070865757, 0.6909448818897636624, 0.000000000000000000 ) ) ;
#19 = CARTESIAN_POINT ( 'NONE',  ( -0.05200787401574800961, 0.6250000000000000000, -6.368917322834647343E-18 ) ) ;
#20 = SURFACE_SIDE_STYLE ('',( #49 ) ) ;
#21 = AXIS2_PLACEMENT_3D ( 'NONE', #133, #29, #317 ) ;
#22 = PRESENTATION_LAYER_ASSIGNMENT (  '', '', ( #263 ) ) ;
#23 = APPLICATION_CONTEXT ( 'automotive_design' ) ;
#24 = LENGTH_MEASURE_WITH_UNIT ( LENGTH_MEASURE( 0.02539999999999999897 ), #71 );
#25 = CARTESIAN_POINT ( 'NONE',  ( 0.2500000000000000000, 0.9409448818897638844, 0.000000000000000000 ) ) ;
#26 = CYLINDRICAL_SURFACE ( 'NONE', #316, 0.05200787401574802349 ) ;
#27 = AXIS2_PLACEMENT_3D ( 'NONE', #47, #242, #218 ) ;
#28 = PRODUCT_DEFINITION_SHAPE ( 'NONE', 'NONE',  #134 ) ;
#29 = DIRECTION ( 'NONE',  ( 0.000000000000000000, 1.000000000000000000, 0.000000000000000000 ) ) ;
#30 = FACE_OUTER_BOUND ( 'NONE', #6, .T. ) ;
#31 = AXIS2_PLACEMENT_3D ( 'NONE', #197, #142, #67 ) ;
#32 = CARTESIAN_POINT ( 'NONE',  ( 0.000000000000000000, 0.6909448818897636624, 0.000000000000000000 ) ) ;
#33 = DIRECTION ( 'NONE',  ( -0.000000000000000000, 1.000000000000000000, -0.000000000000000000 ) ) ;
#34 = ORIENTED_EDGE ( 'NONE', *, *, #280, .F. ) ;
#35 = ADVANCED_FACE ( 'NONE', ( #121, #70 ), #279, .T. ) ;
#36 = DIRECTION ( 'NONE',  ( 0.000000000000000000, 1.000000000000000000, 0.000000000000000000 ) ) ;
#37 = CARTESIAN_POINT ( 'NONE',  ( 0.2499999999999999167, 0.8494094488188972392, 1.120985751188030137E-17 ) ) ;
#38 = UNCERTAINTY_MEASURE_WITH_UNIT (LENGTH_MEASURE( 1.000000000000000082E-05 ), #128, 'distance_accuracy_value', 'NONE');
#39 = CIRCLE ( 'NONE', #236, 0.05200787401574802349 ) ;
#40 = DIRECTION ( 'NONE',  ( -0.000000000000000000, 1.000000000000000000, -0.000000000000000000 ) ) ;
#41 = ORIENTED_EDGE ( 'NONE', *, *, #194, .F. ) ;
#42 = DIRECTION ( 'NONE',  ( -1.000000000000000000, 0.000000000000000000, 2.084403273925089809E-17 ) ) ;
#43 = EDGE_LOOP ( 'NONE', ( #222 ) ) ;
#44 = CARTESIAN_POINT ( 'NONE',  ( 1.947992125984252088, 0.6250000000000000000, -6.368917322834647343E-18 ) ) ;
#45 = CARTESIAN_POINT ( 'NONE',  ( 2.000000000000000444, 0.6909448818897636624, 0.000000000000000000 ) ) ;
#46 = AXIS2_PLACEMENT_3D ( 'NONE', #277, #61, #165 ) ;
#47 = CARTESIAN_POINT ( 'NONE',  ( 0.000000000000000000, 0.000000000000000000, 0.000000000000000000 ) ) ;
#48 = ADVANCED_FACE ( 'NONE', ( #224, #296 ), #87, .T. ) ;
#49 = SURFACE_STYLE_FILL_AREA ( #171 ) ;
#50 = PRESENTATION_LAYER_ASSIGNMENT (  '', '', ( #275 ) ) ;
#51 = CARTESIAN_POINT ( 'NONE',  ( 1.842826394151507285, 0.8494094488188973502, 0.1830708661417322636 ) ) ;
#52 = FACE_OUTER_BOUND ( 'NONE', #90, .T. ) ;
#53 = EDGE_CURVE ( 'NONE', #284, #284, #226, .T. ) ;
#54 = FACE_OUTER_BOUND ( 'NONE', #181, .T. ) ;
#55 = PRODUCT_CONTEXT ( 'NONE', #286, 'mechanical' ) ;
#56 = CARTESIAN_POINT ( 'NONE',  ( 1.950066824661944143, 1.032480314960629642, 0.000000000000000000 ) ) ;
#57 = CARTESIAN_POINT ( 'NONE',  ( 1.908464566929133799, 0.6909448818897636624, -0.1830708661417322358 ) ) ;
#58 = CARTESIAN_POINT ( 'NONE',  ( 7.452971151517734950E-18, 0.000000000000000000, -7.452971151517734950E-18 ) ) ;
#59 =( GEOMETRIC_REPRESENTATION_CONTEXT ( 3 ) GLOBAL_UNCERTAINTY_ASSIGNED_CONTEXT ( ( #38 ) ) GLOBAL_UNIT_ASSIGNED_CONTEXT ( ( #128, #285, #147 ) ) REPRESENTATION_CONTEXT ( 'NONE', 'WORKASPACE' ) );
#60 = DIRECTION ( 'NONE',  ( 0.000000000000000000, 1.000000000000000000, 0.000000000000000000 ) ) ;
#61 = DIRECTION ( 'NONE',  ( -1.000000000000000000, 1.165588000000000087E-16, -0.000000000000000000 ) ) ;
#62 = CARTESIAN_POINT ( 'NONE',  ( -0.09153543307086615954, 0.6909448818897636624, 0.000000000000000000 ) ) ;
#63 = FACE_OUTER_BOUND ( 'NONE', #72, .T. ) ;
#64 = EDGE_LOOP ( 'NONE', ( #34 ) ) ;
#65 = AXIS2_PLACEMENT_3D ( 'NONE', #45, #146, #228 ) ;
#66 = AXIS2_PLACEMENT_3D ( 'NONE', #246, #297, #79 ) ;
#67 = DIRECTION ( 'NONE',  ( -1.000000000000000000, 0.000000000000000000, 2.084403273925095971E-17 ) ) ;
#68 = CARTESIAN_POINT ( 'NONE',  ( 0.2499999999999999722, 0.8494094488188972392, 0.1830708661417322358 ) ) ;
#69 =( LENGTH_UNIT ( ) NAMED_UNIT ( * ) SI_UNIT ( $, .METRE. ) );
#70 = FACE_OUTER_BOUND ( 'NONE', #12, .T. ) ;
#71 =( LENGTH_UNIT ( ) NAMED_UNIT ( * ) SI_UNIT ( $, .METRE. ) );
#72 = EDGE_LOOP ( 'NONE', ( #289 ) ) ;
#73 = CARTESIAN_POINT ( 'NONE',  ( 0.2500000000000000000, 1.032480314960630086, 0.000000000000000000 ) ) ;
#74 =( LENGTH_UNIT ( ) NAMED_UNIT ( * ) SI_UNIT ( $, .METRE. ) );
#75 = SURFACE_STYLE_USAGE ( .BOTH. , #20 ) ;
#76 =( BOUNDED_SURFACE ( )  B_SPLINE_SURFACE ( 3, 3, ( 
 ( #62, #271, #15, #301 ),
 ( #180, #253, #137, #306 ),
 ( #95, #9, #210, #68 ),
 ( #231, #117, #299, #37 ),
 ( #112, #119, #257, #200 ),
 ( #208, #305, #94, #89 ),
 ( #141, #184, #278, #185 ) ),
 .UNSPECIFIED., .T., .F., .T. ) 
 B_SPLINE_SURFACE_WITH_KNOTS ( ( 4, 3, 4 ),
 ( 4, 4 ),
 ( 0.000000000000000000, 0.5000000000000000000, 1.000000000000000000 ),
 ( 0.000000000000000000, 1.000000000000000000 ),
 .UNSPECIFIED. ) 
 GEOMETRIC_REPRESENTATION_ITEM ( )  RATIONAL_B_SPLINE_SURFACE ( (
 ( 1.000000000000000000, 0.8047378541243649375, 0.8047378541243649375, 1.000000000000000000),
 ( 0.3333333333333333703, 0.2682459513747883495, 0.2682459513747883495, 0.3333333333333333703),
 ( 0.3333333333333333703, 0.2682459513747883495, 0.2682459513747883495, 0.3333333333333333703),
 ( 1.000000000000000000, 0.8047378541243649375, 0.8047378541243649375, 1.000000000000000000),
 ( 0.3333333333333333703, 0.2682459513747883495, 0.2682459513747883495, 0.3333333333333333703),
 ( 0.3333333333333333703, 0.2682459513747883495, 0.2682459513747883495, 0.3333333333333333703),
 ( 1.000000000000000000, 0.8047378541243649375, 0.8047378541243649375, 1.000000000000000000) ) ) 
 REPRESENTATION_ITEM ( '' )  SURFACE ( )  );
#77 = AXIS2_PLACEMENT_3D ( 'NONE', #25, #315, #130 ) ;
#78 = CARTESIAN_POINT ( 'NONE',  ( 1.749999999999999556, 0.8494094488188972392, 0.1830708661417322358 ) ) ;
#79 = DIRECTION ( 'NONE',  ( 1.000000000000000000, 0.000000000000000000, 0.000000000000000000 ) ) ;
#80 = CARTESIAN_POINT ( 'NONE',  ( 1.749999999999999556, 1.032480314960629642, 0.000000000000000000 ) ) ;
#81 = FACE_OUTER_BOUND ( 'NONE', #64, .T. ) ;
#82 = DIRECTION ( 'NONE',  ( 1.000000000000000000, 0.000000000000000000, 0.000000000000000000 ) ) ;
#83 = AXIS2_PLACEMENT_3D ( 'NONE', #138, #36, #198 ) ;
#84 = MECHANICAL_DESIGN_GEOMETRIC_PRESENTATION_REPRESENTATION (  '', ( #275 ), #92 ) ;
#85 = DIRECTION ( 'NONE',  ( 0.000000000000000000, 1.000000000000000000, 0.000000000000000000 ) ) ;
#86 = ADVANCED_FACE ( 'NONE', ( #239 ), #132, .F. ) ;
#87 = PLANE ( 'NONE',  #27 ) ;
#88 = PRESENTATION_STYLE_ASSIGNMENT (( #302 ) ) ;
#89 = CARTESIAN_POINT ( 'NONE',  ( 0.2499999999999999722, 1.032480314960629642, -0.1830708661417322358 ) ) ;
#90 = EDGE_LOOP ( 'NONE', ( #308 ) ) ;
#91 = UNCERTAINTY_MEASURE_WITH_UNIT (LENGTH_MEASURE( 1.000000000000000082E-05 ), #108, 'distance_accuracy_value', 'NONE');
#92 =( GEOMETRIC_REPRESENTATION_CONTEXT ( 3 ) GLOBAL_UNCERTAINTY_ASSIGNED_CONTEXT ( ( #91 ) ) GLOBAL_UNIT_ASSIGNED_CONTEXT ( ( #108, #5, #274 ) ) REPRESENTATION_CONTEXT ( 'NONE', 'WORKASPACE' ) );
#93 = DIRECTION ( 'NONE',  ( 0.000000000000000000, -1.000000000000000000, 0.000000000000000000 ) ) ;
#94 = CARTESIAN_POINT ( 'NONE',  ( 0.04993317533805513575, 1.032480314960629642, -0.1830708661417322636 ) ) ;
#95 = CARTESIAN_POINT ( 'NONE',  ( 0.09153543307086611791, 0.6909448818897636624, 0.1830708661417322358 ) ) ;
#96 = CARTESIAN_POINT ( 'NONE',  ( 1.908464566929133133, 0.7837712760412711699, 0.1830708661417322636 ) ) ;
#97 = AXIS2_PLACEMENT_3D ( 'NONE', #32, #230, #254 ) ;
#98 = CARTESIAN_POINT ( 'NONE',  ( 2.091535433070866201, -1.829170727147092343E-16, 0.000000000000000000 ) ) ;
#99 = CARTESIAN_POINT ( 'NONE',  ( 1.908464566929133133, 0.7837712760412711699, -0.1830708661417322636 ) ) ;
#100 = DIRECTION ( 'NONE',  ( 0.000000000000000000, 0.000000000000000000, -1.000000000000000000 ) ) ;
#101 = ADVANCED_BREP_SHAPE_REPRESENTATION ( '1427E1BK', ( #300, #66 ), #187 ) ;
#102 = ORIENTED_EDGE ( 'NONE', *, *, #221, .F. ) ;
#103 = CARTESIAN_POINT ( 'NONE',  ( 2.091535433070866201, 0.8910117065517084711, -0.1830708661417322636 ) ) ;
#104 = DIRECTION ( 'NONE',  ( 0.000000000000000000, -1.000000000000000000, 0.000000000000000000 ) ) ;
#105 = FACE_OUTER_BOUND ( 'NONE', #304, .T. ) ;
#106 = COLOUR_RGB ( '',0.7490196078431372584, 0.7490196078431372584, 0.7490196078431372584 ) ;
#107 = CARTESIAN_POINT ( 'NONE',  ( 7.452971151517734950E-18, 0.6250000000000000000, -7.452971151517734950E-18 ) ) ;
#108 =( CONVERSION_BASED_UNIT ( 'INCH', #167 ) LENGTH_UNIT ( ) NAMED_UNIT ( #204 ) );
#109 = ADVANCED_FACE ( 'NONE', ( #261, #193 ), #155, .T. ) ;
#110 = DIRECTION ( 'NONE',  ( 0.000000000000000000, 0.000000000000000000, 1.000000000000000000 ) ) ;
#111 = CIRCLE ( 'NONE', #252, 0.09153543307086617342 ) ;
#112 = CARTESIAN_POINT ( 'NONE',  ( 0.09153543307086617342, 0.6909448818897636624, -0.1830708661417322358 ) ) ;
#113 = CARTESIAN_POINT ( 'NONE',  ( 2.000000000000000000, 0.000000000000000000, -7.452971151517734950E-18 ) ) ;
#114 = EDGE_LOOP ( 'NONE', ( #139 ) ) ;
#115 = CYLINDRICAL_SURFACE ( 'NONE', #83, 0.09153543307086615954 ) ;
#116 = PRODUCT_RELATED_PRODUCT_CATEGORY ( 'part', '', ( #154 ) ) ;
#117 = CARTESIAN_POINT ( 'NONE',  ( 0.09153543307086615954, 0.7837712760412711699, 1.120985751188030137E-17 ) ) ;
#118 = CYLINDRICAL_SURFACE ( 'NONE', #265, 0.05200787401574781532 ) ;
#119 = CARTESIAN_POINT ( 'NONE',  ( 0.09153543307086617342, 0.7837712760412711699, -0.1830708661417322636 ) ) ;
#120 = CARTESIAN_POINT ( 'NONE',  ( 0.000000000000000000, 0.000000000000000000, 0.09153543307086615954 ) ) ;
#121 = FACE_OUTER_BOUND ( 'NONE', #114, .T. ) ;
#122 = CARTESIAN_POINT ( 'NONE',  ( 1.750000000000000000, 1.032480314960629864, 0.000000000000000000 ) ) ;
#123 = VERTEX_POINT ( 'NONE', #256 ) ;
#124 = CARTESIAN_POINT ( 'NONE',  ( 1.749999999999999556, 1.032480314960629642, 0.000000000000000000 ) ) ;
#125 = CIRCLE ( 'NONE', #176, 0.05200787401574802349 ) ;
#126 = VERTEX_POINT ( 'NONE', #238 ) ;
#127 = CARTESIAN_POINT ( 'NONE',  ( 1.749999999999999556, 1.032480314960629642, 0.1830708661417322358 ) ) ;
#128 =( CONVERSION_BASED_UNIT ( 'INCH', #24 ) LENGTH_UNIT ( ) NAMED_UNIT ( #227 ) );
#129 = CARTESIAN_POINT ( 'NONE',  ( 1.950066824661944365, 1.032480314960629642, -0.1830708661417322636 ) ) ;
#130 = DIRECTION ( 'NONE',  ( 0.000000000000000000, 1.000000000000000000, 0.000000000000000000 ) ) ;
#131 = SHAPE_DEFINITION_REPRESENTATION ( #28, #101 ) ;
#132 = CONICAL_SURFACE ( 'NONE', #135, 0.05200787401574786389, 1.029744258676654312 ) ;
#133 = CARTESIAN_POINT ( 'NONE',  ( 2.000000000000000000, 0.000000000000000000, 0.000000000000000000 ) ) ;
#134 = PRODUCT_DEFINITION ( 'UNKNOWN', '', #2, #229 ) ;
#135 = AXIS2_PLACEMENT_3D ( 'NONE', #149, #104, #100 ) ;
#136 = CARTESIAN_POINT ( 'NONE',  ( 7.452971151517734950E-18, 0.6250000000000000000, -7.452971151517734950E-18 ) ) ;
#137 = CARTESIAN_POINT ( 'NONE',  ( 0.04993317533805513575, 1.032480314960629642, 0.1830708661417322636 ) ) ;
#138 = CARTESIAN_POINT ( 'NONE',  ( 0.000000000000000000, 0.000000000000000000, 0.000000000000000000 ) ) ;
#139 = ORIENTED_EDGE ( 'NONE', *, *, #273, .F. ) ;
#140 = CIRCLE ( 'NONE', #258, 0.09153543307086617342 ) ;
#141 = CARTESIAN_POINT ( 'NONE',  ( -0.09153543307086615954, 0.6909448818897636624, 0.000000000000000000 ) ) ;
#142 = DIRECTION ( 'NONE',  ( 0.000000000000000000, -1.000000000000000000, 0.000000000000000000 ) ) ;
#143 = DIRECTION ( 'NONE',  ( -1.224646799147353207E-16, 1.000000000000000000, -0.000000000000000000 ) ) ;
#144 = ORIENTED_EDGE ( 'NONE', *, *, #259, .F. ) ;
#145 =( NAMED_UNIT ( * ) SI_UNIT ( $, .STERADIAN. ) SOLID_ANGLE_UNIT ( ) );
#146 = DIRECTION ( 'NONE',  ( -5.060845999999999918E-16, -1.000000000000000000, 0.000000000000000000 ) ) ;
#147 =( NAMED_UNIT ( * ) SI_UNIT ( $, .STERADIAN. ) SOLID_ANGLE_UNIT ( ) );
#148 = ADVANCED_FACE ( 'NONE', ( #52, #81 ), #26, .F. ) ;
#149 = CARTESIAN_POINT ( 'NONE',  ( 2.000000000000000000, 0.6250000000000000000, -7.452971151517734950E-18 ) ) ;
#150 = VERTEX_POINT ( 'NONE', #120 ) ;
#151 = CLOSED_SHELL ( 'NONE', ( #172, #17, #109, #169, #35, #48, #153, #148, #196, #158, #86 ) ) ;
#152 = ORIENTED_EDGE ( 'NONE', *, *, #213, .F. ) ;
#153 = ADVANCED_FACE ( 'NONE', ( #291, #54 ), #245, .F. ) ;
#154 = PRODUCT ( '1427E1BK', '1427E1BK', '', ( #55 ) ) ;
#155 =( BOUNDED_SURFACE ( )  B_SPLINE_SURFACE ( 3, 3, ( 
 ( #124, #241, #191, #18 ),
 ( #127, #215, #211, #307 ),
 ( #78, #51, #96, #287 ),
 ( #186, #282, #174, #214 ),
 ( #264, #311, #99, #57 ),
 ( #266, #129, #103, #243 ),
 ( #80, #56, #192, #156 ) ),
 .UNSPECIFIED., .T., .F., .F. ) 
 B_SPLINE_SURFACE_WITH_KNOTS ( ( 4, 3, 4 ),
 ( 4, 4 ),
 ( 0.000000000000000000, 0.5000000000000000000, 1.000000000000000000 ),
 ( 0.000000000000000000, 1.000000000000000000 ),
 .UNSPECIFIED. ) 
 GEOMETRIC_REPRESENTATION_ITEM ( )  RATIONAL_B_SPLINE_SURFACE ( (
 ( 1.000000000000000000, 0.8047378541243649375, 0.8047378541243649375, 1.000000000000000000),
 ( 0.3333333333333333703, 0.2682459513747883495, 0.2682459513747883495, 0.3333333333333333703),
 ( 0.3333333333333333703, 0.2682459513747883495, 0.2682459513747883495, 0.3333333333333333703),
 ( 1.000000000000000000, 0.8047378541243649375, 0.8047378541243649375, 1.000000000000000000),
 ( 0.3333333333333333703, 0.2682459513747883495, 0.2682459513747883495, 0.3333333333333333703),
 ( 0.3333333333333333703, 0.2682459513747883495, 0.2682459513747883495, 0.3333333333333333703),
 ( 1.000000000000000000, 0.8047378541243649375, 0.8047378541243649375, 1.000000000000000000) ) ) 
 REPRESENTATION_ITEM ( '' )  SURFACE ( )  );
#156 = CARTESIAN_POINT ( 'NONE',  ( 2.091535433070865757, 0.6909448818897636624, 0.000000000000000000 ) ) ;
#157 = DIRECTION ( 'NONE',  ( 0.000000000000000000, 0.000000000000000000, 1.000000000000000000 ) ) ;
#158 = ADVANCED_FACE ( 'NONE', ( #105 ), #173, .F. ) ;
#159 = DIRECTION ( 'NONE',  ( 0.000000000000000000, 0.000000000000000000, 1.000000000000000000 ) ) ;
#160 = CARTESIAN_POINT ( 'NONE',  ( 0.000000000000000000, 0.000000000000000000, 0.000000000000000000 ) ) ;
#161 = EDGE_LOOP ( 'NONE', ( #205 ) ) ;
#162 = UNCERTAINTY_MEASURE_WITH_UNIT (LENGTH_MEASURE( 1.000000000000000082E-05 ), #212, 'distance_accuracy_value', 'NONE');
#163 = CIRCLE ( 'NONE', #195, 0.05200787401574781532 ) ;
#164 = ORIENTED_EDGE ( 'NONE', *, *, #194, .T. ) ;
#165 = DIRECTION ( 'NONE',  ( 0.000000000000000000, 1.000000000000000000, 0.000000000000000000 ) ) ;
#166 = ORIENTED_EDGE ( 'NONE', *, *, #221, .T. ) ;
#167 = LENGTH_MEASURE_WITH_UNIT ( LENGTH_MEASURE( 0.02539999999999999897 ), #69 );
#168 = FACE_OUTER_BOUND ( 'NONE', #11, .T. ) ;
#169 = ADVANCED_FACE ( 'NONE', ( #247, #30 ), #115, .T. ) ;
#170 = APPLICATION_PROTOCOL_DEFINITION ( 'draft international standard', 'automotive_design', 1998, #286 ) ;
#171 = FILL_AREA_STYLE ('',( #262 ) ) ;
#172 = ADVANCED_FACE ( 'NONE', ( #63, #225 ), #268, .T. ) ;
#173 = CONICAL_SURFACE ( 'NONE', #199, 0.05200787401574796104, 1.029744258676654978 ) ;
#174 = CARTESIAN_POINT ( 'NONE',  ( 1.908464566929133133, 0.7837712760412711699, 1.120985751188030137E-17 ) ) ;
#175 = EDGE_LOOP ( 'NONE', ( #41 ) ) ;
#176 = AXIS2_PLACEMENT_3D ( 'NONE', #136, #93, #42 ) ;
#177 = FILL_AREA_STYLE_COLOUR ( '', #106 ) ;
#178 = DIRECTION ( 'NONE',  ( 5.060845999999999918E-16, 1.000000000000000000, -0.000000000000000000 ) ) ;
#179 = CARTESIAN_POINT ( 'NONE',  ( 2.000000000000000000, 0.000000000000000000, -7.452971151517734950E-18 ) ) ;
#180 = CARTESIAN_POINT ( 'NONE',  ( -0.09153543307086615954, 0.6909448818897636624, 0.1830708661417322358 ) ) ;
#181 = EDGE_LOOP ( 'NONE', ( #237 ) ) ;
#182 = DIRECTION ( 'NONE',  ( 0.000000000000000000, 0.000000000000000000, 1.000000000000000000 ) ) ;
#183 = ORIENTED_EDGE ( 'NONE', *, *, #259, .T. ) ;
#184 = CARTESIAN_POINT ( 'NONE',  ( -0.09153543307086615954, 0.8910117065517085821, 0.000000000000000000 ) ) ;
#185 = CARTESIAN_POINT ( 'NONE',  ( 0.2499999999999999167, 1.032480314960629642, 0.000000000000000000 ) ) ;
#186 = CARTESIAN_POINT ( 'NONE',  ( 1.749999999999999556, 0.8494094488188972392, 1.120985751188030137E-17 ) ) ;
#187 =( GEOMETRIC_REPRESENTATION_CONTEXT ( 3 ) GLOBAL_UNCERTAINTY_ASSIGNED_CONTEXT ( ( #162 ) ) GLOBAL_UNIT_ASSIGNED_CONTEXT ( ( #212, #312, #145 ) ) REPRESENTATION_CONTEXT ( 'NONE', 'WORKASPACE' ) );
#188 = ORIENTED_EDGE ( 'NONE', *, *, #280, .T. ) ;
#189 = CARTESIAN_POINT ( 'NONE',  ( 7.452971151517734950E-18, 0.000000000000000000, 0.05200787401574800961 ) ) ;
#190 = EDGE_LOOP ( 'NONE', ( #188 ) ) ;
#191 = CARTESIAN_POINT ( 'NONE',  ( 2.091535433070865313, 0.8910117065517084711, 0.000000000000000000 ) ) ;
#192 = CARTESIAN_POINT ( 'NONE',  ( 2.091535433070865313, 0.8910117065517084711, 0.000000000000000000 ) ) ;
#193 = FACE_OUTER_BOUND ( 'NONE', #272, .T. ) ;
#194 = EDGE_CURVE ( 'NONE', #10, #10, #303, .T. ) ;
#195 = AXIS2_PLACEMENT_3D ( 'NONE', #179, #270, #182 ) ;
#196 = ADVANCED_FACE ( 'NONE', ( #8, #294 ), #118, .F. ) ;
#197 = CARTESIAN_POINT ( 'NONE',  ( 2.000000000000000000, 0.6250000000000000000, -7.452971151517734950E-18 ) ) ;
#198 = DIRECTION ( 'NONE',  ( 0.000000000000000000, 0.000000000000000000, 1.000000000000000000 ) ) ;
#199 = AXIS2_PLACEMENT_3D ( 'NONE', #107, #1, #292 ) ;
#200 = CARTESIAN_POINT ( 'NONE',  ( 0.2499999999999999722, 0.8494094488188972392, -0.1830708661417322358 ) ) ;
#201 = CARTESIAN_POINT ( 'NONE',  ( 2.000000000000000444, -1.365923996832131609E-16, 0.000000000000000000 ) ) ;
#202 = ORIENTED_EDGE ( 'NONE', *, *, #53, .F. ) ;
#203 = SURFACE_STYLE_FILL_AREA ( #232 ) ;
#204 = DIMENSIONAL_EXPONENTS ( 1.000000000000000000, 0.000000000000000000, 0.000000000000000000, 0.000000000000000000, 0.000000000000000000, 0.000000000000000000, 0.000000000000000000 ) ;
#205 = ORIENTED_EDGE ( 'NONE', *, *, #293, .F. ) ;
#206 = DIRECTION ( 'NONE',  ( 0.000000000000000000, 0.000000000000000000, 1.000000000000000000 ) ) ;
#207 = ORIENTED_EDGE ( 'NONE', *, *, #273, .T. ) ;
#208 = CARTESIAN_POINT ( 'NONE',  ( -0.09153543307086615954, 0.6909448818897636624, -0.1830708661417322358 ) ) ;
#209 = LENGTH_MEASURE_WITH_UNIT ( LENGTH_MEASURE( 0.02539999999999999897 ), #74 );
#210 = CARTESIAN_POINT ( 'NONE',  ( 0.1571736058484924925, 0.8494094488188973502, 0.1830708661417322636 ) ) ;
#211 = CARTESIAN_POINT ( 'NONE',  ( 2.091535433070866201, 0.8910117065517084711, 0.1830708661417322636 ) ) ;
#212 =( CONVERSION_BASED_UNIT ( 'INCH', #209 ) LENGTH_UNIT ( ) NAMED_UNIT ( #13 ) );
#213 = EDGE_CURVE ( 'NONE', #314, #314, #248, .T. ) ;
#214 = CARTESIAN_POINT ( 'NONE',  ( 1.908464566929133577, 0.6909448818897636624, 1.120985751188030137E-17 ) ) ;
#215 = CARTESIAN_POINT ( 'NONE',  ( 1.950066824661944365, 1.032480314960629642, 0.1830708661417322636 ) ) ;
#216 = ORIENTED_EDGE ( 'NONE', *, *, #269, .T. ) ;
#217 = VERTEX_POINT ( 'NONE', #19 ) ;
#218 = DIRECTION ( 'NONE',  ( 0.000000000000000000, -0.000000000000000000, -1.000000000000000000 ) ) ;
#219 = CIRCLE ( 'NONE', #281, 0.09153543307086615954 ) ;
#220 = ORIENTED_EDGE ( 'NONE', *, *, #293, .T. ) ;
#221 = EDGE_CURVE ( 'NONE', #150, #150, #219, .T. ) ;
#222 = ORIENTED_EDGE ( 'NONE', *, *, #213, .T. ) ;
#223 = CARTESIAN_POINT ( 'NONE',  ( 7.452971151517734950E-18, 0.000000000000000000, -7.452971151517734950E-18 ) ) ;
#224 = FACE_BOUND ( 'NONE', #190, .T. ) ;
#225 = FACE_OUTER_BOUND ( 'NONE', #43, .T. ) ;
#226 = CIRCLE ( 'NONE', #77, 0.09153543307086617342 ) ;
#227 = DIMENSIONAL_EXPONENTS ( 1.000000000000000000, 0.000000000000000000, 0.000000000000000000, 0.000000000000000000, 0.000000000000000000, 0.000000000000000000, 0.000000000000000000 ) ;
#228 = DIRECTION ( 'NONE',  ( 1.000000000000000000, 0.000000000000000000, 0.000000000000000000 ) ) ;
#229 = PRODUCT_DEFINITION_CONTEXT ( 'detailed design', #23, 'design' ) ;
#230 = DIRECTION ( 'NONE',  ( 0.000000000000000000, 1.000000000000000000, 0.000000000000000000 ) ) ;
#231 = CARTESIAN_POINT ( 'NONE',  ( 0.09153543307086615954, 0.6909448818897636624, 1.120985751188030137E-17 ) ) ;
#232 = FILL_AREA_STYLE ('',( #177 ) ) ;
#233 = EDGE_CURVE ( 'NONE', #283, #283, #111, .T. ) ;
#234 = EDGE_LOOP ( 'NONE', ( #183 ) ) ;
#235 = CARTESIAN_POINT ( 'NONE',  ( 2.091535433070866201, 0.6909448818897637734, 0.000000000000000000 ) ) ;
#236 = AXIS2_PLACEMENT_3D ( 'NONE', #223, #33, #206 ) ;
#237 = ORIENTED_EDGE ( 'NONE', *, *, #233, .F. ) ;
#238 = CARTESIAN_POINT ( 'NONE',  ( -0.09153543307086615954, 0.6909448818897636624, 0.000000000000000000 ) ) ;
#239 = FACE_OUTER_BOUND ( 'NONE', #313, .T. ) ;
#240 = PRESENTATION_STYLE_ASSIGNMENT (( #75 ) ) ;
#241 = CARTESIAN_POINT ( 'NONE',  ( 1.950066824661944143, 1.032480314960629642, 0.000000000000000000 ) ) ;
#242 = DIRECTION ( 'NONE',  ( 0.000000000000000000, -1.000000000000000000, 0.000000000000000000 ) ) ;
#243 = CARTESIAN_POINT ( 'NONE',  ( 2.091535433070865757, 0.6909448818897636624, -0.1830708661417322358 ) ) ;
#244 = AXIS2_PLACEMENT_3D ( 'NONE', #295, #14, #60 ) ;
#245 = PLANE ( 'NONE',  #21 ) ;
#246 = CARTESIAN_POINT ( 'NONE',  ( 0.000000000000000000, 0.000000000000000000, 0.000000000000000000 ) ) ;
#247 = FACE_OUTER_BOUND ( 'NONE', #255, .T. ) ;
#248 = CIRCLE ( 'NONE', #46, 0.09153543307086617342 ) ;
#249 = ORIENTED_EDGE ( 'NONE', *, *, #233, .T. ) ;
#250 = CARTESIAN_POINT ( 'NONE',  ( 2.000000000000000000, 0.6909448818897637734, 0.000000000000000000 ) ) ;
#251 = FACE_OUTER_BOUND ( 'NONE', #234, .T. ) ;
#252 = AXIS2_PLACEMENT_3D ( 'NONE', #201, #178, #298 ) ;
#253 = CARTESIAN_POINT ( 'NONE',  ( -0.09153543307086614567, 0.8910117065517085821, 0.1830708661417322636 ) ) ;
#254 = DIRECTION ( 'NONE',  ( -1.000000000000000000, 0.000000000000000000, 0.000000000000000000 ) ) ;
#255 = EDGE_LOOP ( 'NONE', ( #166 ) ) ;
#256 = CARTESIAN_POINT ( 'NONE',  ( 2.000000000000000000, 0.000000000000000000, 0.05200787401574780838 ) ) ;
#257 = CARTESIAN_POINT ( 'NONE',  ( 0.1571736058484924925, 0.8494094488188973502, -0.1830708661417322636 ) ) ;
#258 = AXIS2_PLACEMENT_3D ( 'NONE', #250, #143, #82 ) ;
#259 = EDGE_CURVE ( 'NONE', #126, #126, #288, .T. ) ;
#260 = VERTEX_POINT ( 'NONE', #189 ) ;
#261 = FACE_OUTER_BOUND ( 'NONE', #16, .T. ) ;
#262 = FILL_AREA_STYLE_COLOUR ( '', #310 ) ;
#263 = STYLED_ITEM ( 'NONE', ( #240 ), #101 ) ;
#264 = CARTESIAN_POINT ( 'NONE',  ( 1.749999999999999556, 0.8494094488188972392, -0.1830708661417322358 ) ) ;
#265 = AXIS2_PLACEMENT_3D ( 'NONE', #113, #40, #110 ) ;
#266 = CARTESIAN_POINT ( 'NONE',  ( 1.749999999999999556, 1.032480314960629642, -0.1830708661417322358 ) ) ;
#267 = EDGE_LOOP ( 'NONE', ( #102 ) ) ;
#268 = CYLINDRICAL_SURFACE ( 'NONE', #244, 0.09153543307086617342 ) ;
#269 = EDGE_CURVE ( 'NONE', #217, #217, #125, .T. ) ;
#270 = DIRECTION ( 'NONE',  ( 0.000000000000000000, -1.000000000000000000, 0.000000000000000000 ) ) ;
#271 = CARTESIAN_POINT ( 'NONE',  ( -0.09153543307086615954, 0.8910117065517085821, 0.000000000000000000 ) ) ;
#272 = EDGE_LOOP ( 'NONE', ( #207 ) ) ;
#273 = EDGE_CURVE ( 'NONE', #309, #309, #140, .T. ) ;
#274 =( NAMED_UNIT ( * ) SI_UNIT ( $, .STERADIAN. ) SOLID_ANGLE_UNIT ( ) );
#275 = STYLED_ITEM ( 'NONE', ( #88 ), #300 ) ;
#276 = EDGE_LOOP ( 'NONE', ( #220 ) ) ;
#277 = CARTESIAN_POINT ( 'NONE',  ( 1.750000000000000000, 0.9409448818897636624, 0.000000000000000000 ) ) ;
#278 = CARTESIAN_POINT ( 'NONE',  ( 0.04993317533805514269, 1.032480314960629642, 0.000000000000000000 ) ) ;
#279 = CYLINDRICAL_SURFACE ( 'NONE', #65, 0.09153543307086617342 ) ;
#280 = EDGE_CURVE ( 'NONE', #260, #260, #39, .T. ) ;
#281 = AXIS2_PLACEMENT_3D ( 'NONE', #160, #85, #159 ) ;
#282 = CARTESIAN_POINT ( 'NONE',  ( 1.842826394151507285, 0.8494094488188974612, 1.120985751188030137E-17 ) ) ;
#283 = VERTEX_POINT ( 'NONE', #98 ) ;
#284 = VERTEX_POINT ( 'NONE', #73 ) ;
#285 =( NAMED_UNIT ( * ) PLANE_ANGLE_UNIT ( ) SI_UNIT ( $, .RADIAN. ) );
#286 = APPLICATION_CONTEXT ( 'automotive_design' ) ;
#287 = CARTESIAN_POINT ( 'NONE',  ( 1.908464566929133799, 0.6909448818897636624, 0.1830708661417322358 ) ) ;
#288 = CIRCLE ( 'NONE', #97, 0.09153543307086615954 ) ;
#289 = ORIENTED_EDGE ( 'NONE', *, *, #53, .T. ) ;
#290 = APPLICATION_PROTOCOL_DEFINITION ( 'draft international standard', 'automotive_design', 1998, #23 ) ;
#291 = FACE_BOUND ( 'NONE', #161, .T. ) ;
#292 = DIRECTION ( 'NONE',  ( 0.000000000000000000, 0.000000000000000000, -1.000000000000000000 ) ) ;
#293 = EDGE_CURVE ( 'NONE', #123, #123, #163, .T. ) ;
#294 = FACE_OUTER_BOUND ( 'NONE', #276, .T. ) ;
#295 = CARTESIAN_POINT ( 'NONE',  ( 0.2500000000000000000, 0.9409448818897638844, 0.000000000000000000 ) ) ;
#296 = FACE_OUTER_BOUND ( 'NONE', #267, .T. ) ;
#297 = DIRECTION ( 'NONE',  ( 0.000000000000000000, 0.000000000000000000, 1.000000000000000000 ) ) ;
#298 = DIRECTION ( 'NONE',  ( 1.000000000000000000, -5.060845999999998932E-16, 0.000000000000000000 ) ) ;
#299 = CARTESIAN_POINT ( 'NONE',  ( 0.1571736058484924647, 0.8494094488188973502, 1.120985751188030137E-17 ) ) ;
#300 = MANIFOLD_SOLID_BREP ( 'Solid1', #151 ) ;
#301 = CARTESIAN_POINT ( 'NONE',  ( 0.2499999999999999167, 1.032480314960629642, 0.000000000000000000 ) ) ;
#302 = SURFACE_STYLE_USAGE ( .BOTH. , #4 ) ;
#303 = CIRCLE ( 'NONE', #31, 0.05200787401574786389 ) ;
#304 = EDGE_LOOP ( 'NONE', ( #216 ) ) ;
#305 = CARTESIAN_POINT ( 'NONE',  ( -0.09153543307086614567, 0.8910117065517085821, -0.1830708661417322636 ) ) ;
#306 = CARTESIAN_POINT ( 'NONE',  ( 0.2499999999999999722, 1.032480314960629642, 0.1830708661417322358 ) ) ;
#307 = CARTESIAN_POINT ( 'NONE',  ( 2.091535433070865757, 0.6909448818897636624, 0.1830708661417322358 ) ) ;
#308 = ORIENTED_EDGE ( 'NONE', *, *, #269, .F. ) ;
#309 = VERTEX_POINT ( 'NONE', #235 ) ;
#310 = COLOUR_RGB ( '',0.7490196078431372584, 0.7490196078431372584, 0.7490196078431372584 ) ;
#311 = CARTESIAN_POINT ( 'NONE',  ( 1.842826394151507285, 0.8494094488188973502, -0.1830708661417322636 ) ) ;
#312 =( NAMED_UNIT ( * ) PLANE_ANGLE_UNIT ( ) SI_UNIT ( $, .RADIAN. ) );
#313 = EDGE_LOOP ( 'NONE', ( #164 ) ) ;
#314 = VERTEX_POINT ( 'NONE', #122 ) ;
#315 = DIRECTION ( 'NONE',  ( 1.000000000000000000, -1.165588000000000087E-16, 0.000000000000000000 ) ) ;
#316 = AXIS2_PLACEMENT_3D ( 'NONE', #58, #3, #157 ) ;
#317 = DIRECTION ( 'NONE',  ( 0.000000000000000000, -0.000000000000000000, 1.000000000000000000 ) ) ;
ENDSEC;
END-ISO-10303-21;
