ISO-10303-21;
HEADER;
FILE_DESCRIPTION (( 'STEP AP214' ),
    '1' );
FILE_NAME ('1427P1BK.STEP',
    '2021-09-09T19:27:16',
    ( '' ),
    ( '' ),
    'SwSTEP 2.0',
    'SolidWorks 2021',
    '' );
FILE_SCHEMA (( 'AUTOMOTIVE_DESIGN' ));
ENDSEC;

DATA;
#1 =( NAMED_UNIT ( * ) PLANE_ANGLE_UNIT ( ) SI_UNIT ( $, .RADIAN. ) );
#2 = CARTESIAN_POINT ( 'NONE',  ( 0.1240157480314960370, 0.6279527559055118058, 0.2480314960629920740 ) ) ;
#3 = FACE_OUTER_BOUND ( 'NONE', #150, .T. ) ;
#4 = EDGE_LOOP ( 'NONE', ( #189 ) ) ;
#5 = CARTESIAN_POINT ( 'NONE',  ( -0.1240157480314960786, 0.6279527559055118058, 0.2480314960629920740 ) ) ;
#6 = CIRCLE ( 'NONE', #294, 0.05200787401574802349 ) ;
#7 = CARTESIAN_POINT ( 'NONE',  ( 0.03090664734426787005, 1.001968503937007648, 0.2480314960629921295 ) ) ;
#8 = CIRCLE ( 'NONE', #196, 0.1240157480314960647 ) ;
#9 = CARTESIAN_POINT ( 'NONE',  ( 2.768305951080928029, 1.001968503937007648, 0.000000000000000000 ) ) ;
#10 = ORIENTED_EDGE ( 'NONE', *, *, #77, .F. ) ;
#11 = CYLINDRICAL_SURFACE ( 'NONE', #155, 0.1240157480314960647 ) ;
#12 = CARTESIAN_POINT ( 'NONE',  ( 0.000000000000000000, 0.000000000000000000, 0.000000000000000000 ) ) ;
#13 = CARTESIAN_POINT ( 'NONE',  ( 2.549212598425196319, 0.8779527559055118058, 0.000000000000000000 ) ) ;
#14 = VERTEX_POINT ( 'NONE', #114 ) ;
#15 = CARTESIAN_POINT ( 'NONE',  ( 0.2500000000000000000, 0.8779527559055118058, 0.000000000000000000 ) ) ;
#16 = APPLICATION_PROTOCOL_DEFINITION ( 'draft international standard', 'automotive_design', 1998, #194 ) ;
#17 =( GEOMETRIC_REPRESENTATION_CONTEXT ( 3 ) GLOBAL_UNCERTAINTY_ASSIGNED_CONTEXT ( ( #232 ) ) GLOBAL_UNIT_ASSIGNED_CONTEXT ( ( #148, #1, #200 ) ) REPRESENTATION_CONTEXT ( 'NONE', 'WORKASPACE' ) );
#18 = FACE_OUTER_BOUND ( 'NONE', #226, .T. ) ;
#19 = EDGE_CURVE ( 'NONE', #290, #290, #267, .T. ) ;
#20 = DIRECTION ( 'NONE',  ( 0.000000000000000000, 0.000000000000000000, -1.000000000000000000 ) ) ;
#21 =( BOUNDED_SURFACE ( )  B_SPLINE_SURFACE ( 3, 3, ( 
 ( #304, #261, #160, #116 ),
 ( #85, #64, #131, #240 ),
 ( #213, #172, #243, #283 ),
 ( #220, #311, #186, #214 ),
 ( #91, #218, #89, #169 ),
 ( #263, #259, #191, #66 ),
 ( #287, #9, #69, #87 ) ),
 .UNSPECIFIED., .T., .F., .F. ) 
 B_SPLINE_SURFACE_WITH_KNOTS ( ( 4, 3, 4 ),
 ( 4, 4 ),
 ( 0.000000000000000000, 0.5000000000000000000, 1.000000000000000000 ),
 ( 0.000000000000000000, 1.000000000000000000 ),
 .UNSPECIFIED. ) 
 GEOMETRIC_REPRESENTATION_ITEM ( )  RATIONAL_B_SPLINE_SURFACE ( (
 ( 1.000000000000000000, 0.8047378541243649375, 0.8047378541243649375, 1.000000000000000000),
 ( 0.3333333333333333703, 0.2682459513747883495, 0.2682459513747883495, 0.3333333333333333703),
 ( 0.3333333333333333703, 0.2682459513747883495, 0.2682459513747883495, 0.3333333333333333703),
 ( 1.000000000000000000, 0.8047378541243649375, 0.8047378541243649375, 1.000000000000000000),
 ( 0.3333333333333333703, 0.2682459513747883495, 0.2682459513747883495, 0.3333333333333333703),
 ( 0.3333333333333333703, 0.2682459513747883495, 0.2682459513747883495, 0.3333333333333333703),
 ( 1.000000000000000000, 0.8047378541243649375, 0.8047378541243649375, 1.000000000000000000) ) ) 
 REPRESENTATION_ITEM ( '' )  SURFACE ( )  );
#22 = SURFACE_SIDE_STYLE ('',( #236 ) ) ;
#23 = AXIS2_PLACEMENT_3D ( 'NONE', #13, #37, #306 ) ;
#24 = PRODUCT_DEFINITION_SHAPE ( 'NONE', 'NONE',  #245 ) ;
#25 = EDGE_LOOP ( 'NONE', ( #209 ) ) ;
#26 = ORIENTED_EDGE ( 'NONE', *, *, #153, .T. ) ;
#27 = APPLICATION_CONTEXT ( 'automotive_design' ) ;
#28 = FACE_OUTER_BOUND ( 'NONE', #158, .T. ) ;
#29 = ORIENTED_EDGE ( 'NONE', *, *, #19, .F. ) ;
#30 = DIRECTION ( 'NONE',  ( -0.000000000000000000, 1.000000000000000000, -0.000000000000000000 ) ) ;
#31 = CARTESIAN_POINT ( 'NONE',  ( 0.2499999999999999722, 0.7539370078740156300, 0.2480314960629920740 ) ) ;
#32 = EDGE_CURVE ( 'NONE', #95, #95, #212, .T. ) ;
#33 = CIRCLE ( 'NONE', #188, 0.05200787401574814145 ) ;
#34 = FILL_AREA_STYLE_COLOUR ( '', #36 ) ;
#35 = CYLINDRICAL_SURFACE ( 'NONE', #57, 0.05200787401574802349 ) ;
#36 = COLOUR_RGB ( '',0.7490196078431372584, 0.7490196078431372584, 0.7490196078431372584 ) ;
#37 = DIRECTION ( 'NONE',  ( -1.000000000000000000, -0.000000000000000000, -0.000000000000000000 ) ) ;
#38 = FACE_OUTER_BOUND ( 'NONE', #120, .T. ) ;
#39 = EDGE_LOOP ( 'NONE', ( #151 ) ) ;
#40 = PRODUCT_RELATED_PRODUCT_CATEGORY ( 'part', '', ( #266 ) ) ;
#41 = DIRECTION ( 'NONE',  ( -0.000000000000000000, 1.000000000000000000, -0.000000000000000000 ) ) ;
#42 = EDGE_LOOP ( 'NONE', ( #125 ) ) ;
#43 = SURFACE_STYLE_USAGE ( .BOTH. , #264 ) ;
#44 = CARTESIAN_POINT ( 'NONE',  ( 2.799212598425196763, 0.6279527559055118058, 0.000000000000000000 ) ) ;
#45 = DIRECTION ( 'NONE',  ( 0.000000000000000000, -1.000000000000000000, 0.000000000000000000 ) ) ;
#46 = CARTESIAN_POINT ( 'NONE',  ( 2.799212598425196763, 0.000000000000000000, -7.452971151517734950E-18 ) ) ;
#47 = LENGTH_MEASURE_WITH_UNIT ( LENGTH_MEASURE( 0.02539999999999999897 ), #192 );
#48 = AXIS2_PLACEMENT_3D ( 'NONE', #46, #45, #251 ) ;
#49 = DIRECTION ( 'NONE',  ( 0.000000000000000000, 0.000000000000000000, -1.000000000000000000 ) ) ;
#50 = DIRECTION ( 'NONE',  ( -0.000000000000000000, 1.000000000000000000, -0.000000000000000000 ) ) ;
#51 = ADVANCED_FACE ( 'NONE', ( #134, #308 ), #21, .T. ) ;
#52 = PRODUCT_DEFINITION_FORMATION_WITH_SPECIFIED_SOURCE ( 'ANY', '', #266, .NOT_KNOWN. ) ;
#53 = AXIS2_PLACEMENT_3D ( 'NONE', #269, #224, #248 ) ;
#54 = FACE_OUTER_BOUND ( 'NONE', #184, .T. ) ;
#55 = PRODUCT_DEFINITION_CONTEXT ( 'detailed design', #194, 'design' ) ;
#56 = FACE_OUTER_BOUND ( 'NONE', #39, .T. ) ;
#57 = AXIS2_PLACEMENT_3D ( 'NONE', #65, #41, #129 ) ;
#58 = DIRECTION ( 'NONE',  ( 0.000000000000000000, -1.000000000000000000, 0.000000000000000000 ) ) ;
#59 = UNCERTAINTY_MEASURE_WITH_UNIT (LENGTH_MEASURE( 1.000000000000000082E-05 ), #112, 'distance_accuracy_value', 'NONE');
#60 = ORIENTED_EDGE ( 'NONE', *, *, #144, .F. ) ;
#61 = FACE_BOUND ( 'NONE', #181, .T. ) ;
#62 = CYLINDRICAL_SURFACE ( 'NONE', #201, 0.1240157480314960647 ) ;
#63 = DIRECTION ( 'NONE',  ( 0.000000000000000000, 0.000000000000000000, -1.000000000000000000 ) ) ;
#64 = CARTESIAN_POINT ( 'NONE',  ( 2.768305951080928029, 1.001968503937008093, 0.2480314960629921295 ) ) ;
#65 = CARTESIAN_POINT ( 'NONE',  ( 7.452971151517734950E-18, 0.000000000000000000, -7.452971151517734950E-18 ) ) ;
#66 = CARTESIAN_POINT ( 'NONE',  ( 2.923228346456691273, 0.6279527559055121388, -0.2480314960629920740 ) ) ;
#67 = DIRECTION ( 'NONE',  ( 0.000000000000000000, 0.000000000000000000, 1.000000000000000000 ) ) ;
#68 = CARTESIAN_POINT ( 'NONE',  ( 2.799212598425196763, 0.000000000000000000, 0.05200787401574809982 ) ) ;
#69 = CARTESIAN_POINT ( 'NONE',  ( 2.923228346456691717, 0.8470461085612436269, 0.000000000000000000 ) ) ;
#70 = VERTEX_POINT ( 'NONE', #173 ) ;
#71 = PRESENTATION_STYLE_ASSIGNMENT (( #316 ) ) ;
#72 = CARTESIAN_POINT ( 'NONE',  ( -0.05200787401574800961, 0.6250000000000000000, -6.368917322834647343E-18 ) ) ;
#73 = AXIS2_PLACEMENT_3D ( 'NONE', #113, #238, #67 ) ;
#74 = EDGE_CURVE ( 'NONE', #262, #262, #110, .T. ) ;
#75 = FACE_OUTER_BOUND ( 'NONE', #309, .T. ) ;
#76 = CIRCLE ( 'NONE', #48, 0.05200787401574810676 ) ;
#77 = EDGE_CURVE ( 'NONE', #221, #221, #8, .T. ) ;
#78 = MECHANICAL_DESIGN_GEOMETRIC_PRESENTATION_REPRESENTATION (  '', ( #313 ), #270 ) ;
#79 = CARTESIAN_POINT ( 'NONE',  ( 0.03090664734426788046, 1.001968503937007648, 0.000000000000000000 ) ) ;
#80 = CARTESIAN_POINT ( 'NONE',  ( 0.1240157480314961064, 0.6279527559055118058, -0.2480314960629920740 ) ) ;
#81 = EDGE_CURVE ( 'NONE', #14, #14, #296, .T. ) ;
#82 = DIRECTION ( 'NONE',  ( 0.000000000000000000, 1.000000000000000000, 0.000000000000000000 ) ) ;
#83 = CLOSED_SHELL ( 'NONE', ( #163, #203, #51, #94, #315, #217, #198, #288, #276, #250, #253 ) ) ;
#84 = ORIENTED_EDGE ( 'NONE', *, *, #153, .F. ) ;
#85 = CARTESIAN_POINT ( 'NONE',  ( 2.549212598425195875, 1.001968503937007648, 0.2480314960629920740 ) ) ;
#86 = VERTEX_POINT ( 'NONE', #68 ) ;
#87 = CARTESIAN_POINT ( 'NONE',  ( 2.923228346456691717, 0.6279527559055120278, 0.000000000000000000 ) ) ;
#88 =( NAMED_UNIT ( * ) PLANE_ANGLE_UNIT ( ) SI_UNIT ( $, .RADIAN. ) );
#89 = CARTESIAN_POINT ( 'NONE',  ( 2.675196850393699588, 0.7017526220632318568, -0.2480314960629921295 ) ) ;
#90 = SURFACE_STYLE_FILL_AREA ( #310 ) ;
#91 = CARTESIAN_POINT ( 'NONE',  ( 2.549212598425195875, 0.7539370078740156300, -0.2480314960629920740 ) ) ;
#92 = MANIFOLD_SOLID_BREP ( 'Solid1', #83 ) ;
#93 = DIRECTION ( 'NONE',  ( 0.000000000000000000, 0.000000000000000000, 1.000000000000000000 ) ) ;
#94 = ADVANCED_FACE ( 'NONE', ( #75, #314 ), #62, .T. ) ;
#95 = VERTEX_POINT ( 'NONE', #165 ) ;
#96 = CYLINDRICAL_SURFACE ( 'NONE', #265, 0.1240157480314960647 ) ;
#97 = PRODUCT_CONTEXT ( 'NONE', #27, 'mechanical' ) ;
#98 = FACE_OUTER_BOUND ( 'NONE', #252, .T. ) ;
#99 = CARTESIAN_POINT ( 'NONE',  ( -0.1240157480314960509, 0.8470461085612440710, 0.000000000000000000 ) ) ;
#100 = CONICAL_SURFACE ( 'NONE', #247, 0.05200787401574796104, 1.029744258676654978 ) ;
#101 = DIMENSIONAL_EXPONENTS ( 1.000000000000000000, 0.000000000000000000, 0.000000000000000000, 0.000000000000000000, 0.000000000000000000, 0.000000000000000000, 0.000000000000000000 ) ;
#102 = CARTESIAN_POINT ( 'NONE',  ( 0.2499999999999999167, 1.001968503937007648, 0.000000000000000000 ) ) ;
#103 = ORIENTED_EDGE ( 'NONE', *, *, #74, .T. ) ;
#104 = CARTESIAN_POINT ( 'NONE',  ( 0.1762001338422797270, 0.7539370078740154080, 0.2480314960629921295 ) ) ;
#105 = EDGE_LOOP ( 'NONE', ( #207 ) ) ;
#106 = CARTESIAN_POINT ( 'NONE',  ( 0.1762001338422797270, 0.7539370078740154080, -0.2480314960629921295 ) ) ;
#107 = AXIS2_PLACEMENT_3D ( 'NONE', #197, #50, #49 ) ;
#108 = DIRECTION ( 'NONE',  ( 0.000000000000000000, 1.000000000000000000, 0.000000000000000000 ) ) ;
#109 = CARTESIAN_POINT ( 'NONE',  ( 0.1240157480314961203, 0.7017526220632318568, -0.2480314960629921295 ) ) ;
#110 = CIRCLE ( 'NONE', #291, 0.1240157480314960647 ) ;
#111 = DIRECTION ( 'NONE',  ( 0.000000000000000000, 0.000000000000000000, 1.000000000000000000 ) ) ;
#112 =( CONVERSION_BASED_UNIT ( 'INCH', #260 ) LENGTH_UNIT ( ) NAMED_UNIT ( #178 ) );
#113 = CARTESIAN_POINT ( 'NONE',  ( 7.452971151517734950E-18, 0.000000000000000000, -7.452971151517734950E-18 ) ) ;
#114 = CARTESIAN_POINT ( 'NONE',  ( 0.2500000000000000000, 0.8779527559055118058, -0.1240157480314960647 ) ) ;
#115 = CARTESIAN_POINT ( 'NONE',  ( 0.000000000000000000, 0.6279527559055118058, 0.000000000000000000 ) ) ;
#116 = CARTESIAN_POINT ( 'NONE',  ( 2.923228346456691717, 0.6279527559055120278, 0.000000000000000000 ) ) ;
#117 = VERTEX_POINT ( 'NONE', #72 ) ;
#118 = EDGE_CURVE ( 'NONE', #284, #284, #33, .T. ) ;
#119 = DIRECTION ( 'NONE',  ( 0.000000000000000000, 1.000000000000000000, 0.000000000000000000 ) ) ;
#120 = EDGE_LOOP ( 'NONE', ( #84 ) ) ;
#121 = CARTESIAN_POINT ( 'NONE',  ( 0.2499999999999999722, 1.001968503937007648, 0.2480314960629920740 ) ) ;
#122 = CYLINDRICAL_SURFACE ( 'NONE', #216, 0.05200787401574810676 ) ;
#123 = EDGE_LOOP ( 'NONE', ( #234 ) ) ;
#124 = CARTESIAN_POINT ( 'NONE',  ( 0.2499999999999999167, 0.7539370078740155190, 1.518754888706363392E-17 ) ) ;
#125 = ORIENTED_EDGE ( 'NONE', *, *, #130, .F. ) ;
#126 = FACE_OUTER_BOUND ( 'NONE', #4, .T. ) ;
#127 = EDGE_LOOP ( 'NONE', ( #297 ) ) ;
#128 = FILL_AREA_STYLE ('',( #34 ) ) ;
#129 = DIRECTION ( 'NONE',  ( 0.000000000000000000, 0.000000000000000000, 1.000000000000000000 ) ) ;
#130 = EDGE_CURVE ( 'NONE', #86, #86, #76, .T. ) ;
#131 = CARTESIAN_POINT ( 'NONE',  ( 2.923228346456692162, 0.8470461085612437380, 0.2480314960629921295 ) ) ;
#132 = DIRECTION ( 'NONE',  ( 0.000000000000000000, 0.000000000000000000, -1.000000000000000000 ) ) ;
#133 = CARTESIAN_POINT ( 'NONE',  ( 0.000000000000000000, 0.000000000000000000, 0.1240157480314960647 ) ) ;
#134 = FACE_OUTER_BOUND ( 'NONE', #241, .T. ) ;
#135 = EDGE_CURVE ( 'NONE', #117, #117, #6, .T. ) ;
#136 = DIRECTION ( 'NONE',  ( 0.000000000000000000, 1.000000000000000000, 0.000000000000000000 ) ) ;
#137 = DIRECTION ( 'NONE',  ( 0.000000000000000000, -1.000000000000000000, 0.000000000000000000 ) ) ;
#138 =( CONVERSION_BASED_UNIT ( 'INCH', #174 ) LENGTH_UNIT ( ) NAMED_UNIT ( #271 ) );
#139 = AXIS2_PLACEMENT_3D ( 'NONE', #206, #161, #180 ) ;
#140 = CARTESIAN_POINT ( 'NONE',  ( 7.452971151517734950E-18, 0.6250000000000000000, -7.452971151517734950E-18 ) ) ;
#141 = SHAPE_DEFINITION_REPRESENTATION ( #24, #268 ) ;
#142 =( BOUNDED_SURFACE ( )  B_SPLINE_SURFACE ( 3, 3, ( 
 ( #233, #185, #79, #102 ),
 ( #5, #152, #7, #121 ),
 ( #2, #303, #104, #31 ),
 ( #208, #231, #300, #124 ),
 ( #80, #109, #106, #183 ),
 ( #210, #277, #235, #280 ),
 ( #227, #99, #182, #278 ) ),
 .UNSPECIFIED., .T., .F., .T. ) 
 B_SPLINE_SURFACE_WITH_KNOTS ( ( 4, 3, 4 ),
 ( 4, 4 ),
 ( 0.000000000000000000, 0.5000000000000000000, 1.000000000000000000 ),
 ( 0.000000000000000000, 1.000000000000000000 ),
 .UNSPECIFIED. ) 
 GEOMETRIC_REPRESENTATION_ITEM ( )  RATIONAL_B_SPLINE_SURFACE ( (
 ( 1.000000000000000000, 0.8047378541243649375, 0.8047378541243649375, 1.000000000000000000),
 ( 0.3333333333333333703, 0.2682459513747883495, 0.2682459513747883495, 0.3333333333333333703),
 ( 0.3333333333333333703, 0.2682459513747883495, 0.2682459513747883495, 0.3333333333333333703),
 ( 1.000000000000000000, 0.8047378541243649375, 0.8047378541243649375, 1.000000000000000000),
 ( 0.3333333333333333703, 0.2682459513747883495, 0.2682459513747883495, 0.3333333333333333703),
 ( 0.3333333333333333703, 0.2682459513747883495, 0.2682459513747883495, 0.3333333333333333703),
 ( 1.000000000000000000, 0.8047378541243649375, 0.8047378541243649375, 1.000000000000000000) ) ) 
 REPRESENTATION_ITEM ( '' )  SURFACE ( )  );
#143 = FACE_OUTER_BOUND ( 'NONE', #25, .T. ) ;
#144 = EDGE_CURVE ( 'NONE', #170, #170, #193, .T. ) ;
#145 = DIRECTION ( 'NONE',  ( 1.000000000000000000, 0.000000000000000000, 0.000000000000000000 ) ) ;
#146 = CARTESIAN_POINT ( 'NONE',  ( 0.000000000000000000, 0.000000000000000000, 0.000000000000000000 ) ) ;
#147 =( LENGTH_UNIT ( ) NAMED_UNIT ( * ) SI_UNIT ( $, .METRE. ) );
#148 =( CONVERSION_BASED_UNIT ( 'INCH', #47 ) LENGTH_UNIT ( ) NAMED_UNIT ( #101 ) );
#149 = AXIS2_PLACEMENT_3D ( 'NONE', #146, #293, #145 ) ;
#150 = EDGE_LOOP ( 'NONE', ( #274 ) ) ;
#151 = ORIENTED_EDGE ( 'NONE', *, *, #118, .T. ) ;
#152 = CARTESIAN_POINT ( 'NONE',  ( -0.1240157480314960647, 0.8470461085612440710, 0.2480314960629921295 ) ) ;
#153 = EDGE_CURVE ( 'NONE', #70, #70, #317, .T. ) ;
#154 = FACE_OUTER_BOUND ( 'NONE', #204, .T. ) ;
#155 = AXIS2_PLACEMENT_3D ( 'NONE', #44, #137, #132 ) ;
#156 = EDGE_LOOP ( 'NONE', ( #10 ) ) ;
#157 = CARTESIAN_POINT ( 'NONE',  ( 2.799212598425196763, 0.000000000000000000, -7.452971151517734950E-18 ) ) ;
#158 = EDGE_LOOP ( 'NONE', ( #302 ) ) ;
#159 = CARTESIAN_POINT ( 'NONE',  ( 0.000000000000000000, 0.000000000000000000, 0.000000000000000000 ) ) ;
#160 = CARTESIAN_POINT ( 'NONE',  ( 2.923228346456691717, 0.8470461085612436269, 0.000000000000000000 ) ) ;
#161 = DIRECTION ( 'NONE',  ( 0.000000000000000000, -1.000000000000000000, 0.000000000000000000 ) ) ;
#162 = MECHANICAL_DESIGN_GEOMETRIC_PRESENTATION_REPRESENTATION (  '', ( #171 ), #17 ) ;
#163 = ADVANCED_FACE ( 'NONE', ( #143, #18 ), #96, .T. ) ;
#164 = DIRECTION ( 'NONE',  ( 1.000000000000000000, 0.000000000000000000, 0.000000000000000000 ) ) ;
#165 = CARTESIAN_POINT ( 'NONE',  ( 7.452971151517734950E-18, 0.000000000000000000, 0.05200787401574800961 ) ) ;
#166 = UNCERTAINTY_MEASURE_WITH_UNIT (LENGTH_MEASURE( 1.000000000000000082E-05 ), #138, 'distance_accuracy_value', 'NONE');
#167 = CARTESIAN_POINT ( 'NONE',  ( 0.2500000000000000000, 0.8779527559055118058, 0.000000000000000000 ) ) ;
#168 =( NAMED_UNIT ( * ) SI_UNIT ( $, .STERADIAN. ) SOLID_ANGLE_UNIT ( ) );
#169 = CARTESIAN_POINT ( 'NONE',  ( 2.675196850393699588, 0.6279527559055121388, -0.2480314960629920740 ) ) ;
#170 = VERTEX_POINT ( 'NONE', #215 ) ;
#171 = STYLED_ITEM ( 'NONE', ( #242 ), #268 ) ;
#172 = CARTESIAN_POINT ( 'NONE',  ( 2.623012464582915815, 0.7539370078740157410, 0.2480314960629921295 ) ) ;
#173 = CARTESIAN_POINT ( 'NONE',  ( 2.923228346456693050, 0.6279527559055118058, 0.000000000000000000 ) ) ;
#174 = LENGTH_MEASURE_WITH_UNIT ( LENGTH_MEASURE( 0.02539999999999999897 ), #147 );
#175 = DIRECTION ( 'NONE',  ( 0.000000000000000000, -1.000000000000000000, 0.000000000000000000 ) ) ;
#176 = FACE_OUTER_BOUND ( 'NONE', #127, .T. ) ;
#177 = PRESENTATION_LAYER_ASSIGNMENT (  '', '', ( #313 ) ) ;
#178 = DIMENSIONAL_EXPONENTS ( 1.000000000000000000, 0.000000000000000000, 0.000000000000000000, 0.000000000000000000, 0.000000000000000000, 0.000000000000000000, 0.000000000000000000 ) ;
#179 = EDGE_LOOP ( 'NONE', ( #230 ) ) ;
#180 = DIRECTION ( 'NONE',  ( 0.000000000000000000, 0.000000000000000000, -1.000000000000000000 ) ) ;
#181 = EDGE_LOOP ( 'NONE', ( #299 ) ) ;
#182 = CARTESIAN_POINT ( 'NONE',  ( 0.03090664734426788046, 1.001968503937007648, 0.000000000000000000 ) ) ;
#183 = CARTESIAN_POINT ( 'NONE',  ( 0.2499999999999999722, 0.7539370078740156300, -0.2480314960629920740 ) ) ;
#184 = EDGE_LOOP ( 'NONE', ( #285 ) ) ;
#185 = CARTESIAN_POINT ( 'NONE',  ( -0.1240157480314960509, 0.8470461085612440710, 0.000000000000000000 ) ) ;
#186 = CARTESIAN_POINT ( 'NONE',  ( 2.675196850393699588, 0.7017526220632318568, 1.518754888706363084E-17 ) ) ;
#187 = FACE_OUTER_BOUND ( 'NONE', #105, .T. ) ;
#188 = AXIS2_PLACEMENT_3D ( 'NONE', #195, #175, #223 ) ;
#189 = ORIENTED_EDGE ( 'NONE', *, *, #32, .F. ) ;
#190 = EDGE_LOOP ( 'NONE', ( #26 ) ) ;
#191 = CARTESIAN_POINT ( 'NONE',  ( 2.923228346456692162, 0.8470461085612437380, -0.2480314960629921295 ) ) ;
#192 =( LENGTH_UNIT ( ) NAMED_UNIT ( * ) SI_UNIT ( $, .METRE. ) );
#193 = CIRCLE ( 'NONE', #107, 0.1240157480314960647 ) ;
#194 = APPLICATION_CONTEXT ( 'automotive_design' ) ;
#195 = CARTESIAN_POINT ( 'NONE',  ( 2.799212598425196763, 0.6250000000000000000, -7.452971151517734950E-18 ) ) ;
#196 = AXIS2_PLACEMENT_3D ( 'NONE', #115, #108, #282 ) ;
#197 = CARTESIAN_POINT ( 'NONE',  ( 2.799212598425196763, 0.000000000000000000, 0.000000000000000000 ) ) ;
#198 = ADVANCED_FACE ( 'NONE', ( #225, #98 ), #292, .F. ) ;
#199 =( NAMED_UNIT ( * ) SI_UNIT ( $, .STERADIAN. ) SOLID_ANGLE_UNIT ( ) );
#200 =( NAMED_UNIT ( * ) SI_UNIT ( $, .STERADIAN. ) SOLID_ANGLE_UNIT ( ) );
#201 = AXIS2_PLACEMENT_3D ( 'NONE', #246, #119, #93 ) ;
#202 = DIRECTION ( 'NONE',  ( -1.000000000000000000, 0.000000000000000000, 2.084403273925089809E-17 ) ) ;
#203 = ADVANCED_FACE ( 'NONE', ( #3, #273 ), #142, .T. ) ;
#204 = EDGE_LOOP ( 'NONE', ( #256 ) ) ;
#205 = DIRECTION ( 'NONE',  ( 0.000000000000000000, -1.000000000000000000, 0.000000000000000000 ) ) ;
#206 = CARTESIAN_POINT ( 'NONE',  ( 2.799212598425196763, 0.6250000000000000000, -7.452971151517734950E-18 ) ) ;
#207 = ORIENTED_EDGE ( 'NONE', *, *, #144, .T. ) ;
#208 = CARTESIAN_POINT ( 'NONE',  ( 0.1240157480314960647, 0.6279527559055118058, 1.518754888706363392E-17 ) ) ;
#209 = ORIENTED_EDGE ( 'NONE', *, *, #81, .T. ) ;
#210 = CARTESIAN_POINT ( 'NONE',  ( -0.1240157480314960786, 0.6279527559055118058, -0.2480314960629920740 ) ) ;
#211 = CARTESIAN_POINT ( 'NONE',  ( 7.452971151517734950E-18, 0.6250000000000000000, -7.452971151517734950E-18 ) ) ;
#212 = CIRCLE ( 'NONE', #73, 0.05200787401574802349 ) ;
#213 = CARTESIAN_POINT ( 'NONE',  ( 2.549212598425195875, 0.7539370078740156300, 0.2480314960629920740 ) ) ;
#214 = CARTESIAN_POINT ( 'NONE',  ( 2.675196850393699588, 0.6279527559055120278, 1.518754888706363392E-17 ) ) ;
#215 = CARTESIAN_POINT ( 'NONE',  ( 2.799212598425196763, 0.000000000000000000, -0.1240157480314960647 ) ) ;
#216 = AXIS2_PLACEMENT_3D ( 'NONE', #157, #30, #275 ) ;
#217 = ADVANCED_FACE ( 'NONE', ( #61, #176 ), #305, .T. ) ;
#218 = CARTESIAN_POINT ( 'NONE',  ( 2.623012464582915815, 0.7539370078740157410, -0.2480314960629921295 ) ) ;
#219 = FILL_AREA_STYLE_COLOUR ( '', #301 ) ;
#220 = CARTESIAN_POINT ( 'NONE',  ( 2.549212598425195875, 0.7539370078740155190, 1.518754888706363392E-17 ) ) ;
#221 = VERTEX_POINT ( 'NONE', #239 ) ;
#222 =( NAMED_UNIT ( * ) PLANE_ANGLE_UNIT ( ) SI_UNIT ( $, .RADIAN. ) );
#223 = DIRECTION ( 'NONE',  ( -1.000000000000000000, 0.000000000000000000, 2.084403273925084878E-17 ) ) ;
#224 = DIRECTION ( 'NONE',  ( -1.224646799147353207E-16, 1.000000000000000000, -0.000000000000000000 ) ) ;
#225 = FACE_BOUND ( 'NONE', #42, .T. ) ;
#226 = EDGE_LOOP ( 'NONE', ( #257 ) ) ;
#227 = CARTESIAN_POINT ( 'NONE',  ( -0.1240157480314960647, 0.6279527559055118058, 0.000000000000000000 ) ) ;
#228 = CONICAL_SURFACE ( 'NONE', #139, 0.05200787401574814145, 1.029744258676656532 ) ;
#229 = CARTESIAN_POINT ( 'NONE',  ( 2.799212598425196763, 0.000000000000000000, 0.000000000000000000 ) ) ;
#230 = ORIENTED_EDGE ( 'NONE', *, *, #81, .F. ) ;
#231 = CARTESIAN_POINT ( 'NONE',  ( 0.1240157480314960509, 0.7017526220632321898, 1.518754888706363084E-17 ) ) ;
#232 = UNCERTAINTY_MEASURE_WITH_UNIT (LENGTH_MEASURE( 1.000000000000000082E-05 ), #148, 'distance_accuracy_value', 'NONE');
#233 = CARTESIAN_POINT ( 'NONE',  ( -0.1240157480314960647, 0.6279527559055118058, 0.000000000000000000 ) ) ;
#234 = ORIENTED_EDGE ( 'NONE', *, *, #135, .T. ) ;
#235 = CARTESIAN_POINT ( 'NONE',  ( 0.03090664734426787005, 1.001968503937007648, -0.2480314960629921295 ) ) ;
#236 = SURFACE_STYLE_FILL_AREA ( #128 ) ;
#237 = CARTESIAN_POINT ( 'NONE',  ( 2.747204724409448851, 0.6250000000000000000, -6.368917322834647343E-18 ) ) ;
#238 = DIRECTION ( 'NONE',  ( -0.000000000000000000, 1.000000000000000000, -0.000000000000000000 ) ) ;
#239 = CARTESIAN_POINT ( 'NONE',  ( -0.1240157480314960647, 0.6279527559055118058, 0.000000000000000000 ) ) ;
#240 = CARTESIAN_POINT ( 'NONE',  ( 2.923228346456691273, 0.6279527559055121388, 0.2480314960629920740 ) ) ;
#241 = EDGE_LOOP ( 'NONE', ( #29 ) ) ;
#242 = PRESENTATION_STYLE_ASSIGNMENT (( #43 ) ) ;
#243 = CARTESIAN_POINT ( 'NONE',  ( 2.675196850393699588, 0.7017526220632318568, 0.2480314960629921295 ) ) ;
#244 =( LENGTH_UNIT ( ) NAMED_UNIT ( * ) SI_UNIT ( $, .METRE. ) );
#245 = PRODUCT_DEFINITION ( 'UNKNOWN', '', #52, #55 ) ;
#246 = CARTESIAN_POINT ( 'NONE',  ( 0.000000000000000000, 0.000000000000000000, 0.000000000000000000 ) ) ;
#247 = AXIS2_PLACEMENT_3D ( 'NONE', #211, #58, #63 ) ;
#248 = DIRECTION ( 'NONE',  ( 1.000000000000000000, 0.000000000000000000, 0.000000000000000000 ) ) ;
#249 = DIRECTION ( 'NONE',  ( 1.000000000000000000, 0.000000000000000000, 0.000000000000000000 ) ) ;
#250 = ADVANCED_FACE ( 'NONE', ( #254 ), #100, .F. ) ;
#251 = DIRECTION ( 'NONE',  ( 0.000000000000000000, 0.000000000000000000, 1.000000000000000000 ) ) ;
#252 = EDGE_LOOP ( 'NONE', ( #60 ) ) ;
#253 = ADVANCED_FACE ( 'NONE', ( #56 ), #228, .F. ) ;
#254 = FACE_OUTER_BOUND ( 'NONE', #123, .T. ) ;
#255 =( GEOMETRIC_REPRESENTATION_CONTEXT ( 3 ) GLOBAL_UNCERTAINTY_ASSIGNED_CONTEXT ( ( #59 ) ) GLOBAL_UNIT_ASSIGNED_CONTEXT ( ( #112, #88, #168 ) ) REPRESENTATION_CONTEXT ( 'NONE', 'WORKASPACE' ) );
#256 = ORIENTED_EDGE ( 'NONE', *, *, #135, .F. ) ;
#257 = ORIENTED_EDGE ( 'NONE', *, *, #19, .T. ) ;
#258 = AXIS2_PLACEMENT_3D ( 'NONE', #159, #205, #295 ) ;
#259 = CARTESIAN_POINT ( 'NONE',  ( 2.768305951080928029, 1.001968503937008093, -0.2480314960629921295 ) ) ;
#260 = LENGTH_MEASURE_WITH_UNIT ( LENGTH_MEASURE( 0.02539999999999999897 ), #244 );
#261 = CARTESIAN_POINT ( 'NONE',  ( 2.768305951080928029, 1.001968503937007648, 0.000000000000000000 ) ) ;
#262 = VERTEX_POINT ( 'NONE', #133 ) ;
#263 = CARTESIAN_POINT ( 'NONE',  ( 2.549212598425195875, 1.001968503937007648, -0.2480314960629920740 ) ) ;
#264 = SURFACE_SIDE_STYLE ('',( #90 ) ) ;
#265 = AXIS2_PLACEMENT_3D ( 'NONE', #15, #249, #20 ) ;
#266 = PRODUCT ( '1427P1BK', '1427P1BK', '', ( #97 ) ) ;
#267 = CIRCLE ( 'NONE', #23, 0.1240157480314960647 ) ;
#268 = ADVANCED_BREP_SHAPE_REPRESENTATION ( '1427P1BK', ( #92, #149 ), #255 ) ;
#269 = CARTESIAN_POINT ( 'NONE',  ( 2.799212598425196763, 0.6279527559055118058, 0.000000000000000000 ) ) ;
#270 =( GEOMETRIC_REPRESENTATION_CONTEXT ( 3 ) GLOBAL_UNCERTAINTY_ASSIGNED_CONTEXT ( ( #166 ) ) GLOBAL_UNIT_ASSIGNED_CONTEXT ( ( #138, #222, #199 ) ) REPRESENTATION_CONTEXT ( 'NONE', 'WORKASPACE' ) );
#271 = DIMENSIONAL_EXPONENTS ( 1.000000000000000000, 0.000000000000000000, 0.000000000000000000, 0.000000000000000000, 0.000000000000000000, 0.000000000000000000, 0.000000000000000000 ) ;
#272 = AXIS2_PLACEMENT_3D ( 'NONE', #167, #164, #279 ) ;
#273 = FACE_OUTER_BOUND ( 'NONE', #179, .T. ) ;
#274 = ORIENTED_EDGE ( 'NONE', *, *, #77, .T. ) ;
#275 = DIRECTION ( 'NONE',  ( 0.000000000000000000, 0.000000000000000000, 1.000000000000000000 ) ) ;
#276 = ADVANCED_FACE ( 'NONE', ( #54, #28 ), #122, .F. ) ;
#277 = CARTESIAN_POINT ( 'NONE',  ( -0.1240157480314960647, 0.8470461085612440710, -0.2480314960629921295 ) ) ;
#278 = CARTESIAN_POINT ( 'NONE',  ( 0.2499999999999999167, 1.001968503937007648, 0.000000000000000000 ) ) ;
#279 = DIRECTION ( 'NONE',  ( 0.000000000000000000, 0.000000000000000000, -1.000000000000000000 ) ) ;
#280 = CARTESIAN_POINT ( 'NONE',  ( 0.2499999999999999722, 1.001968503937007648, -0.2480314960629920740 ) ) ;
#281 = AXIS2_PLACEMENT_3D ( 'NONE', #229, #82, #298 ) ;
#282 = DIRECTION ( 'NONE',  ( -1.000000000000000000, 0.000000000000000000, 0.000000000000000000 ) ) ;
#283 = CARTESIAN_POINT ( 'NONE',  ( 2.675196850393699588, 0.6279527559055121388, 0.2480314960629920740 ) ) ;
#284 = VERTEX_POINT ( 'NONE', #237 ) ;
#285 = ORIENTED_EDGE ( 'NONE', *, *, #118, .F. ) ;
#286 = APPLICATION_PROTOCOL_DEFINITION ( 'draft international standard', 'automotive_design', 1998, #27 ) ;
#287 = CARTESIAN_POINT ( 'NONE',  ( 2.549212598425195875, 1.001968503937007648, 0.000000000000000000 ) ) ;
#288 = ADVANCED_FACE ( 'NONE', ( #154, #126 ), #35, .F. ) ;
#289 = PRESENTATION_LAYER_ASSIGNMENT (  '', '', ( #171 ) ) ;
#290 = VERTEX_POINT ( 'NONE', #307 ) ;
#291 = AXIS2_PLACEMENT_3D ( 'NONE', #12, #136, #111 ) ;
#292 = PLANE ( 'NONE',  #281 ) ;
#293 = DIRECTION ( 'NONE',  ( 0.000000000000000000, 0.000000000000000000, 1.000000000000000000 ) ) ;
#294 = AXIS2_PLACEMENT_3D ( 'NONE', #140, #312, #202 ) ;
#295 = DIRECTION ( 'NONE',  ( 0.000000000000000000, -0.000000000000000000, -1.000000000000000000 ) ) ;
#296 = CIRCLE ( 'NONE', #272, 0.1240157480314960647 ) ;
#297 = ORIENTED_EDGE ( 'NONE', *, *, #74, .F. ) ;
#298 = DIRECTION ( 'NONE',  ( 0.000000000000000000, -0.000000000000000000, 1.000000000000000000 ) ) ;
#299 = ORIENTED_EDGE ( 'NONE', *, *, #32, .T. ) ;
#300 = CARTESIAN_POINT ( 'NONE',  ( 0.1762001338422797270, 0.7539370078740155190, 1.518754888706363084E-17 ) ) ;
#301 = COLOUR_RGB ( '',0.7490196078431372584, 0.7490196078431372584, 0.7490196078431372584 ) ;
#302 = ORIENTED_EDGE ( 'NONE', *, *, #130, .T. ) ;
#303 = CARTESIAN_POINT ( 'NONE',  ( 0.1240157480314960647, 0.7017526220632318568, 0.2480314960629921295 ) ) ;
#304 = CARTESIAN_POINT ( 'NONE',  ( 2.549212598425195875, 1.001968503937007648, 0.000000000000000000 ) ) ;
#305 = PLANE ( 'NONE',  #258 ) ;
#306 = DIRECTION ( 'NONE',  ( 0.000000000000000000, 0.000000000000000000, -1.000000000000000000 ) ) ;
#307 = CARTESIAN_POINT ( 'NONE',  ( 2.549212598425196319, 0.8779527559055118058, -0.1240157480314960647 ) ) ;
#308 = FACE_OUTER_BOUND ( 'NONE', #190, .T. ) ;
#309 = EDGE_LOOP ( 'NONE', ( #103 ) ) ;
#310 = FILL_AREA_STYLE ('',( #219 ) ) ;
#311 = CARTESIAN_POINT ( 'NONE',  ( 2.623012464582916259, 0.7539370078740158521, 1.518754888706363084E-17 ) ) ;
#312 = DIRECTION ( 'NONE',  ( 0.000000000000000000, -1.000000000000000000, 0.000000000000000000 ) ) ;
#313 = STYLED_ITEM ( 'NONE', ( #71 ), #92 ) ;
#314 = FACE_OUTER_BOUND ( 'NONE', #156, .T. ) ;
#315 = ADVANCED_FACE ( 'NONE', ( #38, #187 ), #11, .T. ) ;
#316 = SURFACE_STYLE_USAGE ( .BOTH. , #22 ) ;
#317 = CIRCLE ( 'NONE', #53, 0.1240157480314960647 ) ;
ENDSEC;
END-ISO-10303-21;
