ISO-10303-21;
HEADER;
FILE_DESCRIPTION (( 'STEP AP214' ),
    '1' );
FILE_NAME ('14A0503.STEP',
    '2019-08-30T20:46:00',
    ( '' ),
    ( '' ),
    'SwSTEP 2.0',
    'SolidWorks 2018',
    '' );
FILE_SCHEMA (( 'AUTOMOTIVE_DESIGN' ));
ENDSEC;

DATA;
#1 = CIRCLE ( 'NONE', #79, 0.1325000000000000344 ) ;
#2 = DIRECTION ( 'NONE',  ( -0.0000000000000000000, -0.0000000000000000000, -1.000000000000000000 ) ) ;
#3 = CARTESIAN_POINT ( 'NONE',  ( 1.125499999999999945, -2.125500000000000167, -5.560499094602868730 ) ) ;
#4 = EDGE_CURVE ( 'NONE', #270, #270, #1, .T. ) ;
#5 = VECTOR ( 'NONE', #61, 39.37007874015748143 ) ;
#6 = UNCERTAINTY_MEASURE_WITH_UNIT (LENGTH_MEASURE( 1.000000000000000082E-05 ), #13, 'distance_accuracy_value', 'NONE');
#7 = CARTESIAN_POINT ( 'NONE',  ( 1.125499999999999945, 2.125500000000000167, 0.0000000000000000000 ) ) ;
#8 = EDGE_LOOP ( 'NONE', ( #242 ) ) ;
#9 = CLOSED_SHELL ( 'NONE', ( #47, #28, #149, #210, #323, #346, #102, #127, #72, #106 ) ) ;
#10 = EDGE_LOOP ( 'NONE', ( #339, #20, #290, #298 ) ) ;
#11 = SURFACE_STYLE_USAGE ( .BOTH. , #165 ) ;
#12 = DIRECTION ( 'NONE',  ( -0.0000000000000000000, -0.0000000000000000000, -1.000000000000000000 ) ) ;
#13 =( CONVERSION_BASED_UNIT ( 'INCH', #74 ) LENGTH_UNIT ( ) NAMED_UNIT ( #294 ) );
#14 = CARTESIAN_POINT ( 'NONE',  ( 1.437500000000000000, -2.437500000000000000, 0.0000000000000000000 ) ) ;
#15 = CYLINDRICAL_SURFACE ( 'NONE', #273, 0.1324999999999998956 ) ;
#16 = ORIENTED_EDGE ( 'NONE', *, *, #122, .F. ) ;
#17 = ORIENTED_EDGE ( 'NONE', *, *, #118, .F. ) ;
#18 =( LENGTH_UNIT ( ) NAMED_UNIT ( * ) SI_UNIT ( $, .METRE. ) );
#19 = FACE_OUTER_BOUND ( 'NONE', #128, .T. ) ;
#20 = ORIENTED_EDGE ( 'NONE', *, *, #124, .F. ) ;
#21 = VERTEX_POINT ( 'NONE', #14 ) ;
#22 = VERTEX_POINT ( 'NONE', #259 ) ;
#23 = FACE_BOUND ( 'NONE', #181, .T. ) ;
#24 = VERTEX_POINT ( 'NONE', #222 ) ;
#25 = DIRECTION ( 'NONE',  ( -0.0000000000000000000, -0.0000000000000000000, -1.000000000000000000 ) ) ;
#26 = CARTESIAN_POINT ( 'NONE',  ( 1.437500000000000000, 2.437500000000000000, 0.0000000000000000000 ) ) ;
#27 = VERTEX_POINT ( 'NONE', #337 ) ;
#28 = ADVANCED_FACE ( 'NONE', ( #151 ), #308, .F. ) ;
#29 = ORIENTED_EDGE ( 'NONE', *, *, #111, .T. ) ;
#30 = CARTESIAN_POINT ( 'NONE',  ( 1.125499999999999945, -2.125500000000000167, 0.09999999999999947820 ) ) ;
#31 = PRODUCT_DEFINITION_CONTEXT ( 'detailed design', #203, 'design' ) ;
#32 = PLANE ( 'NONE',  #219 ) ;
#33 = DIRECTION ( 'NONE',  ( -0.0000000000000000000, -0.0000000000000000000, -1.000000000000000000 ) ) ;
#34 = CARTESIAN_POINT ( 'NONE',  ( -1.437500000000000000, 2.437500000000000000, 0.1000000000000000056 ) ) ;
#35 = DIRECTION ( 'NONE',  ( -0.0000000000000000000, 0.0000000000000000000, 1.000000000000000000 ) ) ;
#36 = ORIENTED_EDGE ( 'NONE', *, *, #322, .T. ) ;
#37 = ORIENTED_EDGE ( 'NONE', *, *, #138, .F. ) ;
#38 = AXIS2_PLACEMENT_3D ( 'NONE', #30, #2, #318 ) ;
#39 = DIRECTION ( 'NONE',  ( -1.000000000000000000, 0.0000000000000000000, 0.0000000000000000000 ) ) ;
#40 = STYLED_ITEM ( 'NONE', ( #66 ), #68 ) ;
#41 = FILL_AREA_STYLE_COLOUR ( '', #336 ) ;
#42 = CARTESIAN_POINT ( 'NONE',  ( 0.9929999999999998828, 2.125500000000000167, 0.09999999999999947820 ) ) ;
#43 = UNCERTAINTY_MEASURE_WITH_UNIT (LENGTH_MEASURE( 1.000000000000000082E-05 ), #135, 'distance_accuracy_value', 'NONE');
#44 = LINE ( 'NONE', #141, #234 ) ;
#45 = ORIENTED_EDGE ( 'NONE', *, *, #153, .F. ) ;
#46 = EDGE_LOOP ( 'NONE', ( #134, #37, #152, #97 ) ) ;
#47 = ADVANCED_FACE ( 'NONE', ( #208, #244, #23, #250, #53 ), #82, .T. ) ;
#48 = DIRECTION ( 'NONE',  ( -0.0000000000000000000, -1.000000000000000000, 0.0000000000000000000 ) ) ;
#49 = PLANE ( 'NONE',  #206 ) ;
#50 = SURFACE_STYLE_FILL_AREA ( #95 ) ;
#51 = EDGE_LOOP ( 'NONE', ( #305 ) ) ;
#52 = EDGE_CURVE ( 'NONE', #319, #319, #133, .T. ) ;
#53 = FACE_BOUND ( 'NONE', #157, .T. ) ;
#54 = ORIENTED_EDGE ( 'NONE', *, *, #201, .T. ) ;
#55 = ORIENTED_EDGE ( 'NONE', *, *, #182, .T. ) ;
#56 = DIRECTION ( 'NONE',  ( 0.0000000000000000000, 0.0000000000000000000, 1.000000000000000000 ) ) ;
#57 = CARTESIAN_POINT ( 'NONE',  ( 1.437500000000000000, -2.437500000000000000, 0.1000000000000000056 ) ) ;
#58 = AXIS2_PLACEMENT_3D ( 'NONE', #199, #12, #119 ) ;
#59 = FACE_OUTER_BOUND ( 'NONE', #10, .T. ) ;
#60 = PRODUCT ( '14A0503', '14A0503', '', ( #310 ) ) ;
#61 = DIRECTION ( 'NONE',  ( 0.0000000000000000000, -0.0000000000000000000, -1.000000000000000000 ) ) ;
#62 = FACE_BOUND ( 'NONE', #51, .T. ) ;
#63 = CARTESIAN_POINT ( 'NONE',  ( -1.125499999999999945, 2.125500000000000167, 0.0000000000000000000 ) ) ;
#64 = DIRECTION ( 'NONE',  ( 0.0000000000000000000, -0.0000000000000000000, 1.000000000000000000 ) ) ;
#65 = CARTESIAN_POINT ( 'NONE',  ( 0.0000000000000000000, 0.0000000000000000000, 0.0000000000000000000 ) ) ;
#66 = PRESENTATION_STYLE_ASSIGNMENT (( #11 ) ) ;
#67 = SURFACE_STYLE_USAGE ( .BOTH. , #227 ) ;
#68 = MANIFOLD_SOLID_BREP ( 'Imported1', #9 ) ;
#69 = CARTESIAN_POINT ( 'NONE',  ( 1.437500000000000000, -2.437500000000000000, 0.0000000000000000000 ) ) ;
#70 =( GEOMETRIC_REPRESENTATION_CONTEXT ( 3 ) GLOBAL_UNCERTAINTY_ASSIGNED_CONTEXT ( ( #6 ) ) GLOBAL_UNIT_ASSIGNED_CONTEXT ( ( #13, #260, #231 ) ) REPRESENTATION_CONTEXT ( 'NONE', 'WORKASPACE' ) );
#71 = PRESENTATION_LAYER_ASSIGNMENT (  '', '', ( #40 ) ) ;
#72 = ADVANCED_FACE ( 'NONE', ( #101, #83 ), #15, .F. ) ;
#73 = EDGE_CURVE ( 'NONE', #27, #27, #240, .T. ) ;
#74 = LENGTH_MEASURE_WITH_UNIT ( LENGTH_MEASURE( 0.02539999999999999897 ), #281 );
#75 = VECTOR ( 'NONE', #130, 39.37007874015748143 ) ;
#76 = ORIENTED_EDGE ( 'NONE', *, *, #4, .T. ) ;
#77 = ORIENTED_EDGE ( 'NONE', *, *, #73, .F. ) ;
#78 = CARTESIAN_POINT ( 'NONE',  ( 1.125499999999999945, 2.125500000000000167, 0.09999999999999947820 ) ) ;
#79 = AXIS2_PLACEMENT_3D ( 'NONE', #7, #220, #223 ) ;
#80 = DIRECTION ( 'NONE',  ( -1.000000000000000000, 0.0000000000000000000, 0.0000000000000000000 ) ) ;
#81 = DIRECTION ( 'NONE',  ( -0.0000000000000000000, -0.0000000000000000000, -1.000000000000000000 ) ) ;
#82 = PLANE ( 'NONE',  #168 ) ;
#83 = FACE_OUTER_BOUND ( 'NONE', #93, .T. ) ;
#84 = DIRECTION ( 'NONE',  ( -1.000000000000000000, 0.0000000000000000000, 0.0000000000000000000 ) ) ;
#85 =( NAMED_UNIT ( * ) PLANE_ANGLE_UNIT ( ) SI_UNIT ( $, .RADIAN. ) );
#86 = CARTESIAN_POINT ( 'NONE',  ( -1.437500000000000000, -2.437500000000000000, 0.1000000000000000056 ) ) ;
#87 = SHAPE_DEFINITION_REPRESENTATION ( #247, #114 ) ;
#88 = DIRECTION ( 'NONE',  ( 0.0000000000000000000, 0.0000000000000000000, -1.000000000000000000 ) ) ;
#89 = CYLINDRICAL_SURFACE ( 'NONE', #131, 0.1325000000000000344 ) ;
#90 = CARTESIAN_POINT ( 'NONE',  ( 1.437500000000000000, -2.437500000000000000, 0.1000000000000000056 ) ) ;
#91 = PRODUCT_DEFINITION ( 'UNKNOWN', '', #237, #31 ) ;
#92 = APPLICATION_CONTEXT ( 'automotive_design' ) ;
#93 = EDGE_LOOP ( 'NONE', ( #77 ) ) ;
#94 = MECHANICAL_DESIGN_GEOMETRIC_PRESENTATION_REPRESENTATION (  '', ( #40 ), #207 ) ;
#95 = FILL_AREA_STYLE ('',( #41 ) ) ;
#96 = FACE_OUTER_BOUND ( 'NONE', #321, .T. ) ;
#97 = ORIENTED_EDGE ( 'NONE', *, *, #111, .F. ) ;
#98 = CARTESIAN_POINT ( 'NONE',  ( 1.125499999999999945, -2.125500000000000167, 0.0000000000000000000 ) ) ;
#99 = DIRECTION ( 'NONE',  ( -1.000000000000000000, 0.0000000000000000000, 0.0000000000000000000 ) ) ;
#100 = EDGE_CURVE ( 'NONE', #284, #184, #262, .T. ) ;
#101 = FACE_OUTER_BOUND ( 'NONE', #344, .T. ) ;
#102 = ADVANCED_FACE ( 'NONE', ( #96, #211 ), #276, .F. ) ;
#103 = EDGE_LOOP ( 'NONE', ( #268 ) ) ;
#104 = EDGE_CURVE ( 'NONE', #174, #24, #44, .T. ) ;
#105 = CARTESIAN_POINT ( 'NONE',  ( 1.437500000000000000, -2.437500000000000000, 0.1000000000000000056 ) ) ;
#106 = ADVANCED_FACE ( 'NONE', ( #123, #292, #115, #62, #162 ), #32, .F. ) ;
#107 = LINE ( 'NONE', #197, #156 ) ;
#108 = EDGE_LOOP ( 'NONE', ( #36, #251, #297, #17 ) ) ;
#109 = DIRECTION ( 'NONE',  ( -1.000000000000000000, 0.0000000000000000000, 0.0000000000000000000 ) ) ;
#110 = PRODUCT_RELATED_PRODUCT_CATEGORY ( 'part', '', ( #60 ) ) ;
#111 = EDGE_CURVE ( 'NONE', #184, #174, #107, .T. ) ;
#112 = CARTESIAN_POINT ( 'NONE',  ( -1.125499999999999945, -2.125500000000000167, 0.09999999999999947820 ) ) ;
#113 = DIRECTION ( 'NONE',  ( -1.000000000000000000, 0.0000000000000000000, 0.0000000000000000000 ) ) ;
#114 = ADVANCED_BREP_SHAPE_REPRESENTATION ( '14A0503', ( #68, #185 ), #70 ) ;
#115 = FACE_BOUND ( 'NONE', #325, .T. ) ;
#116 = EDGE_LOOP ( 'NONE', ( #326 ) ) ;
#117 = ORIENTED_EDGE ( 'NONE', *, *, #340, .T. ) ;
#118 = EDGE_CURVE ( 'NONE', #21, #329, #324, .T. ) ;
#119 = DIRECTION ( 'NONE',  ( -1.000000000000000000, 0.0000000000000000000, 0.0000000000000000000 ) ) ;
#120 = CARTESIAN_POINT ( 'NONE',  ( 0.9929999999999998828, -2.125500000000000167, 0.0000000000000000000 ) ) ;
#121 = CARTESIAN_POINT ( 'NONE',  ( 1.437500000000000000, 2.437500000000000000, 0.1000000000000000056 ) ) ;
#122 = EDGE_CURVE ( 'NONE', #284, #147, #302, .T. ) ;
#123 = FACE_OUTER_BOUND ( 'NONE', #320, .T. ) ;
#124 = EDGE_CURVE ( 'NONE', #277, #24, #304, .T. ) ;
#125 = VECTOR ( 'NONE', #214, 39.37007874015748143 ) ;
#126 = EDGE_LOOP ( 'NONE', ( #293 ) ) ;
#127 = ADVANCED_FACE ( 'NONE', ( #19, #296 ), #89, .F. ) ;
#128 = EDGE_LOOP ( 'NONE', ( #148 ) ) ;
#129 = DIRECTION ( 'NONE',  ( -0.0000000000000000000, 1.000000000000000000, 0.0000000000000000000 ) ) ;
#130 = DIRECTION ( 'NONE',  ( -1.000000000000000000, -0.0000000000000000000, 0.0000000000000000000 ) ) ;
#131 = AXIS2_PLACEMENT_3D ( 'NONE', #3, #81, #303 ) ;
#132 = DIRECTION ( 'NONE',  ( 0.0000000000000000000, -1.000000000000000000, -0.0000000000000000000 ) ) ;
#133 = CIRCLE ( 'NONE', #58, 0.1324999999999998956 ) ;
#134 = ORIENTED_EDGE ( 'NONE', *, *, #100, .F. ) ;
#135 =( CONVERSION_BASED_UNIT ( 'INCH', #316 ) LENGTH_UNIT ( ) NAMED_UNIT ( #180 ) );
#136 = ORIENTED_EDGE ( 'NONE', *, *, #52, .F. ) ;
#137 = DIRECTION ( 'NONE',  ( -0.0000000000000000000, -0.0000000000000000000, -1.000000000000000000 ) ) ;
#138 = EDGE_CURVE ( 'NONE', #24, #284, #146, .T. ) ;
#139 = CARTESIAN_POINT ( 'NONE',  ( -1.125499999999999945, -2.125500000000000167, -5.560499094602868730 ) ) ;
#140 = APPLICATION_PROTOCOL_DEFINITION ( 'draft international standard', 'automotive_design', 1998, #92 ) ;
#141 = CARTESIAN_POINT ( 'NONE',  ( 1.437500000000000000, 2.437500000000000000, 0.1000000000000000056 ) ) ;
#142 = EDGE_LOOP ( 'NONE', ( #218 ) ) ;
#143 = ORIENTED_EDGE ( 'NONE', *, *, #188, .F. ) ;
#144 = AXIS2_PLACEMENT_3D ( 'NONE', #78, #155, #109 ) ;
#145 = CARTESIAN_POINT ( 'NONE',  ( -1.125499999999999945, 2.125500000000000167, -5.560499094602868730 ) ) ;
#146 = LINE ( 'NONE', #299, #75 ) ;
#147 = VERTEX_POINT ( 'NONE', #154 ) ;
#148 = ORIENTED_EDGE ( 'NONE', *, *, #258, .F. ) ;
#149 = ADVANCED_FACE ( 'NONE', ( #59 ), #189, .F. ) ;
#150 = PLANE ( 'NONE',  #225 ) ;
#151 = FACE_OUTER_BOUND ( 'NONE', #46, .T. ) ;
#152 = ORIENTED_EDGE ( 'NONE', *, *, #104, .F. ) ;
#153 = EDGE_CURVE ( 'NONE', #190, #190, #272, .T. ) ;
#154 = CARTESIAN_POINT ( 'NONE',  ( -1.437500000000000000, -2.437500000000000000, 0.1000000000000000056 ) ) ;
#155 = DIRECTION ( 'NONE',  ( -0.0000000000000000000, -0.0000000000000000000, -1.000000000000000000 ) ) ;
#156 = VECTOR ( 'NONE', #255, 39.37007874015748143 ) ;
#157 = EDGE_LOOP ( 'NONE', ( #54 ) ) ;
#158 = CARTESIAN_POINT ( 'NONE',  ( -1.437500000000000000, 2.437500000000000000, 0.0000000000000000000 ) ) ;
#159 = AXIS2_PLACEMENT_3D ( 'NONE', #307, #33, #84 ) ;
#160 = DIRECTION ( 'NONE',  ( 1.000000000000000000, 0.0000000000000000000, 0.0000000000000000000 ) ) ;
#161 = EDGE_CURVE ( 'NONE', #147, #277, #338, .T. ) ;
#162 = FACE_BOUND ( 'NONE', #103, .T. ) ;
#163 = ORIENTED_EDGE ( 'NONE', *, *, #100, .T. ) ;
#164 = CARTESIAN_POINT ( 'NONE',  ( 1.437500000000000000, -2.437500000000000000, 0.1000000000000000056 ) ) ;
#165 = SURFACE_SIDE_STYLE ('',( #343 ) ) ;
#166 = DIRECTION ( 'NONE',  ( -1.000000000000000000, 0.0000000000000000000, 0.0000000000000000000 ) ) ;
#167 = CARTESIAN_POINT ( 'NONE',  ( 0.9929999999999998828, 2.125500000000000167, 0.0000000000000000000 ) ) ;
#168 = AXIS2_PLACEMENT_3D ( 'NONE', #86, #193, #226 ) ;
#169 = DIRECTION ( 'NONE',  ( 1.000000000000000000, 0.0000000000000000000, -0.0000000000000000000 ) ) ;
#170 = DIRECTION ( 'NONE',  ( 1.000000000000000000, 0.0000000000000000000, 0.0000000000000000000 ) ) ;
#171 = DIRECTION ( 'NONE',  ( 0.0000000000000000000, 0.0000000000000000000, 1.000000000000000000 ) ) ;
#172 = FACE_OUTER_BOUND ( 'NONE', #116, .T. ) ;
#173 =( NAMED_UNIT ( * ) SI_UNIT ( $, .STERADIAN. ) SOLID_ANGLE_UNIT ( ) );
#174 = VERTEX_POINT ( 'NONE', #26 ) ;
#175 = CARTESIAN_POINT ( 'NONE',  ( -1.437500000000000000, -2.437500000000000000, 0.1000000000000000056 ) ) ;
#176 = EDGE_LOOP ( 'NONE', ( #311 ) ) ;
#177 = PRESENTATION_LAYER_ASSIGNMENT (  '', '', ( #243 ) ) ;
#178 = AXIS2_PLACEMENT_3D ( 'NONE', #105, #80, #56 ) ;
#179 = VERTEX_POINT ( 'NONE', #341 ) ;
#180 = DIMENSIONAL_EXPONENTS ( 1.000000000000000000, 0.0000000000000000000, 0.0000000000000000000, 0.0000000000000000000, 0.0000000000000000000, 0.0000000000000000000, 0.0000000000000000000 ) ;
#181 = EDGE_LOOP ( 'NONE', ( #196 ) ) ;
#182 = EDGE_CURVE ( 'NONE', #329, #184, #191, .T. ) ;
#183 = CARTESIAN_POINT ( 'NONE',  ( -1.437500000000000000, -2.437500000000000000, 0.0000000000000000000 ) ) ;
#184 = VERTEX_POINT ( 'NONE', #212 ) ;
#185 = AXIS2_PLACEMENT_3D ( 'NONE', #65, #335, #170 ) ;
#186 = ORIENTED_EDGE ( 'NONE', *, *, #138, .T. ) ;
#187 = DIRECTION ( 'NONE',  ( -1.000000000000000000, -0.0000000000000000000, 0.0000000000000000000 ) ) ;
#188 = EDGE_CURVE ( 'NONE', #239, #239, #265, .T. ) ;
#189 = PLANE ( 'NONE',  #178 ) ;
#190 = VERTEX_POINT ( 'NONE', #42 ) ;
#191 = LINE ( 'NONE', #158, #202 ) ;
#192 = ORIENTED_EDGE ( 'NONE', *, *, #118, .T. ) ;
#193 = DIRECTION ( 'NONE',  ( 0.0000000000000000000, 0.0000000000000000000, 1.000000000000000000 ) ) ;
#194 = FILL_AREA_STYLE_COLOUR ( '', #288 ) ;
#195 = CIRCLE ( 'NONE', #38, 0.1325000000000000344 ) ;
#196 = ORIENTED_EDGE ( 'NONE', *, *, #153, .T. ) ;
#197 = CARTESIAN_POINT ( 'NONE',  ( 1.437500000000000000, 2.437500000000000000, 0.0000000000000000000 ) ) ;
#198 = CARTESIAN_POINT ( 'NONE',  ( -1.437500000000000000, -2.437500000000000000, 0.1000000000000000056 ) ) ;
#199 = CARTESIAN_POINT ( 'NONE',  ( -1.125499999999999945, 2.125500000000000167, 0.09999999999999947820 ) ) ;
#200 = MECHANICAL_DESIGN_GEOMETRIC_PRESENTATION_REPRESENTATION (  '', ( #243 ), #300 ) ;
#201 = EDGE_CURVE ( 'NONE', #215, #215, #345, .T. ) ;
#202 = VECTOR ( 'NONE', #271, 39.37007874015748143 ) ;
#203 = APPLICATION_CONTEXT ( 'automotive_design' ) ;
#204 = CIRCLE ( 'NONE', #328, 0.1324999999999998956 ) ;
#205 = EDGE_LOOP ( 'NONE', ( #136 ) ) ;
#206 = AXIS2_PLACEMENT_3D ( 'NONE', #175, #233, #261 ) ;
#207 =( GEOMETRIC_REPRESENTATION_CONTEXT ( 3 ) GLOBAL_UNCERTAINTY_ASSIGNED_CONTEXT ( ( #43 ) ) GLOBAL_UNIT_ASSIGNED_CONTEXT ( ( #135, #85, #309 ) ) REPRESENTATION_CONTEXT ( 'NONE', 'WORKASPACE' ) );
#208 = FACE_OUTER_BOUND ( 'NONE', #252, .T. ) ;
#209 = ORIENTED_EDGE ( 'NONE', *, *, #201, .F. ) ;
#210 = ADVANCED_FACE ( 'NONE', ( #278 ), #49, .F. ) ;
#211 = FACE_OUTER_BOUND ( 'NONE', #8, .T. ) ;
#212 = CARTESIAN_POINT ( 'NONE',  ( -1.437500000000000000, 2.437500000000000000, 0.0000000000000000000 ) ) ;
#213 = DIMENSIONAL_EXPONENTS ( 1.000000000000000000, 0.0000000000000000000, 0.0000000000000000000, 0.0000000000000000000, 0.0000000000000000000, 0.0000000000000000000, 0.0000000000000000000 ) ;
#214 = DIRECTION ( 'NONE',  ( 1.000000000000000000, 0.0000000000000000000, -0.0000000000000000000 ) ) ;
#215 = VERTEX_POINT ( 'NONE', #254 ) ;
#216 = VECTOR ( 'NONE', #132, 39.37007874015748143 ) ;
#217 = AXIS2_PLACEMENT_3D ( 'NONE', #112, #25, #39 ) ;
#218 = ORIENTED_EDGE ( 'NONE', *, *, #258, .T. ) ;
#219 = AXIS2_PLACEMENT_3D ( 'NONE', #253, #331, #169 ) ;
#220 = DIRECTION ( 'NONE',  ( 0.0000000000000000000, 0.0000000000000000000, 1.000000000000000000 ) ) ;
#221 = CARTESIAN_POINT ( 'NONE',  ( -1.437500000000000000, 2.437500000000000000, 0.1000000000000000056 ) ) ;
#222 = CARTESIAN_POINT ( 'NONE',  ( 1.437500000000000000, 2.437500000000000000, 0.1000000000000000056 ) ) ;
#223 = DIRECTION ( 'NONE',  ( -1.000000000000000000, 0.0000000000000000000, 0.0000000000000000000 ) ) ;
#224 = DIRECTION ( 'NONE',  ( 0.0000000000000000000, 0.0000000000000000000, 1.000000000000000000 ) ) ;
#225 = AXIS2_PLACEMENT_3D ( 'NONE', #330, #160, #88 ) ;
#226 = DIRECTION ( 'NONE',  ( 1.000000000000000000, 0.0000000000000000000, -0.0000000000000000000 ) ) ;
#227 = SURFACE_SIDE_STYLE ('',( #50 ) ) ;
#228 = VECTOR ( 'NONE', #187, 39.37007874015748143 ) ;
#229 = DIRECTION ( 'NONE',  ( -0.0000000000000000000, -0.0000000000000000000, -1.000000000000000000 ) ) ;
#230 = DIRECTION ( 'NONE',  ( -1.000000000000000000, 0.0000000000000000000, 0.0000000000000000000 ) ) ;
#231 =( NAMED_UNIT ( * ) SI_UNIT ( $, .STERADIAN. ) SOLID_ANGLE_UNIT ( ) );
#232 = VECTOR ( 'NONE', #129, 39.37007874015748143 ) ;
#233 = DIRECTION ( 'NONE',  ( 0.0000000000000000000, 1.000000000000000000, 0.0000000000000000000 ) ) ;
#234 = VECTOR ( 'NONE', #35, 39.37007874015748143 ) ;
#235 = EDGE_LOOP ( 'NONE', ( #117, #16, #163, #317 ) ) ;
#236 = DIRECTION ( 'NONE',  ( 0.0000000000000000000, 0.0000000000000000000, 1.000000000000000000 ) ) ;
#237 = PRODUCT_DEFINITION_FORMATION_WITH_SPECIFIED_SOURCE ( 'ANY', '', #60, .NOT_KNOWN. ) ;
#238 = AXIS2_PLACEMENT_3D ( 'NONE', #98, #236, #99 ) ;
#239 = VERTEX_POINT ( 'NONE', #120 ) ;
#240 = CIRCLE ( 'NONE', #301, 0.1324999999999998956 ) ;
#241 = ORIENTED_EDGE ( 'NONE', *, *, #122, .T. ) ;
#242 = ORIENTED_EDGE ( 'NONE', *, *, #4, .F. ) ;
#243 = STYLED_ITEM ( 'NONE', ( #287 ), #114 ) ;
#244 = FACE_BOUND ( 'NONE', #126, .T. ) ;
#245 = EDGE_CURVE ( 'NONE', #174, #21, #306, .T. ) ;
#246 = CARTESIAN_POINT ( 'NONE',  ( -1.437500000000000000, -2.437500000000000000, 0.1000000000000000056 ) ) ;
#247 = PRODUCT_DEFINITION_SHAPE ( 'NONE', 'NONE',  #91 ) ;
#248 = VECTOR ( 'NONE', #64, 39.37007874015748143 ) ;
#249 =( LENGTH_UNIT ( ) NAMED_UNIT ( * ) SI_UNIT ( $, .METRE. ) );
#250 = FACE_BOUND ( 'NONE', #142, .T. ) ;
#251 = ORIENTED_EDGE ( 'NONE', *, *, #161, .F. ) ;
#252 = EDGE_LOOP ( 'NONE', ( #283, #186, #241, #291 ) ) ;
#253 = CARTESIAN_POINT ( 'NONE',  ( -1.437500000000000000, -2.437500000000000000, 0.0000000000000000000 ) ) ;
#254 = CARTESIAN_POINT ( 'NONE',  ( -1.257999999999999785, -2.125500000000000167, 0.09999999999999947820 ) ) ;
#255 = DIRECTION ( 'NONE',  ( 1.000000000000000000, 0.0000000000000000000, 0.0000000000000000000 ) ) ;
#256 =( CONVERSION_BASED_UNIT ( 'INCH', #257 ) LENGTH_UNIT ( ) NAMED_UNIT ( #213 ) );
#257 = LENGTH_MEASURE_WITH_UNIT ( LENGTH_MEASURE( 0.02539999999999999897 ), #18 );
#258 = EDGE_CURVE ( 'NONE', #22, #22, #195, .T. ) ;
#259 = CARTESIAN_POINT ( 'NONE',  ( 0.9929999999999998828, -2.125500000000000167, 0.09999999999999947820 ) ) ;
#260 =( NAMED_UNIT ( * ) PLANE_ANGLE_UNIT ( ) SI_UNIT ( $, .RADIAN. ) );
#261 = DIRECTION ( 'NONE',  ( 0.0000000000000000000, -0.0000000000000000000, 1.000000000000000000 ) ) ;
#262 = LINE ( 'NONE', #34, #5 ) ;
#263 = EDGE_LOOP ( 'NONE', ( #143 ) ) ;
#264 = AXIS2_PLACEMENT_3D ( 'NONE', #121, #327, #334 ) ;
#265 = CIRCLE ( 'NONE', #238, 0.1325000000000000344 ) ;
#266 = UNCERTAINTY_MEASURE_WITH_UNIT (LENGTH_MEASURE( 1.000000000000000082E-05 ), #256, 'distance_accuracy_value', 'NONE');
#267 = VECTOR ( 'NONE', #48, 39.37007874015748143 ) ;
#268 = ORIENTED_EDGE ( 'NONE', *, *, #73, .T. ) ;
#269 = CARTESIAN_POINT ( 'NONE',  ( -1.437500000000000000, -2.437500000000000000, 0.1000000000000000056 ) ) ;
#270 = VERTEX_POINT ( 'NONE', #167 ) ;
#271 = DIRECTION ( 'NONE',  ( -0.0000000000000000000, 1.000000000000000000, 0.0000000000000000000 ) ) ;
#272 = CIRCLE ( 'NONE', #144, 0.1325000000000000344 ) ;
#273 = AXIS2_PLACEMENT_3D ( 'NONE', #139, #137, #113 ) ;
#274 = LINE ( 'NONE', #164, #342 ) ;
#275 = CARTESIAN_POINT ( 'NONE',  ( -1.125499999999999945, -2.125500000000000167, 0.0000000000000000000 ) ) ;
#276 = CYLINDRICAL_SURFACE ( 'NONE', #159, 0.1325000000000000344 ) ;
#277 = VERTEX_POINT ( 'NONE', #90 ) ;
#278 = FACE_OUTER_BOUND ( 'NONE', #108, .T. ) ;
#279 = DIRECTION ( 'NONE',  ( 0.0000000000000000000, 0.0000000000000000000, 1.000000000000000000 ) ) ;
#280 = AXIS2_PLACEMENT_3D ( 'NONE', #145, #229, #315 ) ;
#281 =( LENGTH_UNIT ( ) NAMED_UNIT ( * ) SI_UNIT ( $, .METRE. ) );
#282 = LINE ( 'NONE', #198, #248 ) ;
#283 = ORIENTED_EDGE ( 'NONE', *, *, #124, .T. ) ;
#284 = VERTEX_POINT ( 'NONE', #221 ) ;
#285 = APPLICATION_PROTOCOL_DEFINITION ( 'draft international standard', 'automotive_design', 1998, #203 ) ;
#286 = CARTESIAN_POINT ( 'NONE',  ( -1.257999999999999785, 2.125500000000000167, 0.09999999999999947820 ) ) ;
#287 = PRESENTATION_STYLE_ASSIGNMENT (( #67 ) ) ;
#288 = COLOUR_RGB ( '',0.7921568627450980005, 0.8196078431372548767, 0.9333333333333333481 ) ;
#289 = ORIENTED_EDGE ( 'NONE', *, *, #245, .T. ) ;
#290 = ORIENTED_EDGE ( 'NONE', *, *, #322, .F. ) ;
#291 = ORIENTED_EDGE ( 'NONE', *, *, #161, .T. ) ;
#292 = FACE_BOUND ( 'NONE', #176, .T. ) ;
#293 = ORIENTED_EDGE ( 'NONE', *, *, #52, .T. ) ;
#294 = DIMENSIONAL_EXPONENTS ( 1.000000000000000000, 0.0000000000000000000, 0.0000000000000000000, 0.0000000000000000000, 0.0000000000000000000, 0.0000000000000000000, 0.0000000000000000000 ) ;
#295 = FACE_OUTER_BOUND ( 'NONE', #205, .T. ) ;
#296 = FACE_OUTER_BOUND ( 'NONE', #263, .T. ) ;
#297 = ORIENTED_EDGE ( 'NONE', *, *, #340, .F. ) ;
#298 = ORIENTED_EDGE ( 'NONE', *, *, #245, .F. ) ;
#299 = CARTESIAN_POINT ( 'NONE',  ( -1.437500000000000000, 2.437500000000000000, 0.1000000000000000056 ) ) ;
#300 =( GEOMETRIC_REPRESENTATION_CONTEXT ( 3 ) GLOBAL_UNCERTAINTY_ASSIGNED_CONTEXT ( ( #266 ) ) GLOBAL_UNIT_ASSIGNED_CONTEXT ( ( #256, #332, #173 ) ) REPRESENTATION_CONTEXT ( 'NONE', 'WORKASPACE' ) );
#301 = AXIS2_PLACEMENT_3D ( 'NONE', #275, #279, #166 ) ;
#302 = LINE ( 'NONE', #246, #216 ) ;
#303 = DIRECTION ( 'NONE',  ( -1.000000000000000000, 0.0000000000000000000, 0.0000000000000000000 ) ) ;
#304 = LINE ( 'NONE', #57, #232 ) ;
#305 = ORIENTED_EDGE ( 'NONE', *, *, #188, .T. ) ;
#306 = LINE ( 'NONE', #69, #267 ) ;
#307 = CARTESIAN_POINT ( 'NONE',  ( 1.125499999999999945, 2.125500000000000167, -5.560499094602868730 ) ) ;
#308 = PLANE ( 'NONE',  #264 ) ;
#309 =( NAMED_UNIT ( * ) SI_UNIT ( $, .STERADIAN. ) SOLID_ANGLE_UNIT ( ) );
#310 = PRODUCT_CONTEXT ( 'NONE', #92, 'mechanical' ) ;
#311 = ORIENTED_EDGE ( 'NONE', *, *, #333, .T. ) ;
#312 = FILL_AREA_STYLE ('',( #194 ) ) ;
#313 = CARTESIAN_POINT ( 'NONE',  ( -1.437500000000000000, -2.437500000000000000, 0.0000000000000000000 ) ) ;
#314 = CYLINDRICAL_SURFACE ( 'NONE', #280, 0.1324999999999998956 ) ;
#315 = DIRECTION ( 'NONE',  ( -1.000000000000000000, 0.0000000000000000000, 0.0000000000000000000 ) ) ;
#316 = LENGTH_MEASURE_WITH_UNIT ( LENGTH_MEASURE( 0.02539999999999999897 ), #249 );
#317 = ORIENTED_EDGE ( 'NONE', *, *, #182, .F. ) ;
#318 = DIRECTION ( 'NONE',  ( -1.000000000000000000, 0.0000000000000000000, 0.0000000000000000000 ) ) ;
#319 = VERTEX_POINT ( 'NONE', #286 ) ;
#320 = EDGE_LOOP ( 'NONE', ( #29, #289, #192, #55 ) ) ;
#321 = EDGE_LOOP ( 'NONE', ( #45 ) ) ;
#322 = EDGE_CURVE ( 'NONE', #21, #277, #274, .T. ) ;
#323 = ADVANCED_FACE ( 'NONE', ( #347 ), #150, .F. ) ;
#324 = LINE ( 'NONE', #183, #228 ) ;
#325 = EDGE_LOOP ( 'NONE', ( #76 ) ) ;
#326 = ORIENTED_EDGE ( 'NONE', *, *, #333, .F. ) ;
#327 = DIRECTION ( 'NONE',  ( 0.0000000000000000000, -1.000000000000000000, 0.0000000000000000000 ) ) ;
#328 = AXIS2_PLACEMENT_3D ( 'NONE', #63, #171, #230 ) ;
#329 = VERTEX_POINT ( 'NONE', #313 ) ;
#330 = CARTESIAN_POINT ( 'NONE',  ( -1.437500000000000000, 2.437500000000000000, 0.1000000000000000056 ) ) ;
#331 = DIRECTION ( 'NONE',  ( 0.0000000000000000000, 0.0000000000000000000, 1.000000000000000000 ) ) ;
#332 =( NAMED_UNIT ( * ) PLANE_ANGLE_UNIT ( ) SI_UNIT ( $, .RADIAN. ) );
#333 = EDGE_CURVE ( 'NONE', #179, #179, #204, .T. ) ;
#334 = DIRECTION ( 'NONE',  ( 0.0000000000000000000, -0.0000000000000000000, -1.000000000000000000 ) ) ;
#335 = DIRECTION ( 'NONE',  ( 0.0000000000000000000, 0.0000000000000000000, 1.000000000000000000 ) ) ;
#336 = COLOUR_RGB ( '',0.7921568627450980005, 0.8196078431372548767, 0.9333333333333333481 ) ;
#337 = CARTESIAN_POINT ( 'NONE',  ( -1.257999999999999785, -2.125500000000000167, 0.0000000000000000000 ) ) ;
#338 = LINE ( 'NONE', #269, #125 ) ;
#339 = ORIENTED_EDGE ( 'NONE', *, *, #104, .T. ) ;
#340 = EDGE_CURVE ( 'NONE', #329, #147, #282, .T. ) ;
#341 = CARTESIAN_POINT ( 'NONE',  ( -1.257999999999999785, 2.125500000000000167, 0.0000000000000000000 ) ) ;
#342 = VECTOR ( 'NONE', #224, 39.37007874015748143 ) ;
#343 = SURFACE_STYLE_FILL_AREA ( #312 ) ;
#344 = EDGE_LOOP ( 'NONE', ( #209 ) ) ;
#345 = CIRCLE ( 'NONE', #217, 0.1324999999999998956 ) ;
#346 = ADVANCED_FACE ( 'NONE', ( #295, #172 ), #314, .F. ) ;
#347 = FACE_OUTER_BOUND ( 'NONE', #235, .T. ) ;
ENDSEC;
END-ISO-10303-21;
