ISO-10303-21;
HEADER;
FILE_DESCRIPTION (( 'STEP AP203' ),
    '1' );
FILE_NAME ('151037.step',
    '2021-06-03T16:11:24',
    ( '' ),
    ( '' ),
    'SwSTEP 2.0',
    'SolidWorks 2021',
    '' );
FILE_SCHEMA (( 'CONFIG_CONTROL_DESIGN' ));
ENDSEC;

DATA;
#1 = VERTEX_POINT ( 'NONE', #304 ) ;
#2 = LINE ( 'NONE', #36, #227 ) ;
#3 = DIRECTION ( 'NONE',  ( 1.000000000000000000, 0.000000000000000000, 0.000000000000000000 ) ) ;
#4 = PLANE ( 'NONE',  #13 ) ;
#5 = EDGE_CURVE ( 'NONE', #420, #424, #271, .T. ) ;
#6 = VECTOR ( 'NONE', #288, 1000.000000000000000 ) ;
#7 = CARTESIAN_POINT ( 'NONE',  ( -7.000000000000001776, 5.500000000000000000, -1.199999999999999956 ) ) ;
#8 = CARTESIAN_POINT ( 'NONE',  ( 7.000000000000001776, 5.500000000000000000, 1.199999999999999956 ) ) ;
#9 = COORDINATED_UNIVERSAL_TIME_OFFSET ( 5, 0, .BEHIND. ) ;
#10 = ORGANIZATION ( 'UNSPECIFIED', 'UNSPECIFIED', '' ) ;
#11 = CARTESIAN_POINT ( 'NONE',  ( -7.000000000000001776, 0.000000000000000000, 1.199999999999999956 ) ) ;
#12 = APPROVAL_DATE_TIME ( #309, #76 ) ;
#13 = AXIS2_PLACEMENT_3D ( 'NONE', #210, #64, #175 ) ;
#14 = ORIENTED_EDGE ( 'NONE', *, *, #318, .T. ) ;
#15 = CIRCLE ( 'NONE', #276, 5.499999999999999112 ) ;
#16 = ORIENTED_EDGE ( 'NONE', *, *, #269, .T. ) ;
#17 = CC_DESIGN_PERSON_AND_ORGANIZATION_ASSIGNMENT ( #348, #148, ( #133 ) ) ;
#18 = DIRECTION ( 'NONE',  ( 1.000000000000000000, 0.000000000000000000, 0.000000000000000000 ) ) ;
#19 = FACE_OUTER_BOUND ( 'NONE', #359, .T. ) ;
#20 = CARTESIAN_POINT ( 'NONE',  ( 0.000000000000000000, 0.000000000000000000, -2.199999999999999734 ) ) ;
#21 = ADVANCED_FACE ( 'NONE', ( #74 ), #4, .F. ) ;
#22 = VERTEX_POINT ( 'NONE', #69 ) ;
#23 = AXIS2_PLACEMENT_3D ( 'NONE', #35, #92, #170 ) ;
#24 = FACE_OUTER_BOUND ( 'NONE', #220, .T. ) ;
#25 = VERTEX_POINT ( 'NONE', #177 ) ;
#26 = AXIS2_PLACEMENT_3D ( 'NONE', #308, #369, #34 ) ;
#27 = DIRECTION ( 'NONE',  ( 1.000000000000000000, 0.000000000000000000, 0.000000000000000000 ) ) ;
#28 = ORIENTED_EDGE ( 'NONE', *, *, #192, .F. ) ;
#29 = ORIENTED_EDGE ( 'NONE', *, *, #73, .T. ) ;
#30 = APPLICATION_PROTOCOL_DEFINITION ( 'international standard', 'config_control_design', 1994, #387 ) ;
#31 = ADVANCED_FACE ( 'NONE', ( #42 ), #371, .T. ) ;
#32 = ORIENTED_EDGE ( 'NONE', *, *, #83, .T. ) ;
#33 = CARTESIAN_POINT ( 'NONE',  ( 0.000000000000000000, 0.000000000000000000, -1.199999999999999956 ) ) ;
#34 = DIRECTION ( 'NONE',  ( 1.000000000000000000, 0.000000000000000000, 0.000000000000000000 ) ) ;
#35 = CARTESIAN_POINT ( 'NONE',  ( 0.000000000000000000, 0.000000000000000000, 1.199999999999999956 ) ) ;
#36 = CARTESIAN_POINT ( 'NONE',  ( 3.500000000000000000, 0.000000000000000000, -2.199999999999999734 ) ) ;
#37 = EDGE_CURVE ( 'NONE', #424, #229, #2, .T. ) ;
#38 = CARTESIAN_POINT ( 'NONE',  ( -7.000000000000001776, 0.000000000000000000, -1.199999999999999956 ) ) ;
#39 = CC_DESIGN_PERSON_AND_ORGANIZATION_ASSIGNMENT ( #272, #277, ( #78 ) ) ;
#40 = DIRECTION ( 'NONE',  ( -0.000000000000000000, -0.000000000000000000, 1.000000000000000000 ) ) ;
#41 = CALENDAR_DATE ( 2021, 3, 6 ) ;
#42 = FACE_OUTER_BOUND ( 'NONE', #350, .T. ) ;
#43 = CALENDAR_DATE ( 2021, 3, 6 ) ;
#44 = VERTEX_POINT ( 'NONE', #146 ) ;
#45 = AXIS2_PLACEMENT_3D ( 'NONE', #55, #357, #313 ) ;
#46 = EDGE_LOOP ( 'NONE', ( #132, #389, #91, #125 ) ) ;
#47 = ADVANCED_FACE ( 'NONE', ( #342 ), #337, .T. ) ;
#48 = CARTESIAN_POINT ( 'NONE',  ( 0.000000000000000000, 0.000000000000000000, 1.199999999999999956 ) ) ;
#49 = LINE ( 'NONE', #219, #6 ) ;
#50 = DIRECTION ( 'NONE',  ( -0.000000000000000000, -0.000000000000000000, -1.000000000000000000 ) ) ;
#51 = ORIENTED_EDGE ( 'NONE', *, *, #269, .F. ) ;
#52 = ORIENTED_EDGE ( 'NONE', *, *, #166, .T. ) ;
#53 = AXIS2_PLACEMENT_3D ( 'NONE', #363, #400, #165 ) ;
#54 = CARTESIAN_POINT ( 'NONE',  ( -7.000000000000001776, 0.000000000000000000, 1.199999999999999956 ) ) ;
#55 = CARTESIAN_POINT ( 'NONE',  ( 0.000000000000000000, 0.000000000000000000, -2.199999999999999734 ) ) ;
#56 = VECTOR ( 'NONE', #120, 1000.000000000000000 ) ;
#57 = CARTESIAN_POINT ( 'NONE',  ( 7.000000000000001776, 0.000000000000000000, 1.199999999999999956 ) ) ;
#58 = EDGE_LOOP ( 'NONE', ( #417, #399, #51, #330 ) ) ;
#59 = CARTESIAN_POINT ( 'NONE',  ( -3.500000000000000000, 4.286263797015736595E-16, -2.199999999999999734 ) ) ;
#60 = VERTEX_POINT ( 'NONE', #270 ) ;
#61 = APPROVAL_PERSON_ORGANIZATION ( #208, #97, #343 ) ;
#62 = FACE_OUTER_BOUND ( 'NONE', #366, .T. ) ;
#63 = PRODUCT_DEFINITION_SHAPE ( 'NONE', 'NONE',  #355 ) ;
#64 = DIRECTION ( 'NONE',  ( 0.000000000000000000, 1.000000000000000000, 0.000000000000000000 ) ) ;
#65 = DESIGN_CONTEXT ( 'detailed design', #135, 'design' ) ;
#66 = CARTESIAN_POINT ( 'NONE',  ( -2.552699999999999303, 3.126155884183447760E-16, -2.199999999999999734 ) ) ;
#67 = LINE ( 'NONE', #110, #139 ) ;
#68 = FACE_OUTER_BOUND ( 'NONE', #396, .T. ) ;
#69 = CARTESIAN_POINT ( 'NONE',  ( 7.000000000000001776, 5.500000000000000000, -1.199999999999999956 ) ) ;
#70 = AXIS2_PLACEMENT_3D ( 'NONE', #379, #87, #77 ) ;
#71 = DATE_AND_TIME ( #244, #109 ) ;
#72 = CYLINDRICAL_SURFACE ( 'NONE', #421, 5.500000000000000000 ) ;
#73 = EDGE_CURVE ( 'NONE', #1, #228, #254, .T. ) ;
#74 = FACE_OUTER_BOUND ( 'NONE', #58, .T. ) ;
#75 = APPROVAL_ROLE ( '' ) ;
#76 = APPROVAL ( #174, 'UNSPECIFIED' ) ;
#77 = DIRECTION ( 'NONE',  ( -1.000000000000000000, 0.000000000000000000, -0.000000000000000000 ) ) ;
#78 = PRODUCT_DEFINITION_FORMATION_WITH_SPECIFIED_SOURCE ( 'ANY', '', #133, .NOT_KNOWN. ) ;
#79 = APPROVAL_STATUS ( 'not_yet_approved' ) ;
#80 = EDGE_LOOP ( 'NONE', ( #96, #283, #150, #287 ) ) ;
#81 = CYLINDRICAL_SURFACE ( 'NONE', #374, 5.499999999999999112 ) ;
#82 = VECTOR ( 'NONE', #414, 1000.000000000000000 ) ;
#83 = EDGE_CURVE ( 'NONE', #147, #25, #403, .T. ) ;
#84 = LINE ( 'NONE', #154, #90 ) ;
#85 = VECTOR ( 'NONE', #278, 1000.000000000000000 ) ;
#86 = EDGE_LOOP ( 'NONE', ( #88, #395 ) ) ;
#87 = DIRECTION ( 'NONE',  ( 0.000000000000000000, 0.000000000000000000, -1.000000000000000000 ) ) ;
#88 = ORIENTED_EDGE ( 'NONE', *, *, #422, .F. ) ;
#89 = DIRECTION ( 'NONE',  ( -1.000000000000000000, 0.000000000000000000, 0.000000000000000000 ) ) ;
#90 = VECTOR ( 'NONE', #356, 1000.000000000000000 ) ;
#91 = ORIENTED_EDGE ( 'NONE', *, *, #212, .F. ) ;
#92 = DIRECTION ( 'NONE',  ( -0.000000000000000000, -0.000000000000000000, 1.000000000000000000 ) ) ;
#93 = EDGE_CURVE ( 'NONE', #44, #263, #306, .T. ) ;
#94 = VERTEX_POINT ( 'NONE', #347 ) ;
#95 = CARTESIAN_POINT ( 'NONE',  ( 3.500000000000000000, 0.000000000000000000, -2.199999999999999734 ) ) ;
#96 = ORIENTED_EDGE ( 'NONE', *, *, #300, .F. ) ;
#97 = APPROVAL ( #351, 'UNSPECIFIED' ) ;
#98 = CARTESIAN_POINT ( 'NONE',  ( -7.000000000000001776, -5.500000000000000000, -1.199999999999999956 ) ) ;
#99 = CARTESIAN_POINT ( 'NONE',  ( -12.50000000000000000, 0.000000000000000000, 1.199999999999999956 ) ) ;
#100 = VECTOR ( 'NONE', #236, 1000.000000000000000 ) ;
#101 = DIRECTION ( 'NONE',  ( 0.000000000000000000, 0.000000000000000000, 1.000000000000000000 ) ) ;
#102 = EDGE_CURVE ( 'NONE', #382, #326, #122, .T. ) ;
#103 = DIRECTION ( 'NONE',  ( -0.000000000000000000, -0.000000000000000000, 1.000000000000000000 ) ) ;
#104 = AXIS2_PLACEMENT_3D ( 'NONE', #273, #406, #140 ) ;
#105 = PLANE ( 'NONE',  #149 ) ;
#106 = DIRECTION ( 'NONE',  ( 0.000000000000000000, 0.000000000000000000, 1.000000000000000000 ) ) ;
#107 = DATE_AND_TIME ( #378, #314 ) ;
#108 = DIRECTION ( 'NONE',  ( 1.000000000000000000, 0.000000000000000000, 0.000000000000000000 ) ) ;
#109 = LOCAL_TIME ( 12, 11, 24.00000000000000000, #312 ) ;
#110 = CARTESIAN_POINT ( 'NONE',  ( -7.000000000000001776, -5.500000000000000000, 1.199999999999999956 ) ) ;
#111 = EDGE_CURVE ( 'NONE', #22, #382, #203, .T. ) ;
#112 = PERSON_AND_ORGANIZATION_ROLE ( 'classification_officer' ) ;
#113 = FACE_BOUND ( 'NONE', #225, .T. ) ;
#114 = DATE_AND_TIME ( #41, #206 ) ;
#115 = EDGE_CURVE ( 'NONE', #326, #94, #335, .T. ) ;
#116 = ORIENTED_EDGE ( 'NONE', *, *, #93, .T. ) ;
#117 = DIRECTION ( 'NONE',  ( 0.000000000000000000, -0.000000000000000000, -1.000000000000000000 ) ) ;
#118 = CC_DESIGN_PERSON_AND_ORGANIZATION_ASSIGNMENT ( #246, #346, ( #355 ) ) ;
#119 = ORIENTED_EDGE ( 'NONE', *, *, #115, .T. ) ;
#120 = DIRECTION ( 'NONE',  ( -0.000000000000000000, -0.000000000000000000, -1.000000000000000000 ) ) ;
#121 = CARTESIAN_POINT ( 'NONE',  ( -7.000000000000001776, 5.500000000000000000, 1.199999999999999956 ) ) ;
#122 = CIRCLE ( 'NONE', #249, 5.500000000000000000 ) ;
#123 = ORIENTED_EDGE ( 'NONE', *, *, #111, .F. ) ;
#124 = CARTESIAN_POINT ( 'NONE',  ( -7.000000000000001776, 5.500000000000000000, 1.199999999999999956 ) ) ;
#125 = ORIENTED_EDGE ( 'NONE', *, *, #185, .T. ) ;
#126 = LINE ( 'NONE', #98, #100 ) ;
#127 = ADVANCED_FACE ( 'NONE', ( #375 ), #72, .T. ) ;
#128 = AXIS2_PLACEMENT_3D ( 'NONE', #394, #101, #338 ) ;
#129 = EDGE_LOOP ( 'NONE', ( #319, #222, #119, #28 ) ) ;
#130 = ORIENTED_EDGE ( 'NONE', *, *, #329, .F. ) ;
#131 =( NAMED_UNIT ( * ) SI_UNIT ( $, .STERADIAN. ) SOLID_ANGLE_UNIT ( ) );
#132 = ORIENTED_EDGE ( 'NONE', *, *, #111, .T. ) ;
#133 = PRODUCT ( '151037', '151037', '', ( #425 ) ) ;
#134 = PLANE ( 'NONE',  #128 ) ;
#135 = APPLICATION_CONTEXT ( 'configuration controlled 3d designs of mechanical parts and assemblies' ) ;
#136 = CARTESIAN_POINT ( 'NONE',  ( 0.000000000000000000, 0.000000000000000000, -2.199999999999999734 ) ) ;
#137 = CYLINDRICAL_SURFACE ( 'NONE', #23, 2.552699999999999747 ) ;
#138 = CARTESIAN_POINT ( 'NONE',  ( 0.000000000000000000, 0.000000000000000000, -2.199999999999999734 ) ) ;
#139 = VECTOR ( 'NONE', #377, 1000.000000000000000 ) ;
#140 = DIRECTION ( 'NONE',  ( 1.000000000000000000, 0.000000000000000000, 0.000000000000000000 ) ) ;
#141 = COORDINATED_UNIVERSAL_TIME_OFFSET ( 5, 0, .BEHIND. ) ;
#142 = DIRECTION ( 'NONE',  ( 1.000000000000000000, 0.000000000000000000, 0.000000000000000000 ) ) ;
#143 = AXIS2_PLACEMENT_3D ( 'NONE', #54, #50, #390 ) ;
#144 = DATE_AND_TIME ( #43, #325 ) ;
#145 = MANIFOLD_SOLID_BREP ( '1/4-20 Tap', #410 ) ;
#146 = CARTESIAN_POINT ( 'NONE',  ( 7.000000000000000888, -5.500000000000000000, 1.199999999999999956 ) ) ;
#147 = VERTEX_POINT ( 'NONE', #99 ) ;
#148 = PERSON_AND_ORGANIZATION_ROLE ( 'design_owner' ) ;
#149 = AXIS2_PLACEMENT_3D ( 'NONE', #340, #230, #367 ) ;
#150 = ORIENTED_EDGE ( 'NONE', *, *, #161, .T. ) ;
#151 = CARTESIAN_POINT ( 'NONE',  ( -2.552699999999999747, 3.126155884183448253E-16, 1.199999999999999956 ) ) ;
#152 = AXIS2_PLACEMENT_3D ( 'NONE', #238, #239, #274 ) ;
#153 = ORIENTED_EDGE ( 'NONE', *, *, #329, .T. ) ;
#154 = CARTESIAN_POINT ( 'NONE',  ( -7.000000000000001776, -5.500000000000000000, 1.199999999999999956 ) ) ;
#155 = DIRECTION ( 'NONE',  ( 0.000000000000000000, 0.000000000000000000, 1.000000000000000000 ) ) ;
#156 = AXIS2_PLACEMENT_3D ( 'NONE', #57, #201, #3 ) ;
#157 = ORIENTED_EDGE ( 'NONE', *, *, #212, .T. ) ;
#158 = LINE ( 'NONE', #124, #56 ) ;
#159 = AXIS2_PLACEMENT_3D ( 'NONE', #136, #103, #142 ) ;
#160 = VERTEX_POINT ( 'NONE', #344 ) ;
#161 = EDGE_CURVE ( 'NONE', #250, #228, #169, .T. ) ;
#162 = PLANE ( 'NONE',  #341 ) ;
#163 = ORIENTED_EDGE ( 'NONE', *, *, #391, .F. ) ;
#164 = ORIENTED_EDGE ( 'NONE', *, *, #285, .F. ) ;
#165 = DIRECTION ( 'NONE',  ( 1.000000000000000000, 0.000000000000000000, 0.000000000000000000 ) ) ;
#166 = EDGE_CURVE ( 'NONE', #250, #362, #353, .T. ) ;
#167 = ORIENTED_EDGE ( 'NONE', *, *, #198, .F. ) ;
#168 = LINE ( 'NONE', #398, #320 ) ;
#169 = LINE ( 'NONE', #311, #181 ) ;
#170 = DIRECTION ( 'NONE',  ( 1.000000000000000000, 0.000000000000000000, 0.000000000000000000 ) ) ;
#171 = DIRECTION ( 'NONE',  ( -0.000000000000000000, -0.000000000000000000, 1.000000000000000000 ) ) ;
#172 = LOCAL_TIME ( 12, 11, 24.00000000000000000, #211 ) ;
#173 = AXIS2_PLACEMENT_3D ( 'NONE', #323, #293, #27 ) ;
#174 = APPROVAL_STATUS ( 'not_yet_approved' ) ;
#175 = DIRECTION ( 'NONE',  ( 0.000000000000000000, -0.000000000000000000, 1.000000000000000000 ) ) ;
#176 = APPROVAL_ROLE ( '' ) ;
#177 = CARTESIAN_POINT ( 'NONE',  ( -7.000000000000001776, -5.500000000000000000, 1.199999999999999956 ) ) ;
#178 =( GEOMETRIC_REPRESENTATION_CONTEXT ( 3 ) GLOBAL_UNCERTAINTY_ASSIGNED_CONTEXT ( ( #233 ) ) GLOBAL_UNIT_ASSIGNED_CONTEXT ( ( #302, #305, #131 ) ) REPRESENTATION_CONTEXT ( 'NONE', 'WORKASPACE' ) );
#179 = PERSON_AND_ORGANIZATION_ROLE ( 'design_supplier' ) ;
#180 = EDGE_LOOP ( 'NONE', ( #386, #426, #200, #259 ) ) ;
#181 = VECTOR ( 'NONE', #232, 1000.000000000000000 ) ;
#182 = EDGE_LOOP ( 'NONE', ( #153, #429 ) ) ;
#183 = AXIS2_PLACEMENT_3D ( 'NONE', #365, #197, #331 ) ;
#184 = DIRECTION ( 'NONE',  ( -0.000000000000000000, -0.000000000000000000, 1.000000000000000000 ) ) ;
#185 = EDGE_CURVE ( 'NONE', #60, #22, #235, .T. ) ;
#186 = CARTESIAN_POINT ( 'NONE',  ( 7.000000000000000888, -5.500000000000000000, -1.199999999999999956 ) ) ;
#187 = LINE ( 'NONE', #151, #82 ) ;
#188 = ADVANCED_BREP_SHAPE_REPRESENTATION ( '151037', ( #145, #183 ), #178 ) ;
#189 = ORIENTED_EDGE ( 'NONE', *, *, #102, .F. ) ;
#190 = DIRECTION ( 'NONE',  ( -1.000000000000000000, -0.000000000000000000, -0.000000000000000000 ) ) ;
#191 = VECTOR ( 'NONE', #190, 1000.000000000000000 ) ;
#192 = EDGE_CURVE ( 'NONE', #25, #94, #67, .T. ) ;
#193 = EDGE_LOOP ( 'NONE', ( #257, #364, #413, #116 ) ) ;
#194 = FACE_OUTER_BOUND ( 'NONE', #182, .T. ) ;
#195 = ORIENTED_EDGE ( 'NONE', *, *, #300, .T. ) ;
#196 = EDGE_LOOP ( 'NONE', ( #333, #163 ) ) ;
#197 = DIRECTION ( 'NONE',  ( 0.000000000000000000, 0.000000000000000000, 1.000000000000000000 ) ) ;
#198 = EDGE_CURVE ( 'NONE', #420, #217, #49, .T. ) ;
#199 = AXIS2_PLACEMENT_3D ( 'NONE', #33, #298, #204 ) ;
#200 = ORIENTED_EDGE ( 'NONE', *, *, #391, .T. ) ;
#201 = DIRECTION ( 'NONE',  ( 0.000000000000000000, 0.000000000000000000, 1.000000000000000000 ) ) ;
#202 = CC_DESIGN_DATE_AND_TIME_ASSIGNMENT ( #71, #381, ( #355 ) ) ;
#203 = LINE ( 'NONE', #7, #85 ) ;
#204 = DIRECTION ( 'NONE',  ( 1.000000000000000000, 0.000000000000000000, 0.000000000000000000 ) ) ;
#205 = CARTESIAN_POINT ( 'NONE',  ( 7.000000000000001776, 0.000000000000000000, 1.199999999999999956 ) ) ;
#206 = LOCAL_TIME ( 12, 11, 24.00000000000000000, #209 ) ;
#207 = EDGE_CURVE ( 'NONE', #160, #382, #158, .T. ) ;
#208 = PERSON_AND_ORGANIZATION ( #264, #10 ) ;
#209 = COORDINATED_UNIVERSAL_TIME_OFFSET ( 5, 0, .BEHIND. ) ;
#210 = CARTESIAN_POINT ( 'NONE',  ( -7.000000000000001776, -5.500000000000000000, 1.199999999999999956 ) ) ;
#211 = COORDINATED_UNIVERSAL_TIME_OFFSET ( 5, 0, .BEHIND. ) ;
#212 = EDGE_CURVE ( 'NONE', #60, #160, #385, .T. ) ;
#213 = CARTESIAN_POINT ( 'NONE',  ( 7.000000000000001776, 0.000000000000000000, -1.199999999999999956 ) ) ;
#214 = CIRCLE ( 'NONE', #199, 3.500000000000000000 ) ;
#215 = APPROVAL_DATE_TIME ( #144, #97 ) ;
#216 = CYLINDRICAL_SURFACE ( 'NONE', #247, 2.552699999999999747 ) ;
#217 = VERTEX_POINT ( 'NONE', #286 ) ;
#218 = CC_DESIGN_DATE_AND_TIME_ASSIGNMENT ( #107, #280, ( #290 ) ) ;
#219 = CARTESIAN_POINT ( 'NONE',  ( -3.500000000000000000, 4.286263797015736595E-16, -2.199999999999999734 ) ) ;
#220 = EDGE_LOOP ( 'NONE', ( #411, #195, #29, #392 ) ) ;
#221 = CYLINDRICAL_SURFACE ( 'NONE', #143, 5.499999999999999112 ) ;
#222 = ORIENTED_EDGE ( 'NONE', *, *, #361, .T. ) ;
#223 = FACE_OUTER_BOUND ( 'NONE', #129, .T. ) ;
#224 = PRODUCT_RELATED_PRODUCT_CATEGORY ( 'detail', '', ( #133 ) ) ;
#225 = EDGE_LOOP ( 'NONE', ( #52, #328 ) ) ;
#226 = DIRECTION ( 'NONE',  ( -0.000000000000000000, -0.000000000000000000, -1.000000000000000000 ) ) ;
#227 = VECTOR ( 'NONE', #40, 1000.000000000000000 ) ;
#228 = VERTEX_POINT ( 'NONE', #423 ) ;
#229 = VERTEX_POINT ( 'NONE', #256 ) ;
#230 = DIRECTION ( 'NONE',  ( 0.000000000000000000, 0.000000000000000000, 1.000000000000000000 ) ) ;
#231 = CC_DESIGN_SECURITY_CLASSIFICATION ( #290, ( #78 ) ) ;
#232 = DIRECTION ( 'NONE',  ( -0.000000000000000000, -0.000000000000000000, 1.000000000000000000 ) ) ;
#233 = UNCERTAINTY_MEASURE_WITH_UNIT (LENGTH_MEASURE( 1.000000000000000082E-05 ), #302, 'distance_accuracy_value', 'NONE');
#234 = FACE_BOUND ( 'NONE', #196, .T. ) ;
#235 = LINE ( 'NONE', #8, #327 ) ;
#236 = DIRECTION ( 'NONE',  ( 1.000000000000000000, 0.000000000000000000, 0.000000000000000000 ) ) ;
#237 = EDGE_CURVE ( 'NONE', #362, #250, #307, .T. ) ;
#238 = CARTESIAN_POINT ( 'NONE',  ( 0.000000000000000000, 0.000000000000000000, 1.200000000000000622 ) ) ;
#239 = DIRECTION ( 'NONE',  ( -0.000000000000000000, -0.000000000000000000, 1.000000000000000000 ) ) ;
#240 = CIRCLE ( 'NONE', #173, 5.500000000000000000 ) ;
#241 = APPLICATION_PROTOCOL_DEFINITION ( 'international standard', 'config_control_design', 1994, #135 ) ;
#242 = DIRECTION ( 'NONE',  ( -1.000000000000000000, 0.000000000000000000, 0.000000000000000000 ) ) ;
#243 = ADVANCED_FACE ( 'NONE', ( #24 ), #216, .F. ) ;
#244 = CALENDAR_DATE ( 2021, 3, 6 ) ;
#245 = CARTESIAN_POINT ( 'NONE',  ( -12.50000000000000000, 0.000000000000000000, -1.199999999999999956 ) ) ;
#246 = PERSON_AND_ORGANIZATION ( #264, #10 ) ;
#247 = AXIS2_PLACEMENT_3D ( 'NONE', #48, #388, #252 ) ;
#248 = SHAPE_DEFINITION_REPRESENTATION ( #63, #188 ) ;
#249 = AXIS2_PLACEMENT_3D ( 'NONE', #38, #401, #310 ) ;
#250 = VERTEX_POINT ( 'NONE', #322 ) ;
#251 = APPROVAL_PERSON_ORGANIZATION ( #376, #275, #176 ) ;
#252 = DIRECTION ( 'NONE',  ( 1.000000000000000000, 0.000000000000000000, 0.000000000000000000 ) ) ;
#253 = PLANE ( 'NONE',  #70 ) ;
#254 = CIRCLE ( 'NONE', #152, 2.552700000000000635 ) ;
#255 = ORIENTED_EDGE ( 'NONE', *, *, #361, .F. ) ;
#256 = CARTESIAN_POINT ( 'NONE',  ( 3.500000000000000000, 0.000000000000000000, -1.199999999999999956 ) ) ;
#257 = ORIENTED_EDGE ( 'NONE', *, *, #285, .T. ) ;
#258 = CARTESIAN_POINT ( 'NONE',  ( -7.000000000000001776, 5.500000000000000000, -1.199999999999999956 ) ) ;
#259 = ORIENTED_EDGE ( 'NONE', *, *, #37, .F. ) ;
#260 = ADVANCED_FACE ( 'NONE', ( #113, #194 ), #253, .T. ) ;
#261 = ORIENTED_EDGE ( 'NONE', *, *, #415, .T. ) ;
#262 = CARTESIAN_POINT ( 'NONE',  ( -7.000000000000001776, 0.000000000000000000, 1.199999999999999956 ) ) ;
#263 = VERTEX_POINT ( 'NONE', #186 ) ;
#264 = PERSON ( 'UNSPECIFIED', 'UNSPECIFIED', 'UNSPECIFIED', ('UNSPECIFIED'), ('UNSPECIFIED'), ('UNSPECIFIED') ) ;
#265 = DIRECTION ( 'NONE',  ( -0.000000000000000000, -0.000000000000000000, -1.000000000000000000 ) ) ;
#266 = APPROVAL_PERSON_ORGANIZATION ( #412, #76, #75 ) ;
#267 = CARTESIAN_POINT ( 'NONE',  ( 7.000000000000000888, -5.500000000000000000, 1.199999999999999956 ) ) ;
#268 = CARTESIAN_POINT ( 'NONE',  ( 0.000000000000000000, 0.000000000000000000, 1.200000000000000622 ) ) ;
#269 = EDGE_CURVE ( 'NONE', #25, #44, #84, .T. ) ;
#270 = CARTESIAN_POINT ( 'NONE',  ( 7.000000000000001776, 5.500000000000000000, 1.199999999999999956 ) ) ;
#271 = CIRCLE ( 'NONE', #45, 3.500000000000000000 ) ;
#272 = PERSON_AND_ORGANIZATION ( #264, #10 ) ;
#273 = CARTESIAN_POINT ( 'NONE',  ( -7.000000000000001776, 0.000000000000000000, -1.199999999999999956 ) ) ;
#274 = DIRECTION ( 'NONE',  ( 1.000000000000000000, 0.000000000000000000, 0.000000000000000000 ) ) ;
#275 = APPROVAL ( #79, 'UNSPECIFIED' ) ;
#276 = AXIS2_PLACEMENT_3D ( 'NONE', #213, #155, #18 ) ;
#277 = PERSON_AND_ORGANIZATION_ROLE ( 'creator' ) ;
#278 = DIRECTION ( 'NONE',  ( -1.000000000000000000, -0.000000000000000000, -0.000000000000000000 ) ) ;
#279 = CC_DESIGN_PERSON_AND_ORGANIZATION_ASSIGNMENT ( #409, #112, ( #290 ) ) ;
#280 = DATE_TIME_ROLE ( 'classification_date' ) ;
#281 = ORIENTED_EDGE ( 'NONE', *, *, #318, .F. ) ;
#282 = PERSON_AND_ORGANIZATION ( #264, #10 ) ;
#283 = ORIENTED_EDGE ( 'NONE', *, *, #166, .F. ) ;
#284 = AXIS2_PLACEMENT_3D ( 'NONE', #20, #291, #89 ) ;
#285 = EDGE_CURVE ( 'NONE', #263, #22, #15, .T. ) ;
#286 = CARTESIAN_POINT ( 'NONE',  ( -3.500000000000000000, 4.286263797015736595E-16, -1.199999999999999956 ) ) ;
#287 = ORIENTED_EDGE ( 'NONE', *, *, #422, .T. ) ;
#288 = DIRECTION ( 'NONE',  ( -0.000000000000000000, -0.000000000000000000, 1.000000000000000000 ) ) ;
#289 = ADVANCED_FACE ( 'NONE', ( #19 ), #221, .T. ) ;
#290 = SECURITY_CLASSIFICATION ( '', '', #317 ) ;
#291 = DIRECTION ( 'NONE',  ( 0.000000000000000000, 0.000000000000000000, -1.000000000000000000 ) ) ;
#292 = ORIENTED_EDGE ( 'NONE', *, *, #207, .T. ) ;
#293 = DIRECTION ( 'NONE',  ( 0.000000000000000000, 0.000000000000000000, 1.000000000000000000 ) ) ;
#294 = AXIS2_PLACEMENT_3D ( 'NONE', #11, #106, #404 ) ;
#295 = ORIENTED_EDGE ( 'NONE', *, *, #37, .T. ) ;
#296 = FACE_BOUND ( 'NONE', #86, .T. ) ;
#297 = ORIENTED_EDGE ( 'NONE', *, *, #115, .F. ) ;
#298 = DIRECTION ( 'NONE',  ( -0.000000000000000000, -0.000000000000000000, -1.000000000000000000 ) ) ;
#299 = CC_DESIGN_APPROVAL ( #275, ( #355 ) ) ;
#300 = EDGE_CURVE ( 'NONE', #362, #1, #187, .T. ) ;
#301 = ORIENTED_EDGE ( 'NONE', *, *, #380, .F. ) ;
#302 =( LENGTH_UNIT ( ) NAMED_UNIT ( * ) SI_UNIT ( .MILLI., .METRE. ) );
#303 = CC_DESIGN_PERSON_AND_ORGANIZATION_ASSIGNMENT ( #282, #179, ( #78 ) ) ;
#304 = CARTESIAN_POINT ( 'NONE',  ( -2.552700000000001079, 3.126155884183449733E-16, 1.200000000000000622 ) ) ;
#305 =( NAMED_UNIT ( * ) PLANE_ANGLE_UNIT ( ) SI_UNIT ( $, .RADIAN. ) );
#306 = LINE ( 'NONE', #267, #316 ) ;
#307 = CIRCLE ( 'NONE', #349, 2.552699999999999303 ) ;
#308 = CARTESIAN_POINT ( 'NONE',  ( 0.000000000000000000, 0.000000000000000000, -2.199999999999999734 ) ) ;
#309 = DATE_AND_TIME ( #315, #172 ) ;
#310 = DIRECTION ( 'NONE',  ( 1.000000000000000000, 0.000000000000000000, 0.000000000000000000 ) ) ;
#311 = CARTESIAN_POINT ( 'NONE',  ( 2.552699999999999747, 0.000000000000000000, 1.199999999999999956 ) ) ;
#312 = COORDINATED_UNIVERSAL_TIME_OFFSET ( 5, 0, .BEHIND. ) ;
#313 = DIRECTION ( 'NONE',  ( -1.000000000000000000, 0.000000000000000000, 0.000000000000000000 ) ) ;
#314 = LOCAL_TIME ( 12, 11, 24.00000000000000000, #141 ) ;
#315 = CALENDAR_DATE ( 2021, 3, 6 ) ;
#316 = VECTOR ( 'NONE', #372, 1000.000000000000000 ) ;
#317 = SECURITY_CLASSIFICATION_LEVEL ( 'unclassified' ) ;
#318 = EDGE_CURVE ( 'NONE', #160, #147, #240, .T. ) ;
#319 = ORIENTED_EDGE ( 'NONE', *, *, #83, .F. ) ;
#320 = VECTOR ( 'NONE', #265, 1000.000000000000000 ) ;
#321 = CARTESIAN_POINT ( 'NONE',  ( 0.000000000000000000, 0.000000000000000000, -2.199999999999999734 ) ) ;
#322 = CARTESIAN_POINT ( 'NONE',  ( 2.552699999999999303, 0.000000000000000000, -2.199999999999999734 ) ) ;
#323 = CARTESIAN_POINT ( 'NONE',  ( -7.000000000000001776, 0.000000000000000000, 1.199999999999999956 ) ) ;
#324 = ORIENTED_EDGE ( 'NONE', *, *, #102, .T. ) ;
#325 = LOCAL_TIME ( 12, 11, 24.00000000000000000, #9 ) ;
#326 = VERTEX_POINT ( 'NONE', #245 ) ;
#327 = VECTOR ( 'NONE', #408, 1000.000000000000000 ) ;
#328 = ORIENTED_EDGE ( 'NONE', *, *, #237, .T. ) ;
#329 = EDGE_CURVE ( 'NONE', #424, #420, #368, .T. ) ;
#330 = ORIENTED_EDGE ( 'NONE', *, *, #192, .T. ) ;
#331 = DIRECTION ( 'NONE',  ( 1.000000000000000000, 0.000000000000000000, 0.000000000000000000 ) ) ;
#332 = CIRCLE ( 'NONE', #393, 2.552700000000000635 ) ;
#333 = ORIENTED_EDGE ( 'NONE', *, *, #397, .F. ) ;
#334 = FACE_OUTER_BOUND ( 'NONE', #80, .T. ) ;
#335 = CIRCLE ( 'NONE', #104, 5.500000000000000000 ) ;
#336 = ADVANCED_FACE ( 'NONE', ( #419 ), #162, .F. ) ;
#337 = CYLINDRICAL_SURFACE ( 'NONE', #345, 3.500000000000000000 ) ;
#338 = DIRECTION ( 'NONE',  ( 1.000000000000000000, 0.000000000000000000, -0.000000000000000000 ) ) ;
#339 = DIRECTION ( 'NONE',  ( -0.000000000000000000, -0.000000000000000000, -1.000000000000000000 ) ) ;
#340 = CARTESIAN_POINT ( 'NONE',  ( -7.000000000000001776, 0.000000000000000000, -1.199999999999999956 ) ) ;
#341 = AXIS2_PLACEMENT_3D ( 'NONE', #121, #358, #117 ) ;
#342 = FACE_OUTER_BOUND ( 'NONE', #180, .T. ) ;
#343 = APPROVAL_ROLE ( '' ) ;
#344 = CARTESIAN_POINT ( 'NONE',  ( -7.000000000000001776, 5.500000000000000000, 1.199999999999999956 ) ) ;
#345 = AXIS2_PLACEMENT_3D ( 'NONE', #138, #171, #108 ) ;
#346 = PERSON_AND_ORGANIZATION_ROLE ( 'creator' ) ;
#347 = CARTESIAN_POINT ( 'NONE',  ( -7.000000000000001776, -5.500000000000000000, -1.199999999999999956 ) ) ;
#348 = PERSON_AND_ORGANIZATION ( #264, #10 ) ;
#349 = AXIS2_PLACEMENT_3D ( 'NONE', #321, #184, #383 ) ;
#350 = EDGE_LOOP ( 'NONE', ( #167, #130, #295, #416 ) ) ;
#351 = APPROVAL_STATUS ( 'not_yet_approved' ) ;
#352 = ADVANCED_FACE ( 'NONE', ( #223 ), #81, .T. ) ;
#353 = CIRCLE ( 'NONE', #159, 2.552699999999999303 ) ;
#354 = CARTESIAN_POINT ( 'NONE',  ( -7.000000000000001776, 5.500000000000000000, 1.199999999999999956 ) ) ;
#355 = PRODUCT_DEFINITION ( 'UNKNOWN', '', #78, #65 ) ;
#356 = DIRECTION ( 'NONE',  ( 1.000000000000000000, 0.000000000000000000, 0.000000000000000000 ) ) ;
#357 = DIRECTION ( 'NONE',  ( 0.000000000000000000, 0.000000000000000000, -1.000000000000000000 ) ) ;
#358 = DIRECTION ( 'NONE',  ( 0.000000000000000000, -1.000000000000000000, 0.000000000000000000 ) ) ;
#359 = EDGE_LOOP ( 'NONE', ( #255, #281, #292, #324 ) ) ;
#360 = CC_DESIGN_APPROVAL ( #97, ( #78 ) ) ;
#361 = EDGE_CURVE ( 'NONE', #147, #326, #168, .T. ) ;
#362 = VERTEX_POINT ( 'NONE', #66 ) ;
#363 = CARTESIAN_POINT ( 'NONE',  ( 0.000000000000000000, 0.000000000000000000, -1.199999999999999956 ) ) ;
#364 = ORIENTED_EDGE ( 'NONE', *, *, #185, .F. ) ;
#365 = CARTESIAN_POINT ( 'NONE',  ( 0.000000000000000000, 0.000000000000000000, 0.000000000000000000 ) ) ;
#366 = EDGE_LOOP ( 'NONE', ( #189, #123, #164, #301, #297 ) ) ;
#367 = DIRECTION ( 'NONE',  ( 1.000000000000000000, 0.000000000000000000, -0.000000000000000000 ) ) ;
#368 = CIRCLE ( 'NONE', #284, 3.500000000000000000 ) ;
#369 = DIRECTION ( 'NONE',  ( -0.000000000000000000, -0.000000000000000000, 1.000000000000000000 ) ) ;
#370 = DIRECTION ( 'NONE',  ( -0.000000000000000000, -0.000000000000000000, 1.000000000000000000 ) ) ;
#371 = CYLINDRICAL_SURFACE ( 'NONE', #26, 3.500000000000000000 ) ;
#372 = DIRECTION ( 'NONE',  ( -0.000000000000000000, -0.000000000000000000, -1.000000000000000000 ) ) ;
#373 = APPROVAL_DATE_TIME ( #114, #275 ) ;
#374 = AXIS2_PLACEMENT_3D ( 'NONE', #262, #226, #402 ) ;
#375 = FACE_OUTER_BOUND ( 'NONE', #193, .T. ) ;
#376 = PERSON_AND_ORGANIZATION ( #264, #10 ) ;
#377 = DIRECTION ( 'NONE',  ( -0.000000000000000000, -0.000000000000000000, -1.000000000000000000 ) ) ;
#378 = CALENDAR_DATE ( 2021, 3, 6 ) ;
#379 = CARTESIAN_POINT ( 'NONE',  ( 0.000000000000000000, 0.000000000000000000, -2.199999999999999734 ) ) ;
#380 = EDGE_CURVE ( 'NONE', #94, #263, #126, .T. ) ;
#381 = DATE_TIME_ROLE ( 'creation_date' ) ;
#382 = VERTEX_POINT ( 'NONE', #258 ) ;
#383 = DIRECTION ( 'NONE',  ( 1.000000000000000000, 0.000000000000000000, 0.000000000000000000 ) ) ;
#384 = ADVANCED_FACE ( 'NONE', ( #234, #62 ), #105, .F. ) ;
#385 = LINE ( 'NONE', #354, #191 ) ;
#386 = ORIENTED_EDGE ( 'NONE', *, *, #5, .F. ) ;
#387 = APPLICATION_CONTEXT ( 'configuration controlled 3d designs of mechanical parts and assemblies' ) ;
#388 = DIRECTION ( 'NONE',  ( -0.000000000000000000, -0.000000000000000000, 1.000000000000000000 ) ) ;
#389 = ORIENTED_EDGE ( 'NONE', *, *, #207, .F. ) ;
#390 = DIRECTION ( 'NONE',  ( -1.000000000000000000, 0.000000000000000000, 0.000000000000000000 ) ) ;
#391 = EDGE_CURVE ( 'NONE', #217, #229, #214, .T. ) ;
#392 = ORIENTED_EDGE ( 'NONE', *, *, #161, .F. ) ;
#393 = AXIS2_PLACEMENT_3D ( 'NONE', #268, #370, #430 ) ;
#394 = CARTESIAN_POINT ( 'NONE',  ( -7.000000000000001776, 0.000000000000000000, 1.199999999999999956 ) ) ;
#395 = ORIENTED_EDGE ( 'NONE', *, *, #73, .F. ) ;
#396 = EDGE_LOOP ( 'NONE', ( #14, #32, #16, #261, #157 ) ) ;
#397 = EDGE_CURVE ( 'NONE', #229, #217, #427, .T. ) ;
#398 = CARTESIAN_POINT ( 'NONE',  ( -12.50000000000000000, 0.000000000000000000, 1.199999999999999956 ) ) ;
#399 = ORIENTED_EDGE ( 'NONE', *, *, #93, .F. ) ;
#400 = DIRECTION ( 'NONE',  ( -0.000000000000000000, -0.000000000000000000, -1.000000000000000000 ) ) ;
#401 = DIRECTION ( 'NONE',  ( 0.000000000000000000, 0.000000000000000000, 1.000000000000000000 ) ) ;
#402 = DIRECTION ( 'NONE',  ( -1.000000000000000000, 0.000000000000000000, 0.000000000000000000 ) ) ;
#403 = CIRCLE ( 'NONE', #294, 5.500000000000000000 ) ;
#404 = DIRECTION ( 'NONE',  ( 1.000000000000000000, 0.000000000000000000, 0.000000000000000000 ) ) ;
#405 = ADVANCED_FACE ( 'NONE', ( #296, #68 ), #134, .T. ) ;
#406 = DIRECTION ( 'NONE',  ( 0.000000000000000000, 0.000000000000000000, 1.000000000000000000 ) ) ;
#407 = CIRCLE ( 'NONE', #156, 5.499999999999999112 ) ;
#408 = DIRECTION ( 'NONE',  ( -0.000000000000000000, -0.000000000000000000, -1.000000000000000000 ) ) ;
#409 = PERSON_AND_ORGANIZATION ( #264, #10 ) ;
#410 = CLOSED_SHELL ( 'NONE', ( #243, #47, #352, #289, #21, #127, #336, #405, #384, #31, #260, #428 ) ) ;
#411 = ORIENTED_EDGE ( 'NONE', *, *, #237, .F. ) ;
#412 = PERSON_AND_ORGANIZATION ( #264, #10 ) ;
#413 = ORIENTED_EDGE ( 'NONE', *, *, #415, .F. ) ;
#414 = DIRECTION ( 'NONE',  ( -0.000000000000000000, -0.000000000000000000, 1.000000000000000000 ) ) ;
#415 = EDGE_CURVE ( 'NONE', #44, #60, #407, .T. ) ;
#416 = ORIENTED_EDGE ( 'NONE', *, *, #397, .T. ) ;
#417 = ORIENTED_EDGE ( 'NONE', *, *, #380, .T. ) ;
#418 = CC_DESIGN_APPROVAL ( #76, ( #290 ) ) ;
#419 = FACE_OUTER_BOUND ( 'NONE', #46, .T. ) ;
#420 = VERTEX_POINT ( 'NONE', #59 ) ;
#421 = AXIS2_PLACEMENT_3D ( 'NONE', #205, #339, #242 ) ;
#422 = EDGE_CURVE ( 'NONE', #228, #1, #332, .T. ) ;
#423 = CARTESIAN_POINT ( 'NONE',  ( 2.552700000000000635, 0.000000000000000000, 1.200000000000000622 ) ) ;
#424 = VERTEX_POINT ( 'NONE', #95 ) ;
#425 = MECHANICAL_CONTEXT ( 'NONE', #387, 'mechanical' ) ;
#426 = ORIENTED_EDGE ( 'NONE', *, *, #198, .T. ) ;
#427 = CIRCLE ( 'NONE', #53, 3.500000000000000000 ) ;
#428 = ADVANCED_FACE ( 'NONE', ( #334 ), #137, .F. ) ;
#429 = ORIENTED_EDGE ( 'NONE', *, *, #5, .T. ) ;
#430 = DIRECTION ( 'NONE',  ( 1.000000000000000000, 0.000000000000000000, 0.000000000000000000 ) ) ;
ENDSEC;
END-ISO-10303-21;
