ISO-10303-21;
HEADER;
FILE_DESCRIPTION (( 'STEP AP203' ),
    '1' );
FILE_NAME ('151096.step',
    '2021-06-03T16:17:42',
    ( '' ),
    ( '' ),
    'SwSTEP 2.0',
    'SolidWorks 2021',
    '' );
FILE_SCHEMA (( 'CONFIG_CONTROL_DESIGN' ));
ENDSEC;

DATA;
#1 = VERTEX_POINT ( 'NONE', #119 ) ;
#2 = CARTESIAN_POINT ( 'NONE',  ( 0.000000000000000000, 3.500000000000000000, 3.500000000000000000 ) ) ;
#3 = CARTESIAN_POINT ( 'NONE',  ( 0.000000000000000000, 5.000000000000000000, -4.500000000000000000 ) ) ;
#4 = ORIENTED_EDGE ( 'NONE', *, *, #412, .T. ) ;
#5 = AXIS2_PLACEMENT_3D ( 'NONE', #428, #200, #133 ) ;
#6 = DIRECTION ( 'NONE',  ( 0.000000000000000000, 0.000000000000000000, -1.000000000000000000 ) ) ;
#7 = LINE ( 'NONE', #276, #347 ) ;
#8 = VERTEX_POINT ( 'NONE', #20 ) ;
#9 = PERSON_AND_ORGANIZATION ( #140, #353 ) ;
#10 = AXIS2_PLACEMENT_3D ( 'NONE', #375, #71, #301 ) ;
#11 = DIRECTION ( 'NONE',  ( 0.000000000000000000, 0.000000000000000000, -1.000000000000000000 ) ) ;
#12 = DIRECTION ( 'NONE',  ( -0.000000000000000000, 1.000000000000000000, -0.000000000000000000 ) ) ;
#13 = CALENDAR_DATE ( 2021, 3, 6 ) ;
#14 = VECTOR ( 'NONE', #229, 1000.000000000000000 ) ;
#15 = ORIENTED_EDGE ( 'NONE', *, *, #257, .T. ) ;
#16 = DATE_AND_TIME ( #13, #282 ) ;
#17 = LOCAL_TIME ( 12, 17, 42.00000000000000000, #414 ) ;
#18 = CC_DESIGN_PERSON_AND_ORGANIZATION_ASSIGNMENT ( #70, #205, ( #300 ) ) ;
#19 = PLANE ( 'NONE',  #166 ) ;
#20 = CARTESIAN_POINT ( 'NONE',  ( 5.510910596163090542E-16, 3.500000000000000000, 0.000000000000000000 ) ) ;
#21 = AXIS2_PLACEMENT_3D ( 'NONE', #3, #41, #174 ) ;
#22 = EDGE_CURVE ( 'NONE', #383, #240, #247, .T. ) ;
#23 = VERTEX_POINT ( 'NONE', #410 ) ;
#24 = VECTOR ( 'NONE', #115, 1000.000000000000000 ) ;
#25 = CARTESIAN_POINT ( 'NONE',  ( 0.000000000000000000, 5.000000000000000000, -4.500000000000000000 ) ) ;
#26 = DIRECTION ( 'NONE',  ( 0.000000000000000000, -1.000000000000000000, 0.000000000000000000 ) ) ;
#27 = AXIS2_PLACEMENT_3D ( 'NONE', #329, #26, #363 ) ;
#28 = CYLINDRICAL_SURFACE ( 'NONE', #232, 16.00000000000000000 ) ;
#29 = LINE ( 'NONE', #299, #266 ) ;
#30 = CC_DESIGN_PERSON_AND_ORGANIZATION_ASSIGNMENT ( #280, #186, ( #127 ) ) ;
#31 = AXIS2_PLACEMENT_3D ( 'NONE', #138, #267, #345 ) ;
#32 = CARTESIAN_POINT ( 'NONE',  ( -8.000000000000000000, 3.500000000000000000, -10.35640646055101932 ) ) ;
#33 = DIRECTION ( 'NONE',  ( -0.000000000000000000, 1.000000000000000000, -0.000000000000000000 ) ) ;
#34 = CARTESIAN_POINT ( 'NONE',  ( 0.000000000000000000, 5.000000000000000000, -4.500000000000000000 ) ) ;
#35 = VECTOR ( 'NONE', #403, 1000.000000000000000 ) ;
#36 = EDGE_LOOP ( 'NONE', ( #52, #279, #85, #167 ) ) ;
#37 = DIRECTION ( 'NONE',  ( 0.000000000000000000, -1.000000000000000000, 0.000000000000000000 ) ) ;
#38 = ORIENTED_EDGE ( 'NONE', *, *, #82, .F. ) ;
#39 = CARTESIAN_POINT ( 'NONE',  ( 0.000000000000000000, 0.000000000000000000, 3.500000000000000000 ) ) ;
#40 = APPLICATION_PROTOCOL_DEFINITION ( 'international standard', 'config_control_design', 1994, #87 ) ;
#41 = DIRECTION ( 'NONE',  ( -0.000000000000000000, 1.000000000000000000, -0.000000000000000000 ) ) ;
#42 = AXIS2_PLACEMENT_3D ( 'NONE', #2, #343, #135 ) ;
#43 = CARTESIAN_POINT ( 'NONE',  ( 3.997124687737044222E-16, 0.000000000000000000, -7.763899999999997803 ) ) ;
#44 = DIRECTION ( 'NONE',  ( 0.000000000000000000, 0.000000000000000000, -1.000000000000000000 ) ) ;
#45 = ADVANCED_FACE ( 'NONE', ( #214, #348 ), #19, .T. ) ;
#46 = EDGE_LOOP ( 'NONE', ( #272, #170, #352, #165 ) ) ;
#47 = APPROVAL_ROLE ( '' ) ;
#48 = DIRECTION ( 'NONE',  ( -0.000000000000000000, 1.000000000000000000, -0.000000000000000000 ) ) ;
#49 = AXIS2_PLACEMENT_3D ( 'NONE', #260, #391, #387 ) ;
#50 = ORIENTED_EDGE ( 'NONE', *, *, #82, .T. ) ;
#51 = DATE_AND_TIME ( #79, #206 ) ;
#52 = ORIENTED_EDGE ( 'NONE', *, *, #390, .T. ) ;
#53 = APPROVAL_STATUS ( 'not_yet_approved' ) ;
#54 = CIRCLE ( 'NONE', #404, 3.263899999999998247 ) ;
#55 = EDGE_LOOP ( 'NONE', ( #430, #270, #356, #384 ) ) ;
#56 = PLANE ( 'NONE',  #27 ) ;
#57 = DIRECTION ( 'NONE',  ( 0.000000000000000000, 0.000000000000000000, 1.000000000000000000 ) ) ;
#58 = EDGE_CURVE ( 'NONE', #67, #23, #283, .T. ) ;
#59 = DIRECTION ( 'NONE',  ( -1.000000000000000000, 0.000000000000000000, 0.000000000000000000 ) ) ;
#60 = CARTESIAN_POINT ( 'NONE',  ( 0.000000000000000000, 0.000000000000000000, -12.50000000000000000 ) ) ;
#61 = EDGE_CURVE ( 'NONE', #284, #371, #160, .T. ) ;
#62 = PLANE ( 'NONE',  #268 ) ;
#63 = VECTOR ( 'NONE', #394, 1000.000000000000000 ) ;
#64 = CARTESIAN_POINT ( 'NONE',  ( 0.000000000000000000, 0.000000000000000000, 3.500000000000000000 ) ) ;
#65 = DIRECTION ( 'NONE',  ( 0.000000000000000000, -1.000000000000000000, 0.000000000000000000 ) ) ;
#66 = ADVANCED_FACE ( 'NONE', ( #364, #422 ), #62, .T. ) ;
#67 = VERTEX_POINT ( 'NONE', #96 ) ;
#68 = PERSON_AND_ORGANIZATION_ROLE ( 'design_owner' ) ;
#69 = ORIENTED_EDGE ( 'NONE', *, *, #379, .T. ) ;
#70 = PERSON_AND_ORGANIZATION ( #140, #353 ) ;
#71 = DIRECTION ( 'NONE',  ( 1.000000000000000000, 0.000000000000000000, 0.000000000000000000 ) ) ;
#72 = CC_DESIGN_SECURITY_CLASSIFICATION ( #127, ( #94 ) ) ;
#73 = EDGE_LOOP ( 'NONE', ( #137, #406, #395, #350 ) ) ;
#74 = CARTESIAN_POINT ( 'NONE',  ( 0.000000000000000000, 5.000000000000000000, -4.500000000000000000 ) ) ;
#75 = DIRECTION ( 'NONE',  ( 0.000000000000000000, 0.000000000000000000, 1.000000000000000000 ) ) ;
#76 = CARTESIAN_POINT ( 'NONE',  ( 0.000000000000000000, 5.000000000000000000, -4.500000000000000000 ) ) ;
#77 = EDGE_LOOP ( 'NONE', ( #336, #50 ) ) ;
#78 = LOCAL_TIME ( 12, 17, 42.00000000000000000, #429 ) ;
#79 = CALENDAR_DATE ( 2021, 3, 6 ) ;
#80 = CIRCLE ( 'NONE', #327, 3.263899999999998247 ) ;
#81 = FACE_OUTER_BOUND ( 'NONE', #148, .T. ) ;
#82 = EDGE_CURVE ( 'NONE', #382, #152, #80, .T. ) ;
#83 = CARTESIAN_POINT ( 'NONE',  ( 0.000000000000000000, 5.000000000000000000, -4.500000000000000000 ) ) ;
#84 = PRODUCT_DEFINITION_SHAPE ( 'NONE', 'NONE',  #300 ) ;
#85 = ORIENTED_EDGE ( 'NONE', *, *, #217, .F. ) ;
#86 = COORDINATED_UNIVERSAL_TIME_OFFSET ( 5, 0, .BEHIND. ) ;
#87 = APPLICATION_CONTEXT ( 'configuration controlled 3d designs of mechanical parts and assemblies' ) ;
#88 = ORIENTED_EDGE ( 'NONE', *, *, #217, .T. ) ;
#89 = APPROVAL_DATE_TIME ( #285, #101 ) ;
#90 = AXIS2_PLACEMENT_3D ( 'NONE', #74, #310, #75 ) ;
#91 = PRODUCT_RELATED_PRODUCT_CATEGORY ( 'detail', '', ( #315 ) ) ;
#92 = VERTEX_POINT ( 'NONE', #389 ) ;
#93 = CALENDAR_DATE ( 2021, 3, 6 ) ;
#94 = PRODUCT_DEFINITION_FORMATION_WITH_SPECIFIED_SOURCE ( 'ANY', '', #315, .NOT_KNOWN. ) ;
#95 = AXIS2_PLACEMENT_3D ( 'NONE', #83, #12, #250 ) ;
#96 = CARTESIAN_POINT ( 'NONE',  ( 0.000000000000000000, 5.000000000000000000, -1.236100000000000865 ) ) ;
#97 = DIRECTION ( 'NONE',  ( -0.000000000000000000, 1.000000000000000000, -0.000000000000000000 ) ) ;
#98 = CC_DESIGN_PERSON_AND_ORGANIZATION_ASSIGNMENT ( #9, #351, ( #94 ) ) ;
#99 = CARTESIAN_POINT ( 'NONE',  ( 0.000000000000000000, 0.000000000000000000, -3.500000000000000000 ) ) ;
#100 = LINE ( 'NONE', #124, #14 ) ;
#101 = APPROVAL ( #53, 'UNSPECIFIED' ) ;
#102 = AXIS2_PLACEMENT_3D ( 'NONE', #39, #337, #171 ) ;
#103 = ORIENTED_EDGE ( 'NONE', *, *, #379, .F. ) ;
#104 = CARTESIAN_POINT ( 'NONE',  ( 0.000000000000000000, 3.500000000000000000, -12.50000000000000000 ) ) ;
#105 = VERTEX_POINT ( 'NONE', #234 ) ;
#106 = AXIS2_PLACEMENT_3D ( 'NONE', #145, #278, #11 ) ;
#107 = EDGE_LOOP ( 'NONE', ( #319, #253, #251, #172 ) ) ;
#108 = ADVANCED_FACE ( 'NONE', ( #326 ), #163, .T. ) ;
#109 = PERSON_AND_ORGANIZATION ( #140, #353 ) ;
#110 =( NAMED_UNIT ( * ) SI_UNIT ( $, .STERADIAN. ) SOLID_ANGLE_UNIT ( ) );
#111 = DIRECTION ( 'NONE',  ( 0.000000000000000000, 1.000000000000000000, 0.000000000000000000 ) ) ;
#112 = AXIS2_PLACEMENT_3D ( 'NONE', #99, #231, #362 ) ;
#113 = VERTEX_POINT ( 'NONE', #32 ) ;
#114 = EDGE_CURVE ( 'NONE', #1, #366, #100, .T. ) ;
#115 = DIRECTION ( 'NONE',  ( 0.000000000000000000, 0.000000000000000000, -1.000000000000000000 ) ) ;
#116 = ORIENTED_EDGE ( 'NONE', *, *, #390, .F. ) ;
#117 = DATE_TIME_ROLE ( 'classification_date' ) ;
#118 = ORIENTED_EDGE ( 'NONE', *, *, #322, .T. ) ;
#119 = CARTESIAN_POINT ( 'NONE',  ( -8.000000000000000000, 3.500000000000000000, 10.35640646055101932 ) ) ;
#120 = CC_DESIGN_PERSON_AND_ORGANIZATION_ASSIGNMENT ( #189, #355, ( #94 ) ) ;
#121 = CIRCLE ( 'NONE', #176, 16.00000000000000000 ) ;
#122 = CARTESIAN_POINT ( 'NONE',  ( 0.000000000000000000, 0.000000000000000000, -4.500000000000000000 ) ) ;
#123 = ADVANCED_FACE ( 'NONE', ( #298 ), #426, .F. ) ;
#124 = CARTESIAN_POINT ( 'NONE',  ( -8.000000000000000000, 3.500000000000000000, 10.35640646055101932 ) ) ;
#125 = DIRECTION ( 'NONE',  ( -0.000000000000000000, 1.000000000000000000, -0.000000000000000000 ) ) ;
#126 = CARTESIAN_POINT ( 'NONE',  ( 0.000000000000000000, 5.000000000000000000, -1.236100000000001309 ) ) ;
#127 = SECURITY_CLASSIFICATION ( '', '', #150 ) ;
#128 = CARTESIAN_POINT ( 'NONE',  ( 8.000000000000000000, 3.500000000000000000, -10.35640646055101932 ) ) ;
#129 = CARTESIAN_POINT ( 'NONE',  ( 8.000000000000000000, 0.000000000000000000, 10.35640646055101932 ) ) ;
#130 = AXIS2_PLACEMENT_3D ( 'NONE', #25, #330, #227 ) ;
#131 = DIRECTION ( 'NONE',  ( 0.000000000000000000, -1.000000000000000000, 0.000000000000000000 ) ) ;
#132 = CARTESIAN_POINT ( 'NONE',  ( 5.510910596163090542E-16, 5.000000000000000000, 0.000000000000000000 ) ) ;
#133 = DIRECTION ( 'NONE',  ( 0.000000000000000000, 0.000000000000000000, 1.000000000000000000 ) ) ;
#134 = ORIENTED_EDGE ( 'NONE', *, *, #344, .T. ) ;
#135 = DIRECTION ( 'NONE',  ( 0.000000000000000000, 0.000000000000000000, -1.000000000000000000 ) ) ;
#136 = EDGE_CURVE ( 'NONE', #366, #240, #259, .T. ) ;
#137 = ORIENTED_EDGE ( 'NONE', *, *, #328, .F. ) ;
#138 = CARTESIAN_POINT ( 'NONE',  ( 0.000000000000000000, 0.000000000000000000, 0.000000000000000000 ) ) ;
#139 = DIRECTION ( 'NONE',  ( 0.000000000000000000, 0.000000000000000000, -1.000000000000000000 ) ) ;
#140 = PERSON ( 'UNSPECIFIED', 'UNSPECIFIED', 'UNSPECIFIED', ('UNSPECIFIED'), ('UNSPECIFIED'), ('UNSPECIFIED') ) ;
#141 = ADVANCED_FACE ( 'NONE', ( #359, #192 ), #56, .F. ) ;
#142 = EDGE_LOOP ( 'NONE', ( #381, #4, #88, #182, #118 ) ) ;
#143 = CIRCLE ( 'NONE', #102, 16.00000000000000000 ) ;
#144 = CARTESIAN_POINT ( 'NONE',  ( -8.000000000000000000, 0.000000000000000000, 10.35640646055101932 ) ) ;
#145 = CARTESIAN_POINT ( 'NONE',  ( 0.000000000000000000, 3.500000000000000000, 3.500000000000000000 ) ) ;
#146 = CARTESIAN_POINT ( 'NONE',  ( 5.510910596163090542E-16, 5.000000000000000000, 0.000000000000000000 ) ) ;
#147 = ORIENTED_EDGE ( 'NONE', *, *, #415, .T. ) ;
#148 = EDGE_LOOP ( 'NONE', ( #224, #208, #277, #69 ) ) ;
#149 = LOCAL_TIME ( 12, 17, 42.00000000000000000, #357 ) ;
#150 = SECURITY_CLASSIFICATION_LEVEL ( 'unclassified' ) ;
#151 = ADVANCED_FACE ( 'NONE', ( #331 ), #28, .T. ) ;
#152 = VERTEX_POINT ( 'NONE', #294 ) ;
#153 = ORIENTED_EDGE ( 'NONE', *, *, #58, .F. ) ;
#154 = DIRECTION ( 'NONE',  ( 0.000000000000000000, 0.000000000000000000, -1.000000000000000000 ) ) ;
#155 =( GEOMETRIC_REPRESENTATION_CONTEXT ( 3 ) GLOBAL_UNCERTAINTY_ASSIGNED_CONTEXT ( ( #369 ) ) GLOBAL_UNIT_ASSIGNED_CONTEXT ( ( #306, #242, #110 ) ) REPRESENTATION_CONTEXT ( 'NONE', 'WORKASPACE' ) );
#156 = FACE_OUTER_BOUND ( 'NONE', #46, .T. ) ;
#157 = CC_DESIGN_DATE_AND_TIME_ASSIGNMENT ( #16, #254, ( #300 ) ) ;
#158 = CARTESIAN_POINT ( 'NONE',  ( 0.000000000000000000, 3.500000000000000000, -3.500000000000000000 ) ) ;
#159 = CARTESIAN_POINT ( 'NONE',  ( 0.000000000000000000, 3.500000000000000000, 3.500000000000000000 ) ) ;
#160 = LINE ( 'NONE', #191, #262 ) ;
#161 = DIRECTION ( 'NONE',  ( 0.000000000000000000, -1.000000000000000000, 0.000000000000000000 ) ) ;
#162 = EDGE_CURVE ( 'NONE', #284, #416, #318, .T. ) ;
#163 = CYLINDRICAL_SURFACE ( 'NONE', #408, 4.500000000000000000 ) ;
#164 = CARTESIAN_POINT ( 'NONE',  ( -8.000000000000000000, 3.500000000000000000, -10.35640646055101932 ) ) ;
#165 = ORIENTED_EDGE ( 'NONE', *, *, #58, .T. ) ;
#166 = AXIS2_PLACEMENT_3D ( 'NONE', #286, #288, #179 ) ;
#167 = ORIENTED_EDGE ( 'NONE', *, *, #263, .T. ) ;
#168 = AXIS2_PLACEMENT_3D ( 'NONE', #159, #297, #258 ) ;
#169 = DATE_AND_TIME ( #241, #78 ) ;
#170 = ORIENTED_EDGE ( 'NONE', *, *, #190, .F. ) ;
#171 = DIRECTION ( 'NONE',  ( 0.000000000000000000, 0.000000000000000000, -1.000000000000000000 ) ) ;
#172 = ORIENTED_EDGE ( 'NONE', *, *, #22, .T. ) ;
#173 = APPROVAL_ROLE ( '' ) ;
#174 = DIRECTION ( 'NONE',  ( 0.000000000000000000, 0.000000000000000000, 1.000000000000000000 ) ) ;
#175 = CARTESIAN_POINT ( 'NONE',  ( 8.000000000000000000, 3.500000000000000000, -10.35640646055101932 ) ) ;
#176 = AXIS2_PLACEMENT_3D ( 'NONE', #275, #397, #211 ) ;
#177 = CARTESIAN_POINT ( 'NONE',  ( -8.000000000000000000, 0.000000000000000000, -10.35640646055101932 ) ) ;
#178 = CARTESIAN_POINT ( 'NONE',  ( 8.000000000000000000, 0.000000000000000000, -10.35640646055101932 ) ) ;
#179 = DIRECTION ( 'NONE',  ( 1.000000000000000000, 0.000000000000000000, 0.000000000000000000 ) ) ;
#180 = APPROVAL_ROLE ( '' ) ;
#181 = AXIS2_PLACEMENT_3D ( 'NONE', #128, #59, #57 ) ;
#182 = ORIENTED_EDGE ( 'NONE', *, *, #271, .T. ) ;
#183 = ORIENTED_EDGE ( 'NONE', *, *, #230, .F. ) ;
#184 = EDGE_CURVE ( 'NONE', #185, #307, #210, .T. ) ;
#185 = VERTEX_POINT ( 'NONE', #420 ) ;
#186 = PERSON_AND_ORGANIZATION_ROLE ( 'classification_officer' ) ;
#187 = APPLICATION_CONTEXT ( 'configuration controlled 3d designs of mechanical parts and assemblies' ) ;
#188 = EDGE_LOOP ( 'NONE', ( #325, #204 ) ) ;
#189 = PERSON_AND_ORGANIZATION ( #140, #353 ) ;
#190 = EDGE_CURVE ( 'NONE', #152, #382, #54, .T. ) ;
#191 = CARTESIAN_POINT ( 'NONE',  ( 8.000000000000000000, 3.500000000000000000, -10.35640646055101932 ) ) ;
#192 = FACE_OUTER_BOUND ( 'NONE', #142, .T. ) ;
#193 = CYLINDRICAL_SURFACE ( 'NONE', #168, 16.00000000000000000 ) ;
#194 = DIRECTION ( 'NONE',  ( 0.000000000000000000, 0.000000000000000000, -1.000000000000000000 ) ) ;
#195 = LINE ( 'NONE', #132, #407 ) ;
#196 = DIRECTION ( 'NONE',  ( 0.000000000000000000, -1.000000000000000000, 0.000000000000000000 ) ) ;
#197 = AXIS2_PLACEMENT_3D ( 'NONE', #400, #207, #139 ) ;
#198 = ADVANCED_FACE ( 'NONE', ( #156 ), #292, .F. ) ;
#199 = DIRECTION ( 'NONE',  ( 0.000000000000000000, 0.000000000000000000, 1.000000000000000000 ) ) ;
#200 = DIRECTION ( 'NONE',  ( 0.000000000000000000, 1.000000000000000000, 0.000000000000000000 ) ) ;
#201 = ORIENTED_EDGE ( 'NONE', *, *, #412, .F. ) ;
#202 = DIRECTION ( 'NONE',  ( 0.000000000000000000, 0.000000000000000000, -1.000000000000000000 ) ) ;
#203 = DESIGN_CONTEXT ( 'detailed design', #87, 'design' ) ;
#204 = ORIENTED_EDGE ( 'NONE', *, *, #328, .T. ) ;
#205 = PERSON_AND_ORGANIZATION_ROLE ( 'creator' ) ;
#206 = LOCAL_TIME ( 12, 17, 42.00000000000000000, #411 ) ;
#207 = DIRECTION ( 'NONE',  ( 0.000000000000000000, 1.000000000000000000, 0.000000000000000000 ) ) ;
#208 = ORIENTED_EDGE ( 'NONE', *, *, #162, .F. ) ;
#209 = LINE ( 'NONE', #177, #35 ) ;
#210 = CIRCLE ( 'NONE', #130, 4.500000000000000000 ) ;
#211 = DIRECTION ( 'NONE',  ( 0.000000000000000000, 0.000000000000000000, -1.000000000000000000 ) ) ;
#212 = DIRECTION ( 'NONE',  ( 0.000000000000000000, -1.000000000000000000, 0.000000000000000000 ) ) ;
#213 = AXIS2_PLACEMENT_3D ( 'NONE', #216, #48, #349 ) ;
#214 = FACE_BOUND ( 'NONE', #219, .T. ) ;
#215 = PERSON_AND_ORGANIZATION ( #140, #353 ) ;
#216 = CARTESIAN_POINT ( 'NONE',  ( 0.000000000000000000, 5.000000000000000000, -4.500000000000000000 ) ) ;
#217 = EDGE_CURVE ( 'NONE', #113, #1, #293, .T. ) ;
#218 = EDGE_LOOP ( 'NONE', ( #354, #308, #323, #15 ) ) ;
#219 = EDGE_LOOP ( 'NONE', ( #153, #245 ) ) ;
#220 = APPROVAL_STATUS ( 'not_yet_approved' ) ;
#221 = EDGE_CURVE ( 'NONE', #382, #23, #29, .T. ) ;
#222 = ORIENTED_EDGE ( 'NONE', *, *, #415, .F. ) ;
#223 = CIRCLE ( 'NONE', #423, 4.500000000000000000 ) ;
#224 = ORIENTED_EDGE ( 'NONE', *, *, #274, .F. ) ;
#225 = ADVANCED_FACE ( 'NONE', ( #427 ), #193, .T. ) ;
#226 = CC_DESIGN_DATE_AND_TIME_ASSIGNMENT ( #51, #117, ( #127 ) ) ;
#227 = DIRECTION ( 'NONE',  ( 0.000000000000000000, 0.000000000000000000, 1.000000000000000000 ) ) ;
#228 = CC_DESIGN_APPROVAL ( #233, ( #300 ) ) ;
#229 = DIRECTION ( 'NONE',  ( 0.000000000000000000, -1.000000000000000000, 0.000000000000000000 ) ) ;
#230 = EDGE_CURVE ( 'NONE', #152, #67, #295, .T. ) ;
#231 = DIRECTION ( 'NONE',  ( 0.000000000000000000, 1.000000000000000000, 0.000000000000000000 ) ) ;
#232 = AXIS2_PLACEMENT_3D ( 'NONE', #158, #131, #264 ) ;
#233 = APPROVAL ( #303, 'UNSPECIFIED' ) ;
#234 = CARTESIAN_POINT ( 'NONE',  ( -8.000000000000000000, 0.000000000000000000, -10.35640646055101932 ) ) ;
#235 = CIRCLE ( 'NONE', #42, 16.00000000000000000 ) ;
#236 = LINE ( 'NONE', #164, #399 ) ;
#237 = VERTEX_POINT ( 'NONE', #60 ) ;
#238 = FACE_OUTER_BOUND ( 'NONE', #401, .T. ) ;
#239 = EDGE_CURVE ( 'NONE', #307, #8, #195, .T. ) ;
#240 = VERTEX_POINT ( 'NONE', #129 ) ;
#241 = CALENDAR_DATE ( 2021, 3, 6 ) ;
#242 =( NAMED_UNIT ( * ) PLANE_ANGLE_UNIT ( ) SI_UNIT ( $, .RADIAN. ) );
#243 = APPROVAL_PERSON_ORGANIZATION ( #252, #372, #180 ) ;
#244 = ORIENTED_EDGE ( 'NONE', *, *, #257, .F. ) ;
#245 = ORIENTED_EDGE ( 'NONE', *, *, #344, .F. ) ;
#246 = LINE ( 'NONE', #378, #333 ) ;
#247 = LINE ( 'NONE', #380, #360 ) ;
#248 = CYLINDRICAL_SURFACE ( 'NONE', #213, 3.263899999999998247 ) ;
#249 = ADVANCED_FACE ( 'NONE', ( #265 ), #398, .F. ) ;
#250 = DIRECTION ( 'NONE',  ( 0.000000000000000000, 0.000000000000000000, 1.000000000000000000 ) ) ;
#251 = ORIENTED_EDGE ( 'NONE', *, *, #322, .F. ) ;
#252 = PERSON_AND_ORGANIZATION ( #140, #353 ) ;
#253 = ORIENTED_EDGE ( 'NONE', *, *, #61, .F. ) ;
#254 = DATE_TIME_ROLE ( 'creation_date' ) ;
#255 = ORIENTED_EDGE ( 'NONE', *, *, #317, .F. ) ;
#256 = AXIS2_PLACEMENT_3D ( 'NONE', #313, #376, #202 ) ;
#257 = EDGE_CURVE ( 'NONE', #92, #8, #361, .T. ) ;
#258 = DIRECTION ( 'NONE',  ( 0.000000000000000000, 0.000000000000000000, -1.000000000000000000 ) ) ;
#259 = CIRCLE ( 'NONE', #112, 16.00000000000000000 ) ;
#260 = CARTESIAN_POINT ( 'NONE',  ( 0.000000000000000000, 3.500000000000000000, 3.500000000000000000 ) ) ;
#261 = CC_DESIGN_APPROVAL ( #372, ( #127 ) ) ;
#262 = VECTOR ( 'NONE', #424, 1000.000000000000000 ) ;
#263 = EDGE_CURVE ( 'NONE', #113, #105, #236, .T. ) ;
#264 = DIRECTION ( 'NONE',  ( 0.000000000000000000, 0.000000000000000000, -1.000000000000000000 ) ) ;
#265 = FACE_OUTER_BOUND ( 'NONE', #36, .T. ) ;
#266 = VECTOR ( 'NONE', #33, 1000.000000000000000 ) ;
#267 = DIRECTION ( 'NONE',  ( 0.000000000000000000, 0.000000000000000000, 1.000000000000000000 ) ) ;
#268 = AXIS2_PLACEMENT_3D ( 'NONE', #64, #196, #154 ) ;
#269 = LINE ( 'NONE', #368, #63 ) ;
#270 = ORIENTED_EDGE ( 'NONE', *, *, #22, .F. ) ;
#271 = EDGE_CURVE ( 'NONE', #1, #383, #365, .T. ) ;
#272 = ORIENTED_EDGE ( 'NONE', *, *, #221, .F. ) ;
#273 = MECHANICAL_CONTEXT ( 'NONE', #187, 'mechanical' ) ;
#274 = EDGE_CURVE ( 'NONE', #416, #237, #269, .T. ) ;
#275 = CARTESIAN_POINT ( 'NONE',  ( 0.000000000000000000, 0.000000000000000000, 3.500000000000000000 ) ) ;
#276 = CARTESIAN_POINT ( 'NONE',  ( 8.000000000000000000, 3.500000000000000000, -10.35640646055101932 ) ) ;
#277 = ORIENTED_EDGE ( 'NONE', *, *, #61, .T. ) ;
#278 = DIRECTION ( 'NONE',  ( 0.000000000000000000, -1.000000000000000000, 0.000000000000000000 ) ) ;
#279 = ORIENTED_EDGE ( 'NONE', *, *, #114, .F. ) ;
#280 = PERSON_AND_ORGANIZATION ( #140, #353 ) ;
#281 = ADVANCED_FACE ( 'NONE', ( #238 ), #248, .F. ) ;
#282 = LOCAL_TIME ( 12, 17, 42.00000000000000000, #86 ) ;
#283 = CIRCLE ( 'NONE', #95, 3.263899999999998691 ) ;
#284 = VERTEX_POINT ( 'NONE', #175 ) ;
#285 = DATE_AND_TIME ( #320, #149 ) ;
#286 = CARTESIAN_POINT ( 'NONE',  ( 0.000000000000000000, 5.000000000000000000, -4.500000000000000000 ) ) ;
#287 = ADVANCED_FACE ( 'NONE', ( #81 ), #311, .T. ) ;
#288 = DIRECTION ( 'NONE',  ( -0.000000000000000000, 1.000000000000000000, 0.000000000000000000 ) ) ;
#289 = DATE_AND_TIME ( #93, #17 ) ;
#290 = CARTESIAN_POINT ( 'NONE',  ( 0.000000000000000000, 0.000000000000000000, -4.500000000000000000 ) ) ;
#291 = AXIS2_PLACEMENT_3D ( 'NONE', #34, #37, #6 ) ;
#292 = CYLINDRICAL_SURFACE ( 'NONE', #21, 3.263899999999998247 ) ;
#293 = LINE ( 'NONE', #425, #324 ) ;
#294 = CARTESIAN_POINT ( 'NONE',  ( 0.000000000000000000, 0.000000000000000000, -1.236100000000001309 ) ) ;
#295 = LINE ( 'NONE', #126, #388 ) ;
#296 = DIRECTION ( 'NONE',  ( -0.000000000000000000, 1.000000000000000000, -0.000000000000000000 ) ) ;
#297 = DIRECTION ( 'NONE',  ( 0.000000000000000000, -1.000000000000000000, 0.000000000000000000 ) ) ;
#298 = FACE_OUTER_BOUND ( 'NONE', #107, .T. ) ;
#299 = CARTESIAN_POINT ( 'NONE',  ( 3.997124687737044222E-16, 5.000000000000000000, -7.763899999999997803 ) ) ;
#300 = PRODUCT_DEFINITION ( 'UNKNOWN', '', #94, #203 ) ;
#301 = DIRECTION ( 'NONE',  ( 0.000000000000000000, 1.000000000000000000, 0.000000000000000000 ) ) ;
#302 = EDGE_LOOP ( 'NONE', ( #244, #305 ) ) ;
#303 = APPROVAL_STATUS ( 'not_yet_approved' ) ;
#304 = CLOSED_SHELL ( 'NONE', ( #281, #66, #339, #225, #141, #287, #249, #151, #123, #108, #45, #198 ) ) ;
#305 = ORIENTED_EDGE ( 'NONE', *, *, #402, .F. ) ;
#306 =( LENGTH_UNIT ( ) NAMED_UNIT ( * ) SI_UNIT ( .MILLI., .METRE. ) );
#307 = VERTEX_POINT ( 'NONE', #146 ) ;
#308 = ORIENTED_EDGE ( 'NONE', *, *, #184, .F. ) ;
#309 = MANIFOLD_SOLID_BREP ( '5/16-18 Tapped Hole1', #304 ) ;
#310 = DIRECTION ( 'NONE',  ( -0.000000000000000000, 1.000000000000000000, -0.000000000000000000 ) ) ;
#311 = CYLINDRICAL_SURFACE ( 'NONE', #106, 16.00000000000000000 ) ;
#312 = ORIENTED_EDGE ( 'NONE', *, *, #136, .F. ) ;
#313 = CARTESIAN_POINT ( 'NONE',  ( 0.000000000000000000, 3.500000000000000000, -4.500000000000000000 ) ) ;
#314 = ORIENTED_EDGE ( 'NONE', *, *, #274, .T. ) ;
#315 = PRODUCT ( '151096', '151096', '', ( #273 ) ) ;
#316 = APPROVAL_DATE_TIME ( #289, #372 ) ;
#317 = EDGE_CURVE ( 'NONE', #240, #371, #405, .T. ) ;
#318 = CIRCLE ( 'NONE', #49, 16.00000000000000000 ) ;
#319 = ORIENTED_EDGE ( 'NONE', *, *, #317, .T. ) ;
#320 = CALENDAR_DATE ( 2021, 3, 6 ) ;
#321 = DIRECTION ( 'NONE',  ( 0.000000000000000000, -1.000000000000000000, 0.000000000000000000 ) ) ;
#322 = EDGE_CURVE ( 'NONE', #383, #284, #7, .T. ) ;
#323 = ORIENTED_EDGE ( 'NONE', *, *, #334, .T. ) ;
#324 = VECTOR ( 'NONE', #332, 1000.000000000000000 ) ;
#325 = ORIENTED_EDGE ( 'NONE', *, *, #184, .T. ) ;
#326 = FACE_OUTER_BOUND ( 'NONE', #218, .T. ) ;
#327 = AXIS2_PLACEMENT_3D ( 'NONE', #290, #125, #199 ) ;
#328 = EDGE_CURVE ( 'NONE', #307, #185, #223, .T. ) ;
#329 = CARTESIAN_POINT ( 'NONE',  ( 0.000000000000000000, 3.500000000000000000, 3.500000000000000000 ) ) ;
#330 = DIRECTION ( 'NONE',  ( 0.000000000000000000, 1.000000000000000000, 0.000000000000000000 ) ) ;
#331 = FACE_OUTER_BOUND ( 'NONE', #55, .T. ) ;
#332 = DIRECTION ( 'NONE',  ( 0.000000000000000000, 0.000000000000000000, 1.000000000000000000 ) ) ;
#333 = VECTOR ( 'NONE', #212, 1000.000000000000000 ) ;
#334 = EDGE_CURVE ( 'NONE', #185, #92, #246, .T. ) ;
#335 = DIRECTION ( 'NONE',  ( 0.000000000000000000, -1.000000000000000000, 0.000000000000000000 ) ) ;
#336 = ORIENTED_EDGE ( 'NONE', *, *, #190, .T. ) ;
#337 = DIRECTION ( 'NONE',  ( 0.000000000000000000, 1.000000000000000000, 0.000000000000000000 ) ) ;
#338 = ORIENTED_EDGE ( 'NONE', *, *, #263, .F. ) ;
#339 = ADVANCED_FACE ( 'NONE', ( #346 ), #377, .T. ) ;
#340 = APPROVAL_PERSON_ORGANIZATION ( #215, #101, #47 ) ;
#341 = ADVANCED_BREP_SHAPE_REPRESENTATION ( '151096', ( #309, #31 ), #155 ) ;
#342 = EDGE_LOOP ( 'NONE', ( #103, #255, #312, #116, #222 ) ) ;
#343 = DIRECTION ( 'NONE',  ( 0.000000000000000000, 1.000000000000000000, 0.000000000000000000 ) ) ;
#344 = EDGE_CURVE ( 'NONE', #23, #67, #373, .T. ) ;
#345 = DIRECTION ( 'NONE',  ( 1.000000000000000000, 0.000000000000000000, 0.000000000000000000 ) ) ;
#346 = FACE_OUTER_BOUND ( 'NONE', #73, .T. ) ;
#347 = VECTOR ( 'NONE', #44, 1000.000000000000000 ) ;
#348 = FACE_OUTER_BOUND ( 'NONE', #188, .T. ) ;
#349 = DIRECTION ( 'NONE',  ( 0.000000000000000000, 0.000000000000000000, 1.000000000000000000 ) ) ;
#350 = ORIENTED_EDGE ( 'NONE', *, *, #334, .F. ) ;
#351 = PERSON_AND_ORGANIZATION_ROLE ( 'design_supplier' ) ;
#352 = ORIENTED_EDGE ( 'NONE', *, *, #230, .T. ) ;
#353 = ORGANIZATION ( 'UNSPECIFIED', 'UNSPECIFIED', '' ) ;
#354 = ORIENTED_EDGE ( 'NONE', *, *, #239, .F. ) ;
#355 = PERSON_AND_ORGANIZATION_ROLE ( 'creator' ) ;
#356 = ORIENTED_EDGE ( 'NONE', *, *, #271, .F. ) ;
#357 = COORDINATED_UNIVERSAL_TIME_OFFSET ( 5, 0, .BEHIND. ) ;
#358 = DIRECTION ( 'NONE',  ( 0.000000000000000000, 0.000000000000000000, 1.000000000000000000 ) ) ;
#359 = FACE_BOUND ( 'NONE', #302, .T. ) ;
#360 = VECTOR ( 'NONE', #321, 1000.000000000000000 ) ;
#361 = CIRCLE ( 'NONE', #197, 4.500000000000000000 ) ;
#362 = DIRECTION ( 'NONE',  ( 0.000000000000000000, 0.000000000000000000, 1.000000000000000000 ) ) ;
#363 = DIRECTION ( 'NONE',  ( 0.000000000000000000, 0.000000000000000000, -1.000000000000000000 ) ) ;
#364 = FACE_OUTER_BOUND ( 'NONE', #342, .T. ) ;
#365 = CIRCLE ( 'NONE', #5, 16.00000000000000000 ) ;
#366 = VERTEX_POINT ( 'NONE', #144 ) ;
#367 = PERSON_AND_ORGANIZATION ( #140, #353 ) ;
#368 = CARTESIAN_POINT ( 'NONE',  ( 0.000000000000000000, 3.500000000000000000, -12.50000000000000000 ) ) ;
#369 = UNCERTAINTY_MEASURE_WITH_UNIT (LENGTH_MEASURE( 1.000000000000000082E-05 ), #306, 'distance_accuracy_value', 'NONE');
#370 = APPROVAL_DATE_TIME ( #169, #233 ) ;
#371 = VERTEX_POINT ( 'NONE', #393 ) ;
#372 = APPROVAL ( #220, 'UNSPECIFIED' ) ;
#373 = CIRCLE ( 'NONE', #90, 3.263899999999998691 ) ;
#374 = CARTESIAN_POINT ( 'NONE',  ( 8.000000000000000000, 3.500000000000000000, 10.35640646055101932 ) ) ;
#375 = CARTESIAN_POINT ( 'NONE',  ( -8.000000000000000000, 3.500000000000000000, -10.35640646055101932 ) ) ;
#376 = DIRECTION ( 'NONE',  ( 0.000000000000000000, 1.000000000000000000, 0.000000000000000000 ) ) ;
#377 = CYLINDRICAL_SURFACE ( 'NONE', #291, 4.500000000000000000 ) ;
#378 = CARTESIAN_POINT ( 'NONE',  ( 0.000000000000000000, 5.000000000000000000, -9.000000000000000000 ) ) ;
#379 = EDGE_CURVE ( 'NONE', #371, #237, #121, .T. ) ;
#380 = CARTESIAN_POINT ( 'NONE',  ( 8.000000000000000000, 3.500000000000000000, 10.35640646055101932 ) ) ;
#381 = ORIENTED_EDGE ( 'NONE', *, *, #162, .T. ) ;
#382 = VERTEX_POINT ( 'NONE', #43 ) ;
#383 = VERTEX_POINT ( 'NONE', #374 ) ;
#384 = ORIENTED_EDGE ( 'NONE', *, *, #114, .T. ) ;
#385 = CC_DESIGN_PERSON_AND_ORGANIZATION_ASSIGNMENT ( #367, #68, ( #315 ) ) ;
#386 = CC_DESIGN_APPROVAL ( #101, ( #94 ) ) ;
#387 = DIRECTION ( 'NONE',  ( 0.000000000000000000, 0.000000000000000000, -1.000000000000000000 ) ) ;
#388 = VECTOR ( 'NONE', #97, 1000.000000000000000 ) ;
#389 = CARTESIAN_POINT ( 'NONE',  ( 0.000000000000000000, 3.500000000000000000, -9.000000000000000000 ) ) ;
#390 = EDGE_CURVE ( 'NONE', #105, #366, #209, .T. ) ;
#391 = DIRECTION ( 'NONE',  ( 0.000000000000000000, 1.000000000000000000, 0.000000000000000000 ) ) ;
#392 = APPROVAL_PERSON_ORGANIZATION ( #109, #233, #173 ) ;
#393 = CARTESIAN_POINT ( 'NONE',  ( 8.000000000000000000, 0.000000000000000000, -10.35640646055101932 ) ) ;
#394 = DIRECTION ( 'NONE',  ( 0.000000000000000000, -1.000000000000000000, 0.000000000000000000 ) ) ;
#395 = ORIENTED_EDGE ( 'NONE', *, *, #402, .T. ) ;
#396 = APPLICATION_PROTOCOL_DEFINITION ( 'international standard', 'config_control_design', 1994, #187 ) ;
#397 = DIRECTION ( 'NONE',  ( 0.000000000000000000, 1.000000000000000000, 0.000000000000000000 ) ) ;
#398 = PLANE ( 'NONE',  #10 ) ;
#399 = VECTOR ( 'NONE', #65, 1000.000000000000000 ) ;
#400 = CARTESIAN_POINT ( 'NONE',  ( 0.000000000000000000, 3.500000000000000000, -4.500000000000000000 ) ) ;
#401 = EDGE_LOOP ( 'NONE', ( #38, #413, #134, #183 ) ) ;
#402 = EDGE_CURVE ( 'NONE', #8, #92, #419, .T. ) ;
#403 = DIRECTION ( 'NONE',  ( 0.000000000000000000, 0.000000000000000000, 1.000000000000000000 ) ) ;
#404 = AXIS2_PLACEMENT_3D ( 'NONE', #122, #296, #358 ) ;
#405 = LINE ( 'NONE', #178, #24 ) ;
#406 = ORIENTED_EDGE ( 'NONE', *, *, #239, .T. ) ;
#407 = VECTOR ( 'NONE', #161, 1000.000000000000000 ) ;
#408 = AXIS2_PLACEMENT_3D ( 'NONE', #421, #335, #194 ) ;
#409 = DIRECTION ( 'NONE',  ( 0.000000000000000000, 0.000000000000000000, 1.000000000000000000 ) ) ;
#410 = CARTESIAN_POINT ( 'NONE',  ( 3.997124687737045208E-16, 5.000000000000000000, -7.763899999999998691 ) ) ;
#411 = COORDINATED_UNIVERSAL_TIME_OFFSET ( 5, 0, .BEHIND. ) ;
#412 = EDGE_CURVE ( 'NONE', #416, #113, #235, .T. ) ;
#413 = ORIENTED_EDGE ( 'NONE', *, *, #221, .T. ) ;
#414 = COORDINATED_UNIVERSAL_TIME_OFFSET ( 5, 0, .BEHIND. ) ;
#415 = EDGE_CURVE ( 'NONE', #237, #105, #143, .T. ) ;
#416 = VERTEX_POINT ( 'NONE', #104 ) ;
#417 = SHAPE_DEFINITION_REPRESENTATION ( #84, #341 ) ;
#418 = EDGE_LOOP ( 'NONE', ( #201, #314, #147, #338 ) ) ;
#419 = CIRCLE ( 'NONE', #256, 4.500000000000000000 ) ;
#420 = CARTESIAN_POINT ( 'NONE',  ( 0.000000000000000000, 5.000000000000000000, -9.000000000000000000 ) ) ;
#421 = CARTESIAN_POINT ( 'NONE',  ( 0.000000000000000000, 5.000000000000000000, -4.500000000000000000 ) ) ;
#422 = FACE_BOUND ( 'NONE', #77, .T. ) ;
#423 = AXIS2_PLACEMENT_3D ( 'NONE', #76, #111, #409 ) ;
#424 = DIRECTION ( 'NONE',  ( 0.000000000000000000, -1.000000000000000000, 0.000000000000000000 ) ) ;
#425 = CARTESIAN_POINT ( 'NONE',  ( -8.000000000000000000, 3.500000000000000000, -10.35640646055101932 ) ) ;
#426 = PLANE ( 'NONE',  #181 ) ;
#427 = FACE_OUTER_BOUND ( 'NONE', #418, .T. ) ;
#428 = CARTESIAN_POINT ( 'NONE',  ( 0.000000000000000000, 3.500000000000000000, -3.500000000000000000 ) ) ;
#429 = COORDINATED_UNIVERSAL_TIME_OFFSET ( 5, 0, .BEHIND. ) ;
#430 = ORIENTED_EDGE ( 'NONE', *, *, #136, .T. ) ;
ENDSEC;
END-ISO-10303-21;
