ISO-10303-21;
HEADER;
FILE_DESCRIPTION (( 'STEP AP203' ),
    '1' );
FILE_NAME ('151170.step',
    '2021-06-03T16:31:19',
    ( '' ),
    ( '' ),
    'SwSTEP 2.0',
    'SolidWorks 2021',
    '' );
FILE_SCHEMA (( 'CONFIG_CONTROL_DESIGN' ));
ENDSEC;

DATA;
#1 = DIRECTION ( 'NONE',  ( 0.000000000000000000, 0.000000000000000000, -1.000000000000000000 ) ) ;
#2 = DIRECTION ( 'NONE',  ( 1.000000000000000000, 0.000000000000000000, 0.000000000000000000 ) ) ;
#3 = EDGE_LOOP ( 'NONE', ( #199, #247 ) ) ;
#4 = DIRECTION ( 'NONE',  ( 0.000000000000000000, 1.000000000000000000, 0.000000000000000000 ) ) ;
#5 = ORIENTED_EDGE ( 'NONE', *, *, #168, .T. ) ;
#6 = VECTOR ( 'NONE', #90, 1000.000000000000000 ) ;
#7 =( NAMED_UNIT ( * ) PLANE_ANGLE_UNIT ( ) SI_UNIT ( $, .RADIAN. ) );
#8 = ORIENTED_EDGE ( 'NONE', *, *, #101, .T. ) ;
#9 = DIRECTION ( 'NONE',  ( 0.000000000000000000, -1.000000000000000000, 0.000000000000000000 ) ) ;
#10 = DATE_TIME_ROLE ( 'classification_date' ) ;
#11 = PERSON_AND_ORGANIZATION ( #221, #91 ) ;
#12 = LOCAL_TIME ( 12, 31, 19.00000000000000000, #226 ) ;
#13 = APPROVAL_PERSON_ORGANIZATION ( #183, #28, #100 ) ;
#14 = AXIS2_PLACEMENT_3D ( 'NONE', #112, #129, #279 ) ;
#15 = CARTESIAN_POINT ( 'NONE',  ( 0.000000000000000000, -1.138921523207035616E-15, -3.399999999999989697 ) ) ;
#16 = ADVANCED_FACE ( 'NONE', ( #167 ), #39, .T. ) ;
#17 = ORIENTED_EDGE ( 'NONE', *, *, #88, .F. ) ;
#18 = VERTEX_POINT ( 'NONE', #15 ) ;
#19 = DIRECTION ( 'NONE',  ( 0.000000000000000000, 1.000000000000000000, 0.000000000000000000 ) ) ;
#20 = DIRECTION ( 'NONE',  ( 0.000000000000000000, 0.000000000000000000, -1.000000000000000000 ) ) ;
#21 = DIRECTION ( 'NONE',  ( 0.000000000000000000, -1.000000000000000000, 0.000000000000000000 ) ) ;
#22 = LOCAL_TIME ( 12, 31, 19.00000000000000000, #222 ) ;
#23 = UNCERTAINTY_MEASURE_WITH_UNIT (LENGTH_MEASURE( 1.000000000000000082E-05 ), #66, 'distance_accuracy_value', 'NONE');
#24 = DIRECTION ( 'NONE',  ( -0.000000000000000000, -1.000000000000000000, -0.000000000000000000 ) ) ;
#25 = CARTESIAN_POINT ( 'NONE',  ( 0.000000000000000000, -1.138921523207035616E-15, 0.000000000000000000 ) ) ;
#26 = CIRCLE ( 'NONE', #182, 15.00000000000000000 ) ;
#27 = PERSON_AND_ORGANIZATION ( #221, #91 ) ;
#28 = APPROVAL ( #126, 'UNSPECIFIED' ) ;
#29 = PERSON_AND_ORGANIZATION_ROLE ( 'creator' ) ;
#30 = APPROVAL_ROLE ( '' ) ;
#31 = DIRECTION ( 'NONE',  ( -0.000000000000000000, -1.000000000000000000, -0.000000000000000000 ) ) ;
#32 = DATE_AND_TIME ( #71, #12 ) ;
#33 = CIRCLE ( 'NONE', #190, 3.399999999999987921 ) ;
#34 = APPLICATION_CONTEXT ( 'configuration controlled 3d designs of mechanical parts and assemblies' ) ;
#35 = APPROVAL_PERSON_ORGANIZATION ( #204, #248, #164 ) ;
#36 = ORIENTED_EDGE ( 'NONE', *, *, #185, .T. ) ;
#37 = COORDINATED_UNIVERSAL_TIME_OFFSET ( 5, 0, .BEHIND. ) ;
#38 = EDGE_LOOP ( 'NONE', ( #141, #223 ) ) ;
#39 = CYLINDRICAL_SURFACE ( 'NONE', #43, 15.00000000000000000 ) ;
#40 = DESIGN_CONTEXT ( 'detailed design', #34, 'design' ) ;
#41 = ORIENTED_EDGE ( 'NONE', *, *, #122, .T. ) ;
#42 = PLANE ( 'NONE',  #14 ) ;
#43 = AXIS2_PLACEMENT_3D ( 'NONE', #125, #9, #210 ) ;
#44 = AXIS2_PLACEMENT_3D ( 'NONE', #260, #200, #20 ) ;
#45 = PLANE ( 'NONE',  #76 ) ;
#46 = DIRECTION ( 'NONE',  ( 0.000000000000000000, -0.5150380749100550437, -0.8571673007021117785 ) ) ;
#47 = AXIS2_PLACEMENT_3D ( 'NONE', #216, #240, #89 ) ;
#48 = CC_DESIGN_DATE_AND_TIME_ASSIGNMENT ( #207, #10, ( #263 ) ) ;
#49 = CYLINDRICAL_SURFACE ( 'NONE', #47, 3.399999999999988809 ) ;
#50 = CARTESIAN_POINT ( 'NONE',  ( 0.000000000000000000, 30.00000000000000000, -15.00000000000000000 ) ) ;
#51 = PERSON_AND_ORGANIZATION_ROLE ( 'creator' ) ;
#52 = EDGE_CURVE ( 'NONE', #60, #84, #251, .T. ) ;
#53 = EDGE_LOOP ( 'NONE', ( #74, #41, #233 ) ) ;
#54 = AXIS2_PLACEMENT_3D ( 'NONE', #132, #131, #87 ) ;
#55 = APPROVAL_STATUS ( 'not_yet_approved' ) ;
#56 = ORIENTED_EDGE ( 'NONE', *, *, #215, .T. ) ;
#57 = CARTESIAN_POINT ( 'NONE',  ( 0.000000000000000000, 0.000000000000000000, 0.000000000000000000 ) ) ;
#58 = ORIENTED_EDGE ( 'NONE', *, *, #215, .F. ) ;
#59 = CC_DESIGN_PERSON_AND_ORGANIZATION_ASSIGNMENT ( #159, #29, ( #178 ) ) ;
#60 = VERTEX_POINT ( 'NONE', #143 ) ;
#61 = CYLINDRICAL_SURFACE ( 'NONE', #150, 3.399999999999988809 ) ;
#62 = FACE_OUTER_BOUND ( 'NONE', #212, .T. ) ;
#63 = CYLINDRICAL_SURFACE ( 'NONE', #54, 15.00000000000000000 ) ;
#64 = FACE_OUTER_BOUND ( 'NONE', #188, .T. ) ;
#65 = EDGE_CURVE ( 'NONE', #81, #264, #33, .T. ) ;
#66 =( LENGTH_UNIT ( ) NAMED_UNIT ( * ) SI_UNIT ( .MILLI., .METRE. ) );
#67 = DIRECTION ( 'NONE',  ( -0.000000000000000000, -1.000000000000000000, -0.000000000000000000 ) ) ;
#68 = VERTEX_POINT ( 'NONE', #252 ) ;
#69 = VECTOR ( 'NONE', #274, 1000.000000000000000 ) ;
#70 = ORIENTED_EDGE ( 'NONE', *, *, #181, .F. ) ;
#71 = CALENDAR_DATE ( 2021, 3, 6 ) ;
#72 = AXIS2_PLACEMENT_3D ( 'NONE', #198, #24, #1 ) ;
#73 = CALENDAR_DATE ( 2021, 3, 6 ) ;
#74 = ORIENTED_EDGE ( 'NONE', *, *, #137, .F. ) ;
#75 = CC_DESIGN_PERSON_AND_ORGANIZATION_ASSIGNMENT ( #139, #232, ( #263 ) ) ;
#76 = AXIS2_PLACEMENT_3D ( 'NONE', #217, #192, #2 ) ;
#77 = EDGE_CURVE ( 'NONE', #81, #211, #169, .T. ) ;
#78 = CARTESIAN_POINT ( 'NONE',  ( 4.163799117100987247E-16, 0.000000000000000000, 3.399999999999988809 ) ) ;
#79 = CIRCLE ( 'NONE', #104, 15.00000000000000000 ) ;
#80 = CALENDAR_DATE ( 2021, 3, 6 ) ;
#81 = VERTEX_POINT ( 'NONE', #254 ) ;
#82 = CARTESIAN_POINT ( 'NONE',  ( 0.000000000000000000, 0.000000000000000000, 0.000000000000000000 ) ) ;
#83 = FACE_OUTER_BOUND ( 'NONE', #140, .T. ) ;
#84 = VERTEX_POINT ( 'NONE', #187 ) ;
#85 = DIRECTION ( 'NONE',  ( 0.000000000000000000, 0.000000000000000000, 1.000000000000000000 ) ) ;
#86 = AXIS2_PLACEMENT_3D ( 'NONE', #25, #67, #152 ) ;
#87 = DIRECTION ( 'NONE',  ( 0.000000000000000000, 0.000000000000000000, -1.000000000000000000 ) ) ;
#88 = EDGE_CURVE ( 'NONE', #264, #18, #120, .T. ) ;
#89 = DIRECTION ( 'NONE',  ( 0.000000000000000000, 0.000000000000000000, -1.000000000000000000 ) ) ;
#90 = DIRECTION ( 'NONE',  ( 1.049727191138617956E-16, -0.5150380749100550437, 0.8571673007021117785 ) ) ;
#91 = ORGANIZATION ( 'UNSPECIFIED', 'UNSPECIFIED', '' ) ;
#92 = ORIENTED_EDGE ( 'NONE', *, *, #122, .F. ) ;
#93 = ADVANCED_FACE ( 'NONE', ( #83 ), #61, .F. ) ;
#94 = CARTESIAN_POINT ( 'NONE',  ( 1.836970198721029983E-15, 30.00000000000000000, 15.00000000000000000 ) ) ;
#95 = VECTOR ( 'NONE', #46, 1000.000000000000000 ) ;
#96 = APPROVAL_STATUS ( 'not_yet_approved' ) ;
#97 = ORIENTED_EDGE ( 'NONE', *, *, #77, .T. ) ;
#98 = APPROVAL ( #96, 'UNSPECIFIED' ) ;
#99 = DIRECTION ( 'NONE',  ( 0.000000000000000000, 0.000000000000000000, -1.000000000000000000 ) ) ;
#100 = APPROVAL_ROLE ( '' ) ;
#101 = EDGE_CURVE ( 'NONE', #211, #18, #203, .T. ) ;
#102 = MANIFOLD_SOLID_BREP ( 'M8x1.25 Tapped Hole2', #174 ) ;
#103 = CARTESIAN_POINT ( 'NONE',  ( 0.000000000000000000, 0.000000000000000000, -3.399999999999988809 ) ) ;
#104 = AXIS2_PLACEMENT_3D ( 'NONE', #235, #179, #266 ) ;
#105 = ADVANCED_BREP_SHAPE_REPRESENTATION ( '151170', ( #102, #193 ), #272 ) ;
#106 = SECURITY_CLASSIFICATION_LEVEL ( 'unclassified' ) ;
#107 = DIRECTION ( 'NONE',  ( 0.000000000000000000, 0.000000000000000000, 1.000000000000000000 ) ) ;
#108 = DIRECTION ( 'NONE',  ( -0.000000000000000000, -1.000000000000000000, -0.000000000000000000 ) ) ;
#109 = EDGE_CURVE ( 'NONE', #84, #60, #79, .T. ) ;
#110 = DIRECTION ( 'NONE',  ( 0.000000000000000000, 0.000000000000000000, -1.000000000000000000 ) ) ;
#111 = CARTESIAN_POINT ( 'NONE',  ( 0.000000000000000000, 13.45000000000000284, 0.000000000000000000 ) ) ;
#112 = CARTESIAN_POINT ( 'NONE',  ( 0.000000000000000000, 30.00000000000000000, 0.000000000000000000 ) ) ;
#113 = CARTESIAN_POINT ( 'NONE',  ( 4.163799117100988233E-16, -1.138921523207035616E-15, 3.399999999999989697 ) ) ;
#114 = PRODUCT_RELATED_PRODUCT_CATEGORY ( 'detail', '', ( #267 ) ) ;
#115 = CARTESIAN_POINT ( 'NONE',  ( 0.000000000000000000, 30.00000000000000000, 0.000000000000000000 ) ) ;
#116 = LOCAL_TIME ( 12, 31, 19.00000000000000000, #117 ) ;
#117 = COORDINATED_UNIVERSAL_TIME_OFFSET ( 5, 0, .BEHIND. ) ;
#118 = ORIENTED_EDGE ( 'NONE', *, *, #88, .T. ) ;
#119 = PERSON_AND_ORGANIZATION ( #221, #91 ) ;
#120 = LINE ( 'NONE', #103, #227 ) ;
#121 = SHAPE_DEFINITION_REPRESENTATION ( #225, #105 ) ;
#122 = EDGE_CURVE ( 'NONE', #191, #264, #166, .T. ) ;
#123 = DATE_AND_TIME ( #80, #209 ) ;
#124 = AXIS2_PLACEMENT_3D ( 'NONE', #111, #241, #149 ) ;
#125 = CARTESIAN_POINT ( 'NONE',  ( 0.000000000000000000, 30.00000000000000000, 0.000000000000000000 ) ) ;
#126 = APPROVAL_STATUS ( 'not_yet_approved' ) ;
#127 = CARTESIAN_POINT ( 'NONE',  ( 0.000000000000000000, 0.000000000000000000, 0.000000000000000000 ) ) ;
#128 = ORIENTED_EDGE ( 'NONE', *, *, #157, .F. ) ;
#129 = DIRECTION ( 'NONE',  ( -0.000000000000000000, 1.000000000000000000, 0.000000000000000000 ) ) ;
#130 = ADVANCED_FACE ( 'NONE', ( #62 ), #165, .F. ) ;
#131 = DIRECTION ( 'NONE',  ( 0.000000000000000000, -1.000000000000000000, 0.000000000000000000 ) ) ;
#132 = CARTESIAN_POINT ( 'NONE',  ( 0.000000000000000000, 30.00000000000000000, 0.000000000000000000 ) ) ;
#133 = ORIENTED_EDGE ( 'NONE', *, *, #148, .T. ) ;
#134 = CALENDAR_DATE ( 2021, 3, 6 ) ;
#135 = VECTOR ( 'NONE', #21, 1000.000000000000000 ) ;
#136 = DATE_AND_TIME ( #73, #116 ) ;
#137 = EDGE_CURVE ( 'NONE', #191, #81, #214, .T. ) ;
#138 = ORIENTED_EDGE ( 'NONE', *, *, #65, .T. ) ;
#139 = PERSON_AND_ORGANIZATION ( #221, #91 ) ;
#140 = EDGE_LOOP ( 'NONE', ( #201, #97, #8, #17 ) ) ;
#141 = ORIENTED_EDGE ( 'NONE', *, *, #52, .F. ) ;
#142 = ADVANCED_FACE ( 'NONE', ( #172 ), #257, .F. ) ;
#143 = CARTESIAN_POINT ( 'NONE',  ( 0.000000000000000000, 0.000000000000000000, -15.00000000000000000 ) ) ;
#144 = ORIENTED_EDGE ( 'NONE', *, *, #52, .T. ) ;
#145 = LOCAL_TIME ( 12, 31, 19.00000000000000000, #224 ) ;
#146 = AXIS2_PLACEMENT_3D ( 'NONE', #115, #4, #238 ) ;
#147 = LINE ( 'NONE', #50, #135 ) ;
#148 = EDGE_CURVE ( 'NONE', #18, #211, #194, .T. ) ;
#149 = DIRECTION ( 'NONE',  ( 0.000000000000000000, 0.000000000000000000, -1.000000000000000000 ) ) ;
#150 = AXIS2_PLACEMENT_3D ( 'NONE', #82, #253, #99 ) ;
#151 = FACE_OUTER_BOUND ( 'NONE', #155, .T. ) ;
#152 = DIRECTION ( 'NONE',  ( 0.000000000000000000, 0.000000000000000000, -1.000000000000000000 ) ) ;
#153 = FACE_OUTER_BOUND ( 'NONE', #38, .T. ) ;
#154 = ORIENTED_EDGE ( 'NONE', *, *, #168, .F. ) ;
#155 = EDGE_LOOP ( 'NONE', ( #160, #128, #118, #133 ) ) ;
#156 = APPROVAL_DATE_TIME ( #32, #248 ) ;
#157 = EDGE_CURVE ( 'NONE', #264, #81, #158, .T. ) ;
#158 = CIRCLE ( 'NONE', #72, 3.399999999999987921 ) ;
#159 = PERSON_AND_ORGANIZATION ( #221, #91 ) ;
#160 = ORIENTED_EDGE ( 'NONE', *, *, #77, .F. ) ;
#161 =( NAMED_UNIT ( * ) SI_UNIT ( $, .STERADIAN. ) SOLID_ANGLE_UNIT ( ) );
#162 = PERSON_AND_ORGANIZATION_ROLE ( 'design_supplier' ) ;
#163 = ADVANCED_FACE ( 'NONE', ( #239, #153 ), #45, .F. ) ;
#164 = APPROVAL_ROLE ( '' ) ;
#165 = CONICAL_SURFACE ( 'NONE', #44, 3.399999999999987921, 1.029744258676653423 ) ;
#166 = LINE ( 'NONE', #271, #95 ) ;
#167 = FACE_OUTER_BOUND ( 'NONE', #231, .T. ) ;
#168 = EDGE_CURVE ( 'NONE', #68, #60, #147, .T. ) ;
#169 = LINE ( 'NONE', #78, #69 ) ;
#170 = CARTESIAN_POINT ( 'NONE',  ( -3.794672472707919811E-15, 15.49292610469370324, 0.000000000000000000 ) ) ;
#171 = CARTESIAN_POINT ( 'NONE',  ( 0.000000000000000000, 13.45000000000000284, -3.399999999999987921 ) ) ;
#172 = FACE_OUTER_BOUND ( 'NONE', #53, .T. ) ;
#173 = ORIENTED_EDGE ( 'NONE', *, *, #181, .T. ) ;
#174 = CLOSED_SHELL ( 'NONE', ( #93, #130, #250, #16, #189, #163, #142, #268 ) ) ;
#175 = ORIENTED_EDGE ( 'NONE', *, *, #109, .T. ) ;
#176 = PERSON_AND_ORGANIZATION ( #221, #91 ) ;
#177 = DATE_AND_TIME ( #134, #22 ) ;
#178 = PRODUCT_DEFINITION_FORMATION_WITH_SPECIFIED_SOURCE ( 'ANY', '', #267, .NOT_KNOWN. ) ;
#179 = DIRECTION ( 'NONE',  ( 0.000000000000000000, 1.000000000000000000, 0.000000000000000000 ) ) ;
#180 = PERSON_AND_ORGANIZATION_ROLE ( 'design_owner' ) ;
#181 = EDGE_CURVE ( 'NONE', #213, #84, #259, .T. ) ;
#182 = AXIS2_PLACEMENT_3D ( 'NONE', #196, #278, #85 ) ;
#183 = PERSON_AND_ORGANIZATION ( #221, #91 ) ;
#184 = AXIS2_PLACEMENT_3D ( 'NONE', #234, #108, #110 ) ;
#185 = EDGE_CURVE ( 'NONE', #213, #68, #269, .T. ) ;
#186 = DIRECTION ( 'NONE',  ( -0.000000000000000000, -1.000000000000000000, -0.000000000000000000 ) ) ;
#187 = CARTESIAN_POINT ( 'NONE',  ( 1.836970198721029983E-15, 0.000000000000000000, 15.00000000000000000 ) ) ;
#188 = EDGE_LOOP ( 'NONE', ( #56, #36 ) ) ;
#189 = ADVANCED_FACE ( 'NONE', ( #64 ), #42, .T. ) ;
#190 = AXIS2_PLACEMENT_3D ( 'NONE', #273, #31, #276 ) ;
#191 = VERTEX_POINT ( 'NONE', #170 ) ;
#192 = DIRECTION ( 'NONE',  ( -0.000000000000000000, 1.000000000000000000, 0.000000000000000000 ) ) ;
#193 = AXIS2_PLACEMENT_3D ( 'NONE', #57, #208, #265 ) ;
#194 = CIRCLE ( 'NONE', #86, 3.399999999999989697 ) ;
#195 = DIRECTION ( 'NONE',  ( 0.000000000000000000, -1.000000000000000000, 0.000000000000000000 ) ) ;
#196 = CARTESIAN_POINT ( 'NONE',  ( 0.000000000000000000, 30.00000000000000000, 0.000000000000000000 ) ) ;
#197 = CC_DESIGN_PERSON_AND_ORGANIZATION_ASSIGNMENT ( #11, #51, ( #202 ) ) ;
#198 = CARTESIAN_POINT ( 'NONE',  ( 0.000000000000000000, 13.45000000000000284, 0.000000000000000000 ) ) ;
#199 = ORIENTED_EDGE ( 'NONE', *, *, #148, .F. ) ;
#200 = DIRECTION ( 'NONE',  ( -0.000000000000000000, -1.000000000000000000, -0.000000000000000000 ) ) ;
#201 = ORIENTED_EDGE ( 'NONE', *, *, #65, .F. ) ;
#202 = PRODUCT_DEFINITION ( 'UNKNOWN', '', #178, #40 ) ;
#203 = CIRCLE ( 'NONE', #184, 3.399999999999989697 ) ;
#204 = PERSON_AND_ORGANIZATION ( #221, #91 ) ;
#205 = ORIENTED_EDGE ( 'NONE', *, *, #185, .F. ) ;
#206 = APPLICATION_PROTOCOL_DEFINITION ( 'international standard', 'config_control_design', 1994, #34 ) ;
#207 = DATE_AND_TIME ( #270, #145 ) ;
#208 = DIRECTION ( 'NONE',  ( 0.000000000000000000, 0.000000000000000000, 1.000000000000000000 ) ) ;
#209 = LOCAL_TIME ( 12, 31, 19.00000000000000000, #37 ) ;
#210 = DIRECTION ( 'NONE',  ( 0.000000000000000000, 0.000000000000000000, -1.000000000000000000 ) ) ;
#211 = VERTEX_POINT ( 'NONE', #113 ) ;
#212 = EDGE_LOOP ( 'NONE', ( #92, #244, #138 ) ) ;
#213 = VERTEX_POINT ( 'NONE', #94 ) ;
#214 = LINE ( 'NONE', #255, #6 ) ;
#215 = EDGE_CURVE ( 'NONE', #68, #213, #26, .T. ) ;
#216 = CARTESIAN_POINT ( 'NONE',  ( 0.000000000000000000, 0.000000000000000000, 0.000000000000000000 ) ) ;
#217 = CARTESIAN_POINT ( 'NONE',  ( 0.000000000000000000, 0.000000000000000000, 0.000000000000000000 ) ) ;
#218 = CARTESIAN_POINT ( 'NONE',  ( 1.836970198721029983E-15, 30.00000000000000000, 15.00000000000000000 ) ) ;
#219 = CC_DESIGN_PERSON_AND_ORGANIZATION_ASSIGNMENT ( #176, #180, ( #267 ) ) ;
#220 = DATE_TIME_ROLE ( 'creation_date' ) ;
#221 = PERSON ( 'UNSPECIFIED', 'UNSPECIFIED', 'UNSPECIFIED', ('UNSPECIFIED'), ('UNSPECIFIED'), ('UNSPECIFIED') ) ;
#222 = COORDINATED_UNIVERSAL_TIME_OFFSET ( 5, 0, .BEHIND. ) ;
#223 = ORIENTED_EDGE ( 'NONE', *, *, #109, .F. ) ;
#224 = COORDINATED_UNIVERSAL_TIME_OFFSET ( 5, 0, .BEHIND. ) ;
#225 = PRODUCT_DEFINITION_SHAPE ( 'NONE', 'NONE',  #202 ) ;
#226 = COORDINATED_UNIVERSAL_TIME_OFFSET ( 5, 0, .BEHIND. ) ;
#227 = VECTOR ( 'NONE', #186, 1000.000000000000000 ) ;
#228 = APPROVAL_DATE_TIME ( #123, #28 ) ;
#229 = CC_DESIGN_PERSON_AND_ORGANIZATION_ASSIGNMENT ( #119, #162, ( #178 ) ) ;
#230 = APPLICATION_CONTEXT ( 'configuration controlled 3d designs of mechanical parts and assemblies' ) ;
#231 = EDGE_LOOP ( 'NONE', ( #70, #58, #5, #144 ) ) ;
#232 = PERSON_AND_ORGANIZATION_ROLE ( 'classification_officer' ) ;
#233 = ORIENTED_EDGE ( 'NONE', *, *, #157, .T. ) ;
#234 = CARTESIAN_POINT ( 'NONE',  ( 0.000000000000000000, -1.138921523207035616E-15, 0.000000000000000000 ) ) ;
#235 = CARTESIAN_POINT ( 'NONE',  ( 0.000000000000000000, 0.000000000000000000, 0.000000000000000000 ) ) ;
#236 = CC_DESIGN_APPROVAL ( #98, ( #178 ) ) ;
#237 = VECTOR ( 'NONE', #195, 1000.000000000000000 ) ;
#238 = DIRECTION ( 'NONE',  ( 0.000000000000000000, 0.000000000000000000, 1.000000000000000000 ) ) ;
#239 = FACE_BOUND ( 'NONE', #3, .T. ) ;
#240 = DIRECTION ( 'NONE',  ( -0.000000000000000000, -1.000000000000000000, -0.000000000000000000 ) ) ;
#241 = DIRECTION ( 'NONE',  ( -0.000000000000000000, -1.000000000000000000, -0.000000000000000000 ) ) ;
#242 = MECHANICAL_CONTEXT ( 'NONE', #230, 'mechanical' ) ;
#243 = CC_DESIGN_SECURITY_CLASSIFICATION ( #263, ( #178 ) ) ;
#244 = ORIENTED_EDGE ( 'NONE', *, *, #137, .T. ) ;
#245 = CC_DESIGN_APPROVAL ( #28, ( #263 ) ) ;
#246 = APPROVAL_DATE_TIME ( #136, #98 ) ;
#247 = ORIENTED_EDGE ( 'NONE', *, *, #101, .F. ) ;
#248 = APPROVAL ( #55, 'UNSPECIFIED' ) ;
#249 = APPLICATION_PROTOCOL_DEFINITION ( 'international standard', 'config_control_design', 1994, #230 ) ;
#250 = ADVANCED_FACE ( 'NONE', ( #258 ), #63, .T. ) ;
#251 = CIRCLE ( 'NONE', #275, 15.00000000000000000 ) ;
#252 = CARTESIAN_POINT ( 'NONE',  ( 0.000000000000000000, 30.00000000000000000, -15.00000000000000000 ) ) ;
#253 = DIRECTION ( 'NONE',  ( -0.000000000000000000, -1.000000000000000000, -0.000000000000000000 ) ) ;
#254 = CARTESIAN_POINT ( 'NONE',  ( 4.163799117100986261E-16, 13.45000000000000284, 3.399999999999987921 ) ) ;
#255 = CARTESIAN_POINT ( 'NONE',  ( 4.163799117100986261E-16, 13.45000000000000284, 3.399999999999987921 ) ) ;
#256 = APPROVAL_PERSON_ORGANIZATION ( #27, #98, #30 ) ;
#257 = CONICAL_SURFACE ( 'NONE', #124, 3.399999999999987921, 1.029744258676653423 ) ;
#258 = FACE_OUTER_BOUND ( 'NONE', #261, .T. ) ;
#259 = LINE ( 'NONE', #218, #237 ) ;
#260 = CARTESIAN_POINT ( 'NONE',  ( 0.000000000000000000, 13.45000000000000284, 0.000000000000000000 ) ) ;
#261 = EDGE_LOOP ( 'NONE', ( #205, #173, #175, #154 ) ) ;
#262 = CC_DESIGN_APPROVAL ( #248, ( #202 ) ) ;
#263 = SECURITY_CLASSIFICATION ( '', '', #106 ) ;
#264 = VERTEX_POINT ( 'NONE', #171 ) ;
#265 = DIRECTION ( 'NONE',  ( 1.000000000000000000, 0.000000000000000000, 0.000000000000000000 ) ) ;
#266 = DIRECTION ( 'NONE',  ( 0.000000000000000000, 0.000000000000000000, 1.000000000000000000 ) ) ;
#267 = PRODUCT ( '151170', '151170', '', ( #242 ) ) ;
#268 = ADVANCED_FACE ( 'NONE', ( #151 ), #49, .F. ) ;
#269 = CIRCLE ( 'NONE', #146, 15.00000000000000000 ) ;
#270 = CALENDAR_DATE ( 2021, 3, 6 ) ;
#271 = CARTESIAN_POINT ( 'NONE',  ( 0.000000000000000000, 13.45000000000000284, -3.399999999999987921 ) ) ;
#272 =( GEOMETRIC_REPRESENTATION_CONTEXT ( 3 ) GLOBAL_UNCERTAINTY_ASSIGNED_CONTEXT ( ( #23 ) ) GLOBAL_UNIT_ASSIGNED_CONTEXT ( ( #66, #7, #161 ) ) REPRESENTATION_CONTEXT ( 'NONE', 'WORKASPACE' ) );
#273 = CARTESIAN_POINT ( 'NONE',  ( 0.000000000000000000, 13.45000000000000284, 0.000000000000000000 ) ) ;
#274 = DIRECTION ( 'NONE',  ( -0.000000000000000000, -1.000000000000000000, -0.000000000000000000 ) ) ;
#275 = AXIS2_PLACEMENT_3D ( 'NONE', #127, #19, #107 ) ;
#276 = DIRECTION ( 'NONE',  ( 0.000000000000000000, 0.000000000000000000, -1.000000000000000000 ) ) ;
#277 = CC_DESIGN_DATE_AND_TIME_ASSIGNMENT ( #177, #220, ( #202 ) ) ;
#278 = DIRECTION ( 'NONE',  ( 0.000000000000000000, 1.000000000000000000, 0.000000000000000000 ) ) ;
#279 = DIRECTION ( 'NONE',  ( 1.000000000000000000, 0.000000000000000000, 0.000000000000000000 ) ) ;
ENDSEC;
END-ISO-10303-21;
