ISO-10303-21;
HEADER;
FILE_DESCRIPTION (( 'STEP AP203' ),
    '1' );
FILE_NAME ('151179.step',
    '2021-06-03T16:32:29',
    ( '' ),
    ( '' ),
    'SwSTEP 2.0',
    'SolidWorks 2021',
    '' );
FILE_SCHEMA (( 'CONFIG_CONTROL_DESIGN' ));
ENDSEC;

DATA;
#1 = AXIS2_PLACEMENT_3D ( 'NONE', #141, #79, #274 ) ;
#2 = PERSON ( 'UNSPECIFIED', 'UNSPECIFIED', 'UNSPECIFIED', ('UNSPECIFIED'), ('UNSPECIFIED'), ('UNSPECIFIED') ) ;
#3 = PLANE ( 'NONE',  #1 ) ;
#4 = EDGE_CURVE ( 'NONE', #195, #166, #12, .T. ) ;
#5 =( NAMED_UNIT ( * ) SI_UNIT ( $, .STERADIAN. ) SOLID_ANGLE_UNIT ( ) );
#6 = AXIS2_PLACEMENT_3D ( 'NONE', #37, #64, #196 ) ;
#7 = APPROVAL_PERSON_ORGANIZATION ( #179, #328, #286 ) ;
#8 = LINE ( 'NONE', #271, #22 ) ;
#9 = LINE ( 'NONE', #304, #199 ) ;
#10 =( LENGTH_UNIT ( ) NAMED_UNIT ( * ) SI_UNIT ( .MILLI., .METRE. ) );
#11 = EDGE_CURVE ( 'NONE', #129, #113, #38, .T. ) ;
#12 = CIRCLE ( 'NONE', #99, 16.00000000000000000 ) ;
#13 = COORDINATED_UNIVERSAL_TIME_OFFSET ( 5, 0, .BEHIND. ) ;
#14 = ORIENTED_EDGE ( 'NONE', *, *, #351, .F. ) ;
#15 = APPROVAL_ROLE ( '' ) ;
#16 = DIRECTION ( 'NONE',  ( 0.000000000000000000, 0.000000000000000000, -1.000000000000000000 ) ) ;
#17 = ORIENTED_EDGE ( 'NONE', *, *, #48, .F. ) ;
#18 = CALENDAR_DATE ( 2021, 3, 6 ) ;
#19 = EDGE_CURVE ( 'NONE', #152, #413, #40, .T. ) ;
#20 = VERTEX_POINT ( 'NONE', #241 ) ;
#21 = PERSON_AND_ORGANIZATION ( #2, #276 ) ;
#22 = VECTOR ( 'NONE', #367, 1000.000000000000000 ) ;
#23 = CARTESIAN_POINT ( 'NONE',  ( -10.63329402510256116, 7.500000000000000000, 3.000000000000000000 ) ) ;
#24 = ORIENTED_EDGE ( 'NONE', *, *, #297, .F. ) ;
#25 = PERSON_AND_ORGANIZATION_ROLE ( 'creator' ) ;
#26 = CARTESIAN_POINT ( 'NONE',  ( -10.63329402510256116, -7.500000000000000000, 3.000000000000000000 ) ) ;
#27 = ORIENTED_EDGE ( 'NONE', *, *, #405, .T. ) ;
#28 = DIRECTION ( 'NONE',  ( 1.000000000000000000, 0.000000000000000000, 0.000000000000000000 ) ) ;
#29 = ORIENTED_EDGE ( 'NONE', *, *, #78, .T. ) ;
#30 = EDGE_CURVE ( 'NONE', #129, #195, #185, .T. ) ;
#31 = FACE_OUTER_BOUND ( 'NONE', #315, .T. ) ;
#32 = AXIS2_PLACEMENT_3D ( 'NONE', #58, #374, #419 ) ;
#33 = VERTEX_POINT ( 'NONE', #187 ) ;
#34 = FACE_OUTER_BOUND ( 'NONE', #138, .T. ) ;
#35 = ORIENTED_EDGE ( 'NONE', *, *, #19, .F. ) ;
#36 = ADVANCED_FACE ( 'NONE', ( #85 ), #221, .F. ) ;
#37 = CARTESIAN_POINT ( 'NONE',  ( 0.000000000000000000, 0.000000000000000000, -8.673617379884035472E-16 ) ) ;
#38 = LINE ( 'NONE', #122, #327 ) ;
#39 = CARTESIAN_POINT ( 'NONE',  ( -12.50000000000000000, 0.000000000000000000, 0.000000000000000000 ) ) ;
#40 = CIRCLE ( 'NONE', #207, 4.500000000000000000 ) ;
#41 = CC_DESIGN_SECURITY_CLASSIFICATION ( #365, ( #67 ) ) ;
#42 = CYLINDRICAL_SURFACE ( 'NONE', #92, 16.00000000000000000 ) ;
#43 = EDGE_CURVE ( 'NONE', #263, #33, #149, .T. ) ;
#44 = CARTESIAN_POINT ( 'NONE',  ( 4.500000000000000000, 5.510910596163090542E-16, 4.500000000000000000 ) ) ;
#45 = CARTESIAN_POINT ( 'NONE',  ( 2.499999999999997780, 0.000000000000000000, -8.673617379884035472E-16 ) ) ;
#46 = AXIS2_PLACEMENT_3D ( 'NONE', #404, #401, #366 ) ;
#47 = CARTESIAN_POINT ( 'NONE',  ( 3.500000000000000000, 0.000000000000000000, 0.000000000000000000 ) ) ;
#48 = EDGE_CURVE ( 'NONE', #413, #152, #345, .T. ) ;
#49 = APPROVAL_STATUS ( 'not_yet_approved' ) ;
#50 = ORIENTED_EDGE ( 'NONE', *, *, #351, .T. ) ;
#51 = VECTOR ( 'NONE', #200, 1000.000000000000000 ) ;
#52 = DATE_AND_TIME ( #309, #247 ) ;
#53 = AXIS2_PLACEMENT_3D ( 'NONE', #47, #178, #208 ) ;
#54 = DIRECTION ( 'NONE',  ( -0.000000000000000000, -0.000000000000000000, 1.000000000000000000 ) ) ;
#55 = ADVANCED_FACE ( 'NONE', ( #318 ), #283, .T. ) ;
#56 = PERSON_AND_ORGANIZATION ( #2, #276 ) ;
#57 = PERSON_AND_ORGANIZATION ( #2, #276 ) ;
#58 = CARTESIAN_POINT ( 'NONE',  ( 0.000000000000000000, 0.000000000000000000, 3.000000000000000000 ) ) ;
#59 = AXIS2_PLACEMENT_3D ( 'NONE', #228, #206, #360 ) ;
#60 = DIRECTION ( 'NONE',  ( 1.000000000000000000, 0.000000000000000000, 0.000000000000000000 ) ) ;
#61 = ORIENTED_EDGE ( 'NONE', *, *, #245, .F. ) ;
#62 = DIRECTION ( 'NONE',  ( 0.000000000000000000, 0.000000000000000000, -1.000000000000000000 ) ) ;
#63 = EDGE_LOOP ( 'NONE', ( #29, #396 ) ) ;
#64 = DIRECTION ( 'NONE',  ( -0.000000000000000000, -0.000000000000000000, 1.000000000000000000 ) ) ;
#65 = ORIENTED_EDGE ( 'NONE', *, *, #73, .T. ) ;
#66 = DIRECTION ( 'NONE',  ( 0.000000000000000000, 0.000000000000000000, -1.000000000000000000 ) ) ;
#67 = PRODUCT_DEFINITION_FORMATION_WITH_SPECIFIED_SOURCE ( 'ANY', '', #174, .NOT_KNOWN. ) ;
#68 = ORIENTED_EDGE ( 'NONE', *, *, #390, .F. ) ;
#69 = ADVANCED_FACE ( 'NONE', ( #287 ), #125, .F. ) ;
#70 = CARTESIAN_POINT ( 'NONE',  ( -10.63329402510256116, -7.500000000000000000, 3.000000000000000000 ) ) ;
#71 = DIRECTION ( 'NONE',  ( 1.000000000000000000, 0.000000000000000000, 0.000000000000000000 ) ) ;
#72 = DIRECTION ( 'NONE',  ( 1.000000000000000000, 0.000000000000000000, 0.000000000000000000 ) ) ;
#73 = EDGE_CURVE ( 'NONE', #195, #255, #252, .T. ) ;
#74 = CIRCLE ( 'NONE', #370, 16.00000000000000000 ) ;
#75 = CARTESIAN_POINT ( 'NONE',  ( -12.50000000000000000, 0.000000000000000000, 3.000000000000000000 ) ) ;
#76 = DIRECTION ( 'NONE',  ( -0.000000000000000000, -0.000000000000000000, 1.000000000000000000 ) ) ;
#77 = DIRECTION ( 'NONE',  ( -1.000000000000000000, 0.000000000000000000, 0.000000000000000000 ) ) ;
#78 = EDGE_CURVE ( 'NONE', #33, #263, #275, .T. ) ;
#79 = DIRECTION ( 'NONE',  ( 0.000000000000000000, -1.000000000000000000, 0.000000000000000000 ) ) ;
#80 = APPLICATION_CONTEXT ( 'configuration controlled 3d designs of mechanical parts and assemblies' ) ;
#81 = DIRECTION ( 'NONE',  ( 0.000000000000000000, 0.000000000000000000, 1.000000000000000000 ) ) ;
#82 = DIRECTION ( 'NONE',  ( -0.000000000000000000, -0.000000000000000000, 1.000000000000000000 ) ) ;
#83 = EDGE_CURVE ( 'NONE', #332, #428, #349, .T. ) ;
#84 = CALENDAR_DATE ( 2021, 3, 6 ) ;
#85 = FACE_OUTER_BOUND ( 'NONE', #224, .T. ) ;
#86 = PERSON_AND_ORGANIZATION_ROLE ( 'design_owner' ) ;
#87 = DIRECTION ( 'NONE',  ( 1.000000000000000000, 0.000000000000000000, 0.000000000000000000 ) ) ;
#88 = ORIENTED_EDGE ( 'NONE', *, *, #30, .F. ) ;
#89 = DATE_AND_TIME ( #84, #176 ) ;
#90 = ORIENTED_EDGE ( 'NONE', *, *, #83, .F. ) ;
#91 = ADVANCED_FACE ( 'NONE', ( #191 ), #182, .T. ) ;
#92 = AXIS2_PLACEMENT_3D ( 'NONE', #112, #303, #77 ) ;
#93 = ORIENTED_EDGE ( 'NONE', *, *, #30, .T. ) ;
#94 = CARTESIAN_POINT ( 'NONE',  ( 4.500000000000000000, 5.510910596163090542E-16, 3.000000000000000000 ) ) ;
#95 = ORIENTED_EDGE ( 'NONE', *, *, #134, .F. ) ;
#96 = DIRECTION ( 'NONE',  ( 1.000000000000000000, 0.000000000000000000, 0.000000000000000000 ) ) ;
#97 = ORIENTED_EDGE ( 'NONE', *, *, #115, .T. ) ;
#98 = CARTESIAN_POINT ( 'NONE',  ( 0.000000000000000000, 0.000000000000000000, -8.673617379884035472E-16 ) ) ;
#99 = AXIS2_PLACEMENT_3D ( 'NONE', #389, #361, #71 ) ;
#100 = ORIENTED_EDGE ( 'NONE', *, *, #73, .F. ) ;
#101 = CARTESIAN_POINT ( 'NONE',  ( 0.000000000000000000, 0.000000000000000000, 4.500000000000000888 ) ) ;
#102 = DIRECTION ( 'NONE',  ( 1.000000000000000000, 0.000000000000000000, 0.000000000000000000 ) ) ;
#103 = MANIFOLD_SOLID_BREP ( 'M6x1.0 Tapped Hole1', #238 ) ;
#104 = APPROVAL ( #124, 'UNSPECIFIED' ) ;
#105 =( NAMED_UNIT ( * ) PLANE_ANGLE_UNIT ( ) SI_UNIT ( $, .RADIAN. ) );
#106 = CIRCLE ( 'NONE', #46, 16.00000000000000000 ) ;
#107 = CARTESIAN_POINT ( 'NONE',  ( 3.500000000000000000, 0.000000000000000000, 0.000000000000000000 ) ) ;
#108 = FACE_OUTER_BOUND ( 'NONE', #229, .T. ) ;
#109 = ADVANCED_FACE ( 'NONE', ( #128, #415 ), #119, .T. ) ;
#110 = DIRECTION ( 'NONE',  ( 1.000000000000000000, 0.000000000000000000, 0.000000000000000000 ) ) ;
#111 = VECTOR ( 'NONE', #236, 1000.000000000000000 ) ;
#112 = CARTESIAN_POINT ( 'NONE',  ( -8.000000000000000000, 0.000000000000000000, 3.000000000000000000 ) ) ;
#113 = VERTEX_POINT ( 'NONE', #377 ) ;
#114 = COORDINATED_UNIVERSAL_TIME_OFFSET ( 5, 0, .BEHIND. ) ;
#115 = EDGE_CURVE ( 'NONE', #123, #20, #161, .T. ) ;
#116 = CARTESIAN_POINT ( 'NONE',  ( 0.000000000000000000, 0.000000000000000000, 4.500000000000000000 ) ) ;
#117 = EDGE_LOOP ( 'NONE', ( #322, #222, #279, #61 ) ) ;
#118 = PERSON_AND_ORGANIZATION ( #2, #276 ) ;
#119 = PLANE ( 'NONE',  #140 ) ;
#120 = PERSON_AND_ORGANIZATION ( #2, #276 ) ;
#121 =( GEOMETRIC_REPRESENTATION_CONTEXT ( 3 ) GLOBAL_UNCERTAINTY_ASSIGNED_CONTEXT ( ( #337 ) ) GLOBAL_UNIT_ASSIGNED_CONTEXT ( ( #10, #105, #5 ) ) REPRESENTATION_CONTEXT ( 'NONE', 'WORKASPACE' ) );
#122 = CARTESIAN_POINT ( 'NONE',  ( 6.133294025102570046, 7.500000000000000000, 3.000000000000000000 ) ) ;
#123 = VERTEX_POINT ( 'NONE', #70 ) ;
#124 = APPROVAL_STATUS ( 'not_yet_approved' ) ;
#125 = CYLINDRICAL_SURFACE ( 'NONE', #145, 2.499999999999992895 ) ;
#126 = PRODUCT_DEFINITION ( 'UNKNOWN', '', #67, #144 ) ;
#127 = APPROVAL_DATE_TIME ( #280, #328 ) ;
#128 = FACE_BOUND ( 'NONE', #289, .T. ) ;
#129 = VERTEX_POINT ( 'NONE', #336 ) ;
#130 = AXIS2_PLACEMENT_3D ( 'NONE', #300, #423, #333 ) ;
#131 = CC_DESIGN_APPROVAL ( #104, ( #67 ) ) ;
#132 = CARTESIAN_POINT ( 'NONE',  ( -10.63329402510256116, 7.500000000000000000, 3.000000000000000000 ) ) ;
#133 = ORIENTED_EDGE ( 'NONE', *, *, #217, .T. ) ;
#134 = EDGE_CURVE ( 'NONE', #219, #20, #74, .T. ) ;
#135 = LINE ( 'NONE', #391, #388 ) ;
#136 = ORIENTED_EDGE ( 'NONE', *, *, #204, .F. ) ;
#137 = PLANE ( 'NONE',  #352 ) ;
#138 = EDGE_LOOP ( 'NONE', ( #90, #420, #296, #381 ) ) ;
#139 = DIRECTION ( 'NONE',  ( 0.000000000000000000, 0.000000000000000000, -1.000000000000000000 ) ) ;
#140 = AXIS2_PLACEMENT_3D ( 'NONE', #244, #254, #387 ) ;
#141 = CARTESIAN_POINT ( 'NONE',  ( -10.63329402510256116, 7.500000000000000000, 3.000000000000000000 ) ) ;
#142 = CC_DESIGN_PERSON_AND_ORGANIZATION_ASSIGNMENT ( #251, #243, ( #67 ) ) ;
#143 = CARTESIAN_POINT ( 'NONE',  ( 0.000000000000000000, 0.000000000000000000, 0.000000000000000000 ) ) ;
#144 = DESIGN_CONTEXT ( 'detailed design', #80, 'design' ) ;
#145 = AXIS2_PLACEMENT_3D ( 'NONE', #153, #82, #346 ) ;
#146 = APPROVAL_PERSON_ORGANIZATION ( #120, #373, #15 ) ;
#147 = DIRECTION ( 'NONE',  ( 1.000000000000000000, 0.000000000000000000, 0.000000000000000000 ) ) ;
#148 = PRODUCT_DEFINITION_SHAPE ( 'NONE', 'NONE',  #126 ) ;
#149 = CIRCLE ( 'NONE', #402, 4.500000000000000000 ) ;
#150 = LOCAL_TIME ( 12, 32, 29.00000000000000000, #342 ) ;
#151 = CALENDAR_DATE ( 2021, 3, 6 ) ;
#152 = VERTEX_POINT ( 'NONE', #94 ) ;
#153 = CARTESIAN_POINT ( 'NONE',  ( 0.000000000000000000, 0.000000000000000000, 4.500000000000000000 ) ) ;
#154 = DIRECTION ( 'NONE',  ( -1.000000000000000000, 0.000000000000000000, 0.000000000000000000 ) ) ;
#155 = ORIENTED_EDGE ( 'NONE', *, *, #430, .F. ) ;
#156 = AXIS2_PLACEMENT_3D ( 'NONE', #159, #16, #281 ) ;
#157 = DIRECTION ( 'NONE',  ( 0.000000000000000000, 0.000000000000000000, -1.000000000000000000 ) ) ;
#158 = EDGE_CURVE ( 'NONE', #326, #129, #198, .T. ) ;
#159 = CARTESIAN_POINT ( 'NONE',  ( 3.500000000000000000, 0.000000000000000000, 3.000000000000000000 ) ) ;
#160 = ORIENTED_EDGE ( 'NONE', *, *, #158, .T. ) ;
#161 = LINE ( 'NONE', #357, #256 ) ;
#162 = ORIENTED_EDGE ( 'NONE', *, *, #19, .T. ) ;
#163 = CYLINDRICAL_SURFACE ( 'NONE', #234, 16.00000000000000000 ) ;
#164 = EDGE_LOOP ( 'NONE', ( #250, #277, #324, #160, #93 ) ) ;
#165 = FACE_OUTER_BOUND ( 'NONE', #164, .T. ) ;
#166 = VERTEX_POINT ( 'NONE', #363 ) ;
#167 = DIRECTION ( 'NONE',  ( -0.000000000000000000, -0.000000000000000000, 1.000000000000000000 ) ) ;
#168 = CARTESIAN_POINT ( 'NONE',  ( -10.63329402510256116, 7.500000000000000000, 0.000000000000000000 ) ) ;
#169 = CIRCLE ( 'NONE', #408, 2.499999999999988454 ) ;
#170 = EDGE_CURVE ( 'NONE', #326, #394, #135, .T. ) ;
#171 = FACE_OUTER_BOUND ( 'NONE', #197, .T. ) ;
#172 = CC_DESIGN_PERSON_AND_ORGANIZATION_ASSIGNMENT ( #57, #86, ( #174 ) ) ;
#173 = CARTESIAN_POINT ( 'NONE',  ( 0.000000000000000000, 0.000000000000000000, 4.500000000000000888 ) ) ;
#174 = PRODUCT ( '151179', '151179', '', ( #372 ) ) ;
#175 = VECTOR ( 'NONE', #54, 1000.000000000000000 ) ;
#176 = LOCAL_TIME ( 12, 32, 29.00000000000000000, #13 ) ;
#177 = APPLICATION_PROTOCOL_DEFINITION ( 'international standard', 'config_control_design', 1994, #266 ) ;
#178 = DIRECTION ( 'NONE',  ( 0.000000000000000000, 0.000000000000000000, 1.000000000000000000 ) ) ;
#179 = PERSON_AND_ORGANIZATION ( #2, #276 ) ;
#180 = EDGE_CURVE ( 'NONE', #123, #326, #329, .T. ) ;
#181 = ORIENTED_EDGE ( 'NONE', *, *, #297, .T. ) ;
#182 = CYLINDRICAL_SURFACE ( 'NONE', #156, 16.00000000000000000 ) ;
#183 = EDGE_LOOP ( 'NONE', ( #226, #181, #162, #14 ) ) ;
#184 = PERSON_AND_ORGANIZATION_ROLE ( 'classification_officer' ) ;
#185 = LINE ( 'NONE', #23, #293 ) ;
#186 = EDGE_CURVE ( 'NONE', #394, #113, #246, .T. ) ;
#187 = CARTESIAN_POINT ( 'NONE',  ( -4.500000000000000000, 0.000000000000000000, 4.500000000000000000 ) ) ;
#188 = ORIENTED_EDGE ( 'NONE', *, *, #382, .F. ) ;
#189 = AXIS2_PLACEMENT_3D ( 'NONE', #101, #395, #202 ) ;
#190 = COORDINATED_UNIVERSAL_TIME_OFFSET ( 5, 0, .BEHIND. ) ;
#191 = FACE_OUTER_BOUND ( 'NONE', #426, .T. ) ;
#192 = ORIENTED_EDGE ( 'NONE', *, *, #368, .T. ) ;
#193 = DIRECTION ( 'NONE',  ( 0.000000000000000000, 0.000000000000000000, 1.000000000000000000 ) ) ;
#194 = ADVANCED_FACE ( 'NONE', ( #34 ), #232, .F. ) ;
#195 = VERTEX_POINT ( 'NONE', #132 ) ;
#196 = DIRECTION ( 'NONE',  ( 1.000000000000000000, 0.000000000000000000, 0.000000000000000000 ) ) ;
#197 = EDGE_LOOP ( 'NONE', ( #347, #424, #421, #356 ) ) ;
#198 = CIRCLE ( 'NONE', #59, 16.00000000000000000 ) ;
#199 = VECTOR ( 'NONE', #371, 1000.000000000000000 ) ;
#200 = DIRECTION ( 'NONE',  ( -0.000000000000000000, -0.000000000000000000, 1.000000000000000000 ) ) ;
#201 = EDGE_LOOP ( 'NONE', ( #203, #100, #88, #330 ) ) ;
#202 = DIRECTION ( 'NONE',  ( 1.000000000000000000, 0.000000000000000000, 0.000000000000000000 ) ) ;
#203 = ORIENTED_EDGE ( 'NONE', *, *, #382, .T. ) ;
#204 = EDGE_CURVE ( 'NONE', #242, #428, #376, .T. ) ;
#205 = DIRECTION ( 'NONE',  ( 0.000000000000000000, 0.000000000000000000, 1.000000000000000000 ) ) ;
#206 = DIRECTION ( 'NONE',  ( 0.000000000000000000, 0.000000000000000000, 1.000000000000000000 ) ) ;
#207 = AXIS2_PLACEMENT_3D ( 'NONE', #380, #193, #249 ) ;
#208 = DIRECTION ( 'NONE',  ( 1.000000000000000000, 0.000000000000000000, 0.000000000000000000 ) ) ;
#209 = ADVANCED_FACE ( 'NONE', ( #31 ), #163, .T. ) ;
#210 = CARTESIAN_POINT ( 'NONE',  ( 6.133294025102570046, -7.500000000000000000, 0.000000000000000000 ) ) ;
#211 = AXIS2_PLACEMENT_3D ( 'NONE', #107, #269, #147 ) ;
#212 = CARTESIAN_POINT ( 'NONE',  ( 6.133294025102570046, -7.500000000000000000, 3.000000000000000000 ) ) ;
#213 = EDGE_LOOP ( 'NONE', ( #17, #35 ) ) ;
#214 = DIRECTION ( 'NONE',  ( 0.000000000000000000, 0.000000000000000000, 1.000000000000000000 ) ) ;
#215 = AXIS2_PLACEMENT_3D ( 'NONE', #350, #157, #412 ) ;
#216 = APPROVAL_DATE_TIME ( #348, #104 ) ;
#217 = EDGE_CURVE ( 'NONE', #288, #332, #270, .T. ) ;
#218 = DIRECTION ( 'NONE',  ( 0.000000000000000000, 0.000000000000000000, 1.000000000000000000 ) ) ;
#219 = VERTEX_POINT ( 'NONE', #39 ) ;
#220 = DIRECTION ( 'NONE',  ( 0.000000000000000000, 0.000000000000000000, -1.000000000000000000 ) ) ;
#221 = PLANE ( 'NONE',  #284 ) ;
#222 = ORIENTED_EDGE ( 'NONE', *, *, #83, .T. ) ;
#223 = CARTESIAN_POINT ( 'NONE',  ( 3.500000000000000000, 0.000000000000000000, 3.000000000000000000 ) ) ;
#224 = EDGE_LOOP ( 'NONE', ( #285, #358, #409, #97 ) ) ;
#225 = FACE_BOUND ( 'NONE', #213, .T. ) ;
#226 = ORIENTED_EDGE ( 'NONE', *, *, #43, .F. ) ;
#227 = AXIS2_PLACEMENT_3D ( 'NONE', #98, #393, #96 ) ;
#228 = CARTESIAN_POINT ( 'NONE',  ( -8.000000000000000000, 0.000000000000000000, 3.000000000000000000 ) ) ;
#229 = EDGE_LOOP ( 'NONE', ( #258, #188, #354, #155, #95 ) ) ;
#230 = ADVANCED_FACE ( 'NONE', ( #225, #165 ), #137, .T. ) ;
#231 = LINE ( 'NONE', #362, #51 ) ;
#232 = CYLINDRICAL_SURFACE ( 'NONE', #364, 2.499999999999992895 ) ;
#233 = CARTESIAN_POINT ( 'NONE',  ( -4.500000000000000000, 0.000000000000000000, 3.000000000000000000 ) ) ;
#234 = AXIS2_PLACEMENT_3D ( 'NONE', #223, #355, #331 ) ;
#235 = ADVANCED_FACE ( 'NONE', ( #425 ), #398, .T. ) ;
#236 = DIRECTION ( 'NONE',  ( -1.000000000000000000, 0.000000000000000000, 0.000000000000000000 ) ) ;
#237 = LINE ( 'NONE', #240, #397 ) ;
#238 = CLOSED_SHELL ( 'NONE', ( #69, #109, #235, #312, #262, #399, #36, #91, #230, #209, #55, #194 ) ) ;
#239 = EDGE_CURVE ( 'NONE', #332, #288, #416, .T. ) ;
#240 = CARTESIAN_POINT ( 'NONE',  ( 4.500000000000000000, 5.510910596163090542E-16, 4.500000000000000000 ) ) ;
#241 = CARTESIAN_POINT ( 'NONE',  ( -10.63329402510256116, -7.500000000000000000, 0.000000000000000000 ) ) ;
#242 = VERTEX_POINT ( 'NONE', #265 ) ;
#243 = PERSON_AND_ORGANIZATION_ROLE ( 'creator' ) ;
#244 = CARTESIAN_POINT ( 'NONE',  ( 0.000000000000000000, 0.000000000000000000, 4.500000000000000000 ) ) ;
#245 = EDGE_CURVE ( 'NONE', #288, #242, #231, .T. ) ;
#246 = CIRCLE ( 'NONE', #130, 16.00000000000000000 ) ;
#247 = LOCAL_TIME ( 12, 32, 29.00000000000000000, #253 ) ;
#248 = DATE_TIME_ROLE ( 'creation_date' ) ;
#249 = DIRECTION ( 'NONE',  ( 1.000000000000000000, 0.000000000000000000, 0.000000000000000000 ) ) ;
#250 = ORIENTED_EDGE ( 'NONE', *, *, #4, .T. ) ;
#251 = PERSON_AND_ORGANIZATION ( #2, #276 ) ;
#252 = LINE ( 'NONE', #384, #301 ) ;
#253 = COORDINATED_UNIVERSAL_TIME_OFFSET ( 5, 0, .BEHIND. ) ;
#254 = DIRECTION ( 'NONE',  ( 0.000000000000000000, 0.000000000000000000, 1.000000000000000000 ) ) ;
#255 = VERTEX_POINT ( 'NONE', #168 ) ;
#256 = VECTOR ( 'NONE', #66, 1000.000000000000000 ) ;
#257 = CC_DESIGN_DATE_AND_TIME_ASSIGNMENT ( #89, #313, ( #365 ) ) ;
#258 = ORIENTED_EDGE ( 'NONE', *, *, #405, .F. ) ;
#259 = CARTESIAN_POINT ( 'NONE',  ( 0.000000000000000000, 0.000000000000000000, 4.500000000000000000 ) ) ;
#260 = ORIENTED_EDGE ( 'NONE', *, *, #115, .F. ) ;
#261 = DIRECTION ( 'NONE',  ( -1.000000000000000000, 0.000000000000000000, 0.000000000000000000 ) ) ;
#262 = ADVANCED_FACE ( 'NONE', ( #302 ), #3, .F. ) ;
#263 = VERTEX_POINT ( 'NONE', #44 ) ;
#264 = VECTOR ( 'NONE', #341, 1000.000000000000000 ) ;
#265 = CARTESIAN_POINT ( 'NONE',  ( 2.499999999999988454, 0.000000000000000000, 4.500000000000000888 ) ) ;
#266 = APPLICATION_CONTEXT ( 'configuration controlled 3d designs of mechanical parts and assemblies' ) ;
#267 = CARTESIAN_POINT ( 'NONE',  ( 0.000000000000000000, 0.000000000000000000, 4.500000000000000000 ) ) ;
#268 = CARTESIAN_POINT ( 'NONE',  ( -10.63329402510256116, 7.500000000000000000, 0.000000000000000000 ) ) ;
#269 = DIRECTION ( 'NONE',  ( 0.000000000000000000, 0.000000000000000000, 1.000000000000000000 ) ) ;
#270 = CIRCLE ( 'NONE', #6, 2.499999999999997780 ) ;
#271 = CARTESIAN_POINT ( 'NONE',  ( -4.500000000000000000, 0.000000000000000000, 4.500000000000000000 ) ) ;
#272 = ADVANCED_BREP_SHAPE_REPRESENTATION ( '151179', ( #103, #294 ), #121 ) ;
#273 = EDGE_CURVE ( 'NONE', #166, #123, #106, .T. ) ;
#274 = DIRECTION ( 'NONE',  ( 0.000000000000000000, 0.000000000000000000, -1.000000000000000000 ) ) ;
#275 = CIRCLE ( 'NONE', #334, 4.500000000000000000 ) ;
#276 = ORGANIZATION ( 'UNSPECIFIED', 'UNSPECIFIED', '' ) ;
#277 = ORIENTED_EDGE ( 'NONE', *, *, #273, .T. ) ;
#278 = CARTESIAN_POINT ( 'NONE',  ( 0.000000000000000000, 0.000000000000000000, 4.500000000000000000 ) ) ;
#279 = ORIENTED_EDGE ( 'NONE', *, *, #390, .T. ) ;
#280 = DATE_AND_TIME ( #18, #150 ) ;
#281 = DIRECTION ( 'NONE',  ( -1.000000000000000000, 0.000000000000000000, 0.000000000000000000 ) ) ;
#282 = APPLICATION_PROTOCOL_DEFINITION ( 'international standard', 'config_control_design', 1994, #80 ) ;
#283 = CYLINDRICAL_SURFACE ( 'NONE', #215, 4.500000000000000000 ) ;
#284 = AXIS2_PLACEMENT_3D ( 'NONE', #26, #323, #28 ) ;
#285 = ORIENTED_EDGE ( 'NONE', *, *, #430, .T. ) ;
#286 = APPROVAL_ROLE ( '' ) ;
#287 = FACE_OUTER_BOUND ( 'NONE', #117, .T. ) ;
#288 = VERTEX_POINT ( 'NONE', #45 ) ;
#289 = EDGE_LOOP ( 'NONE', ( #136, #68 ) ) ;
#290 = CC_DESIGN_DATE_AND_TIME_ASSIGNMENT ( #52, #248, ( #126 ) ) ;
#291 = CARTESIAN_POINT ( 'NONE',  ( -10.63329402510256116, -7.500000000000000000, 3.000000000000000000 ) ) ;
#292 = ORIENTED_EDGE ( 'NONE', *, *, #368, .F. ) ;
#293 = VECTOR ( 'NONE', #154, 1000.000000000000000 ) ;
#294 = AXIS2_PLACEMENT_3D ( 'NONE', #143, #81, #344 ) ;
#295 = DIRECTION ( 'NONE',  ( 1.000000000000000000, 0.000000000000000000, 0.000000000000000000 ) ) ;
#296 = ORIENTED_EDGE ( 'NONE', *, *, #245, .T. ) ;
#297 = EDGE_CURVE ( 'NONE', #263, #152, #237, .T. ) ;
#298 = DIRECTION ( 'NONE',  ( 1.000000000000000000, 0.000000000000000000, 0.000000000000000000 ) ) ;
#299 = ORIENTED_EDGE ( 'NONE', *, *, #273, .F. ) ;
#300 = CARTESIAN_POINT ( 'NONE',  ( -8.000000000000000000, 0.000000000000000000, 0.000000000000000000 ) ) ;
#301 = VECTOR ( 'NONE', #220, 1000.000000000000000 ) ;
#302 = FACE_OUTER_BOUND ( 'NONE', #201, .T. ) ;
#303 = DIRECTION ( 'NONE',  ( 0.000000000000000000, 0.000000000000000000, -1.000000000000000000 ) ) ;
#304 = CARTESIAN_POINT ( 'NONE',  ( -10.63329402510256116, -7.500000000000000000, 0.000000000000000000 ) ) ;
#305 = CARTESIAN_POINT ( 'NONE',  ( -2.499999999999988454, 3.061616997868371801E-16, 4.500000000000000888 ) ) ;
#306 = AXIS2_PLACEMENT_3D ( 'NONE', #259, #139, #261 ) ;
#307 = LOCAL_TIME ( 12, 32, 29.00000000000000000, #114 ) ;
#308 = DIRECTION ( 'NONE',  ( 0.000000000000000000, 0.000000000000000000, -1.000000000000000000 ) ) ;
#309 = CALENDAR_DATE ( 2021, 3, 6 ) ;
#310 = VECTOR ( 'NONE', #295, 1000.000000000000000 ) ;
#311 = CIRCLE ( 'NONE', #53, 16.00000000000000000 ) ;
#312 = ADVANCED_FACE ( 'NONE', ( #340, #108 ), #369, .F. ) ;
#313 = DATE_TIME_ROLE ( 'classification_date' ) ;
#314 = CARTESIAN_POINT ( 'NONE',  ( -2.499999999999992895, 3.061616997868374760E-16, 4.500000000000000000 ) ) ;
#315 = EDGE_LOOP ( 'NONE', ( #299, #192, #353, #260 ) ) ;
#316 = EDGE_LOOP ( 'NONE', ( #24, #392, #50, #417 ) ) ;
#317 = PERSON_AND_ORGANIZATION_ROLE ( 'design_supplier' ) ;
#318 = FACE_OUTER_BOUND ( 'NONE', #183, .T. ) ;
#319 = ORIENTED_EDGE ( 'NONE', *, *, #4, .F. ) ;
#320 = CALENDAR_DATE ( 2021, 3, 6 ) ;
#321 = CC_DESIGN_PERSON_AND_ORGANIZATION_ASSIGNMENT ( #21, #25, ( #126 ) ) ;
#322 = ORIENTED_EDGE ( 'NONE', *, *, #239, .F. ) ;
#323 = DIRECTION ( 'NONE',  ( -0.000000000000000000, 1.000000000000000000, 0.000000000000000000 ) ) ;
#324 = ORIENTED_EDGE ( 'NONE', *, *, #180, .T. ) ;
#325 = CARTESIAN_POINT ( 'NONE',  ( 3.500000000000000000, 0.000000000000000000, 3.000000000000000000 ) ) ;
#326 = VERTEX_POINT ( 'NONE', #212 ) ;
#327 = VECTOR ( 'NONE', #62, 1000.000000000000000 ) ;
#328 = APPROVAL ( #414, 'UNSPECIFIED' ) ;
#329 = LINE ( 'NONE', #291, #310 ) ;
#330 = ORIENTED_EDGE ( 'NONE', *, *, #11, .T. ) ;
#331 = DIRECTION ( 'NONE',  ( -1.000000000000000000, 0.000000000000000000, 0.000000000000000000 ) ) ;
#332 = VERTEX_POINT ( 'NONE', #407 ) ;
#333 = DIRECTION ( 'NONE',  ( 1.000000000000000000, 0.000000000000000000, 0.000000000000000000 ) ) ;
#334 = AXIS2_PLACEMENT_3D ( 'NONE', #116, #214, #60 ) ;
#335 = LOCAL_TIME ( 12, 32, 29.00000000000000000, #190 ) ;
#336 = CARTESIAN_POINT ( 'NONE',  ( 6.133294025102570046, 7.500000000000000000, 3.000000000000000000 ) ) ;
#337 = UNCERTAINTY_MEASURE_WITH_UNIT (LENGTH_MEASURE( 1.000000000000000082E-05 ), #10, 'distance_accuracy_value', 'NONE');
#338 = CC_DESIGN_PERSON_AND_ORGANIZATION_ASSIGNMENT ( #56, #184, ( #365 ) ) ;
#339 = LINE ( 'NONE', #75, #264 ) ;
#340 = FACE_BOUND ( 'NONE', #385, .T. ) ;
#341 = DIRECTION ( 'NONE',  ( 0.000000000000000000, 0.000000000000000000, -1.000000000000000000 ) ) ;
#342 = COORDINATED_UNIVERSAL_TIME_OFFSET ( 5, 0, .BEHIND. ) ;
#343 = ORIENTED_EDGE ( 'NONE', *, *, #239, .T. ) ;
#344 = DIRECTION ( 'NONE',  ( 1.000000000000000000, 0.000000000000000000, 0.000000000000000000 ) ) ;
#345 = CIRCLE ( 'NONE', #32, 4.500000000000000000 ) ;
#346 = DIRECTION ( 'NONE',  ( 1.000000000000000000, 0.000000000000000000, 0.000000000000000000 ) ) ;
#347 = ORIENTED_EDGE ( 'NONE', *, *, #186, .T. ) ;
#348 = DATE_AND_TIME ( #320, #335 ) ;
#349 = LINE ( 'NONE', #314, #175 ) ;
#350 = CARTESIAN_POINT ( 'NONE',  ( 0.000000000000000000, 0.000000000000000000, 4.500000000000000000 ) ) ;
#351 = EDGE_CURVE ( 'NONE', #33, #413, #8, .T. ) ;
#352 = AXIS2_PLACEMENT_3D ( 'NONE', #325, #429, #298 ) ;
#353 = ORIENTED_EDGE ( 'NONE', *, *, #134, .T. ) ;
#354 = ORIENTED_EDGE ( 'NONE', *, *, #186, .F. ) ;
#355 = DIRECTION ( 'NONE',  ( 0.000000000000000000, 0.000000000000000000, -1.000000000000000000 ) ) ;
#356 = ORIENTED_EDGE ( 'NONE', *, *, #170, .T. ) ;
#357 = CARTESIAN_POINT ( 'NONE',  ( -10.63329402510256116, -7.500000000000000000, 3.000000000000000000 ) ) ;
#358 = ORIENTED_EDGE ( 'NONE', *, *, #170, .F. ) ;
#359 = CC_DESIGN_APPROVAL ( #373, ( #365 ) ) ;
#360 = DIRECTION ( 'NONE',  ( 1.000000000000000000, 0.000000000000000000, 0.000000000000000000 ) ) ;
#361 = DIRECTION ( 'NONE',  ( 0.000000000000000000, 0.000000000000000000, 1.000000000000000000 ) ) ;
#362 = CARTESIAN_POINT ( 'NONE',  ( 2.499999999999992895, 0.000000000000000000, 4.500000000000000000 ) ) ;
#363 = CARTESIAN_POINT ( 'NONE',  ( -12.50000000000000000, 0.000000000000000000, 3.000000000000000000 ) ) ;
#364 = AXIS2_PLACEMENT_3D ( 'NONE', #267, #167, #72 ) ;
#365 = SECURITY_CLASSIFICATION ( '', '', #411 ) ;
#366 = DIRECTION ( 'NONE',  ( 1.000000000000000000, 0.000000000000000000, 0.000000000000000000 ) ) ;
#367 = DIRECTION ( 'NONE',  ( 0.000000000000000000, 0.000000000000000000, -1.000000000000000000 ) ) ;
#368 = EDGE_CURVE ( 'NONE', #166, #219, #339, .T. ) ;
#369 = PLANE ( 'NONE',  #211 ) ;
#370 = AXIS2_PLACEMENT_3D ( 'NONE', #400, #205, #102 ) ;
#371 = DIRECTION ( 'NONE',  ( 1.000000000000000000, 0.000000000000000000, 0.000000000000000000 ) ) ;
#372 = MECHANICAL_CONTEXT ( 'NONE', #266, 'mechanical' ) ;
#373 = APPROVAL ( #49, 'UNSPECIFIED' ) ;
#374 = DIRECTION ( 'NONE',  ( 0.000000000000000000, 0.000000000000000000, 1.000000000000000000 ) ) ;
#375 = SHAPE_DEFINITION_REPRESENTATION ( #148, #272 ) ;
#376 = CIRCLE ( 'NONE', #189, 2.499999999999988454 ) ;
#377 = CARTESIAN_POINT ( 'NONE',  ( 6.133294025102570046, 7.500000000000000000, 0.000000000000000000 ) ) ;
#378 = CC_DESIGN_APPROVAL ( #328, ( #126 ) ) ;
#379 = APPROVAL_DATE_TIME ( #386, #373 ) ;
#380 = CARTESIAN_POINT ( 'NONE',  ( 0.000000000000000000, 0.000000000000000000, 3.000000000000000000 ) ) ;
#381 = ORIENTED_EDGE ( 'NONE', *, *, #204, .T. ) ;
#382 = EDGE_CURVE ( 'NONE', #113, #255, #406, .T. ) ;
#383 = PERSON_AND_ORGANIZATION ( #2, #276 ) ;
#384 = CARTESIAN_POINT ( 'NONE',  ( -10.63329402510256116, 7.500000000000000000, 3.000000000000000000 ) ) ;
#385 = EDGE_LOOP ( 'NONE', ( #133, #343 ) ) ;
#386 = DATE_AND_TIME ( #151, #307 ) ;
#387 = DIRECTION ( 'NONE',  ( 1.000000000000000000, 0.000000000000000000, 0.000000000000000000 ) ) ;
#388 = VECTOR ( 'NONE', #427, 1000.000000000000000 ) ;
#389 = CARTESIAN_POINT ( 'NONE',  ( 3.500000000000000000, 0.000000000000000000, 3.000000000000000000 ) ) ;
#390 = EDGE_CURVE ( 'NONE', #428, #242, #169, .T. ) ;
#391 = CARTESIAN_POINT ( 'NONE',  ( 6.133294025102570046, -7.500000000000000000, 3.000000000000000000 ) ) ;
#392 = ORIENTED_EDGE ( 'NONE', *, *, #78, .F. ) ;
#393 = DIRECTION ( 'NONE',  ( -0.000000000000000000, -0.000000000000000000, 1.000000000000000000 ) ) ;
#394 = VERTEX_POINT ( 'NONE', #210 ) ;
#395 = DIRECTION ( 'NONE',  ( -0.000000000000000000, -0.000000000000000000, 1.000000000000000000 ) ) ;
#396 = ORIENTED_EDGE ( 'NONE', *, *, #43, .T. ) ;
#397 = VECTOR ( 'NONE', #308, 1000.000000000000000 ) ;
#398 = CYLINDRICAL_SURFACE ( 'NONE', #306, 4.500000000000000000 ) ;
#399 = ADVANCED_FACE ( 'NONE', ( #171 ), #42, .T. ) ;
#400 = CARTESIAN_POINT ( 'NONE',  ( 3.500000000000000000, 0.000000000000000000, 0.000000000000000000 ) ) ;
#401 = DIRECTION ( 'NONE',  ( 0.000000000000000000, 0.000000000000000000, 1.000000000000000000 ) ) ;
#402 = AXIS2_PLACEMENT_3D ( 'NONE', #278, #218, #87 ) ;
#403 = APPROVAL_PERSON_ORGANIZATION ( #118, #104, #418 ) ;
#404 = CARTESIAN_POINT ( 'NONE',  ( 3.500000000000000000, 0.000000000000000000, 3.000000000000000000 ) ) ;
#405 = EDGE_CURVE ( 'NONE', #255, #219, #311, .T. ) ;
#406 = LINE ( 'NONE', #268, #111 ) ;
#407 = CARTESIAN_POINT ( 'NONE',  ( -2.499999999999998224, 3.061616997868381169E-16, -8.673617379884035472E-16 ) ) ;
#408 = AXIS2_PLACEMENT_3D ( 'NONE', #173, #76, #110 ) ;
#409 = ORIENTED_EDGE ( 'NONE', *, *, #180, .F. ) ;
#410 = CC_DESIGN_PERSON_AND_ORGANIZATION_ASSIGNMENT ( #383, #317, ( #67 ) ) ;
#411 = SECURITY_CLASSIFICATION_LEVEL ( 'unclassified' ) ;
#412 = DIRECTION ( 'NONE',  ( -1.000000000000000000, 0.000000000000000000, 0.000000000000000000 ) ) ;
#413 = VERTEX_POINT ( 'NONE', #233 ) ;
#414 = APPROVAL_STATUS ( 'not_yet_approved' ) ;
#415 = FACE_OUTER_BOUND ( 'NONE', #63, .T. ) ;
#416 = CIRCLE ( 'NONE', #227, 2.499999999999997780 ) ;
#417 = ORIENTED_EDGE ( 'NONE', *, *, #48, .T. ) ;
#418 = APPROVAL_ROLE ( '' ) ;
#419 = DIRECTION ( 'NONE',  ( 1.000000000000000000, 0.000000000000000000, 0.000000000000000000 ) ) ;
#420 = ORIENTED_EDGE ( 'NONE', *, *, #217, .F. ) ;
#421 = ORIENTED_EDGE ( 'NONE', *, *, #158, .F. ) ;
#422 = PRODUCT_RELATED_PRODUCT_CATEGORY ( 'detail', '', ( #174 ) ) ;
#423 = DIRECTION ( 'NONE',  ( 0.000000000000000000, 0.000000000000000000, 1.000000000000000000 ) ) ;
#424 = ORIENTED_EDGE ( 'NONE', *, *, #11, .F. ) ;
#425 = FACE_OUTER_BOUND ( 'NONE', #316, .T. ) ;
#426 = EDGE_LOOP ( 'NONE', ( #292, #319, #65, #27 ) ) ;
#427 = DIRECTION ( 'NONE',  ( 0.000000000000000000, 0.000000000000000000, -1.000000000000000000 ) ) ;
#428 = VERTEX_POINT ( 'NONE', #305 ) ;
#429 = DIRECTION ( 'NONE',  ( 0.000000000000000000, 0.000000000000000000, 1.000000000000000000 ) ) ;
#430 = EDGE_CURVE ( 'NONE', #20, #394, #9, .T. ) ;
ENDSEC;
END-ISO-10303-21;
