ISO-10303-21;
HEADER;
FILE_DESCRIPTION (( 'STEP AP203' ),
    '1' );
FILE_NAME ('151213.step',
    '2021-06-03T16:36:53',
    ( '' ),
    ( '' ),
    'SwSTEP 2.0',
    'SolidWorks 2021',
    '' );
FILE_SCHEMA (( 'CONFIG_CONTROL_DESIGN' ));
ENDSEC;

DATA;
#1 = CARTESIAN_POINT ( 'NONE',  ( 4.500000000000000000, 5.000000000000000888, 0.000000000000000000 ) ) ;
#2 = ORIENTED_EDGE ( 'NONE', *, *, #44, .F. ) ;
#3 = ORIENTED_EDGE ( 'NONE', *, *, #6, .F. ) ;
#4 = LINE ( 'NONE', #312, #64 ) ;
#5 =( GEOMETRIC_REPRESENTATION_CONTEXT ( 3 ) GLOBAL_UNCERTAINTY_ASSIGNED_CONTEXT ( ( #288 ) ) GLOBAL_UNIT_ASSIGNED_CONTEXT ( ( #16, #326, #352 ) ) REPRESENTATION_CONTEXT ( 'NONE', 'WORKASPACE' ) );
#6 = EDGE_CURVE ( 'NONE', #38, #67, #320, .T. ) ;
#7 = ORIENTED_EDGE ( 'NONE', *, *, #314, .F. ) ;
#8 = ORIENTED_EDGE ( 'NONE', *, *, #218, .T. ) ;
#9 = FACE_OUTER_BOUND ( 'NONE', #163, .T. ) ;
#10 = EDGE_LOOP ( 'NONE', ( #249, #248, #243, #315 ) ) ;
#11 = EDGE_CURVE ( 'NONE', #376, #72, #152, .T. ) ;
#12 = CLOSED_SHELL ( 'NONE', ( #238, #244, #176, #37, #30, #145, #223, #333, #250, #27, #342 ) ) ;
#13 = AXIS2_PLACEMENT_3D ( 'NONE', #1, #366, #208 ) ;
#14 = DIRECTION ( 'NONE',  ( 0.000000000000000000, 1.000000000000000000, 0.000000000000000000 ) ) ;
#15 = CARTESIAN_POINT ( 'NONE',  ( 4.500000000000000000, 3.500000000000000000, 0.000000000000000000 ) ) ;
#16 =( LENGTH_UNIT ( ) NAMED_UNIT ( * ) SI_UNIT ( .MILLI., .METRE. ) );
#17 = PRODUCT_RELATED_PRODUCT_CATEGORY ( 'detail', '', ( #21 ) ) ;
#18 = CARTESIAN_POINT ( 'NONE',  ( 4.500000000000000000, 5.000000000000000000, 4.500000000000000000 ) ) ;
#19 = PERSON_AND_ORGANIZATION ( #31, #306 ) ;
#20 = CARTESIAN_POINT ( 'NONE',  ( 9.386509132694898838, 0.000000000000000000, 8.254904378721498404 ) ) ;
#21 = PRODUCT ( '151213', '151213', '', ( #330 ) ) ;
#22 = PRODUCT_DEFINITION_FORMATION_WITH_SPECIFIED_SOURCE ( 'ANY', '', #21, .NOT_KNOWN. ) ;
#23 = PERSON_AND_ORGANIZATION_ROLE ( 'design_supplier' ) ;
#24 = DIRECTION ( 'NONE',  ( 0.000000000000000000, -1.000000000000000000, 0.000000000000000000 ) ) ;
#25 = SECURITY_CLASSIFICATION_LEVEL ( 'unclassified' ) ;
#26 = ORIENTED_EDGE ( 'NONE', *, *, #314, .T. ) ;
#27 = ADVANCED_FACE ( 'NONE', ( #193, #81 ), #231, .T. ) ;
#28 = CIRCLE ( 'NONE', #275, 12.50000000000000000 ) ;
#29 = CARTESIAN_POINT ( 'NONE',  ( 4.500000000000000000, -8.673617379884035472E-16, -3.399999999999997691 ) ) ;
#30 = ADVANCED_FACE ( 'NONE', ( #382 ), #83, .T. ) ;
#31 = PERSON ( 'UNSPECIFIED', 'UNSPECIFIED', 'UNSPECIFIED', ('UNSPECIFIED'), ('UNSPECIFIED'), ('UNSPECIFIED') ) ;
#32 = ORIENTED_EDGE ( 'NONE', *, *, #11, .F. ) ;
#33 = VECTOR ( 'NONE', #281, 1000.000000000000000 ) ;
#34 = ORIENTED_EDGE ( 'NONE', *, *, #373, .T. ) ;
#35 = VERTEX_POINT ( 'NONE', #387 ) ;
#36 = DIRECTION ( 'NONE',  ( -0.000000000000000000, 1.000000000000000000, -0.000000000000000000 ) ) ;
#37 = ADVANCED_FACE ( 'NONE', ( #195 ), #139, .F. ) ;
#38 = VERTEX_POINT ( 'NONE', #378 ) ;
#39 = CARTESIAN_POINT ( 'NONE',  ( 4.500000000000000000, -8.673617379884035472E-16, 0.000000000000000000 ) ) ;
#40 = AXIS2_PLACEMENT_3D ( 'NONE', #39, #377, #375 ) ;
#41 = VERTEX_POINT ( 'NONE', #103 ) ;
#42 = DIRECTION ( 'NONE',  ( 0.000000000000000000, 1.000000000000000000, 0.000000000000000000 ) ) ;
#43 = ORIENTED_EDGE ( 'NONE', *, *, #158, .F. ) ;
#44 = EDGE_CURVE ( 'NONE', #72, #245, #257, .T. ) ;
#45 = LINE ( 'NONE', #255, #254 ) ;
#46 = VECTOR ( 'NONE', #323, 1000.000000000000000 ) ;
#47 = CARTESIAN_POINT ( 'NONE',  ( 0.000000000000000000, 3.500000000000000000, 0.000000000000000000 ) ) ;
#48 = APPROVAL_STATUS ( 'not_yet_approved' ) ;
#49 = PLANE ( 'NONE',  #61 ) ;
#50 = COORDINATED_UNIVERSAL_TIME_OFFSET ( 5, 0, .BEHIND. ) ;
#51 = CC_DESIGN_PERSON_AND_ORGANIZATION_ASSIGNMENT ( #262, #149, ( #167 ) ) ;
#52 = DIRECTION ( 'NONE',  ( 1.000000000000000000, 0.000000000000000000, 0.000000000000000000 ) ) ;
#53 = PERSON_AND_ORGANIZATION ( #31, #306 ) ;
#54 = CARTESIAN_POINT ( 'NONE',  ( -9.811396119679020700, 3.500000000000000000, -7.745095621278499820 ) ) ;
#55 = AXIS2_PLACEMENT_3D ( 'NONE', #156, #392, #379 ) ;
#56 = DATE_TIME_ROLE ( 'classification_date' ) ;
#57 = COORDINATED_UNIVERSAL_TIME_OFFSET ( 5, 0, .BEHIND. ) ;
#58 = PLANE ( 'NONE',  #55 ) ;
#59 = CARTESIAN_POINT ( 'NONE',  ( 4.500000000000000000, 5.000000000000000000, 0.000000000000000000 ) ) ;
#60 = VECTOR ( 'NONE', #74, 1000.000000000000000 ) ;
#61 = AXIS2_PLACEMENT_3D ( 'NONE', #325, #141, #52 ) ;
#62 = FACE_OUTER_BOUND ( 'NONE', #369, .T. ) ;
#63 = DIRECTION ( 'NONE',  ( 0.000000000000000000, -1.000000000000000000, 0.000000000000000000 ) ) ;
#64 = VECTOR ( 'NONE', #36, 1000.000000000000000 ) ;
#65 = EDGE_LOOP ( 'NONE', ( #302, #99 ) ) ;
#66 = APPROVAL ( #113, 'UNSPECIFIED' ) ;
#67 = VERTEX_POINT ( 'NONE', #359 ) ;
#68 = CARTESIAN_POINT ( 'NONE',  ( 4.500000000000000000, 5.000000000000000000, 0.000000000000000000 ) ) ;
#69 = ORIENTED_EDGE ( 'NONE', *, *, #44, .T. ) ;
#70 = DIRECTION ( 'NONE',  ( 0.000000000000000000, 1.000000000000000000, 0.000000000000000000 ) ) ;
#71 = EDGE_CURVE ( 'NONE', #348, #245, #128, .T. ) ;
#72 = VERTEX_POINT ( 'NONE', #108 ) ;
#73 = CARTESIAN_POINT ( 'NONE',  ( 4.500000000000000000, 3.500000000000000000, 0.000000000000000000 ) ) ;
#74 = DIRECTION ( 'NONE',  ( -0.000000000000000000, 1.000000000000000000, -0.000000000000000000 ) ) ;
#75 = LINE ( 'NONE', #172, #355 ) ;
#76 = DIRECTION ( 'NONE',  ( 1.000000000000000000, 0.000000000000000000, 0.000000000000000000 ) ) ;
#77 = AXIS2_PLACEMENT_3D ( 'NONE', #385, #227, #256 ) ;
#78 = AXIS2_PLACEMENT_3D ( 'NONE', #181, #303, #242 ) ;
#79 = LINE ( 'NONE', #199, #46 ) ;
#80 = PRODUCT_DEFINITION ( 'UNKNOWN', '', #22, #148 ) ;
#81 = FACE_OUTER_BOUND ( 'NONE', #65, .T. ) ;
#82 = CALENDAR_DATE ( 2021, 3, 6 ) ;
#83 = CYLINDRICAL_SURFACE ( 'NONE', #354, 12.50000000000000000 ) ;
#84 = PERSON_AND_ORGANIZATION ( #31, #306 ) ;
#85 = EDGE_CURVE ( 'NONE', #185, #41, #226, .T. ) ;
#86 = CARTESIAN_POINT ( 'NONE',  ( 9.811396119679020700, 0.000000000000000000, -7.745095621278509590 ) ) ;
#87 = EDGE_CURVE ( 'NONE', #220, #130, #140, .T. ) ;
#88 = CIRCLE ( 'NONE', #179, 12.50000000000000000 ) ;
#89 = DIRECTION ( 'NONE',  ( 0.000000000000000000, 1.000000000000000000, 0.000000000000000000 ) ) ;
#90 = DIRECTION ( 'NONE',  ( 0.000000000000000000, 0.000000000000000000, 1.000000000000000000 ) ) ;
#91 = ORIENTED_EDGE ( 'NONE', *, *, #259, .T. ) ;
#92 = AXIS2_PLACEMENT_3D ( 'NONE', #165, #14, #168 ) ;
#93 = CIRCLE ( 'NONE', #78, 3.399999999999997691 ) ;
#94 = CARTESIAN_POINT ( 'NONE',  ( 4.500000000000000000, 5.000000000000000000, 0.000000000000000000 ) ) ;
#95 = EDGE_LOOP ( 'NONE', ( #213, #161 ) ) ;
#96 = ORIENTED_EDGE ( 'NONE', *, *, #294, .T. ) ;
#97 = CC_DESIGN_PERSON_AND_ORGANIZATION_ASSIGNMENT ( #53, #23, ( #22 ) ) ;
#98 = CARTESIAN_POINT ( 'NONE',  ( 0.000000000000000000, 0.000000000000000000, 0.000000000000000000 ) ) ;
#99 = ORIENTED_EDGE ( 'NONE', *, *, #264, .T. ) ;
#100 = DIRECTION ( 'NONE',  ( 0.000000000000000000, 0.000000000000000000, 1.000000000000000000 ) ) ;
#101 = ORIENTED_EDGE ( 'NONE', *, *, #327, .T. ) ;
#102 = CARTESIAN_POINT ( 'NONE',  ( 4.500000000000000000, 3.500000000000000000, -4.500000000000000000 ) ) ;
#103 = CARTESIAN_POINT ( 'NONE',  ( -9.811396119679020700, 0.000000000000000000, -7.745095621278499820 ) ) ;
#104 = CARTESIAN_POINT ( 'NONE',  ( 4.500000000000000000, 5.000000000000000888, 3.399999999999987033 ) ) ;
#105 = EDGE_CURVE ( 'NONE', #368, #180, #380, .T. ) ;
#106 = PERSON_AND_ORGANIZATION_ROLE ( 'creator' ) ;
#107 = AXIS2_PLACEMENT_3D ( 'NONE', #73, #70, #129 ) ;
#108 = CARTESIAN_POINT ( 'NONE',  ( 4.500000000000000000, 5.000000000000000000, 4.500000000000000000 ) ) ;
#109 = CARTESIAN_POINT ( 'NONE',  ( -9.811396119679020700, 0.000000000000000000, -7.745095621278499820 ) ) ;
#110 = CARTESIAN_POINT ( 'NONE',  ( 4.500000000000000000, 5.000000000000000000, 0.000000000000000000 ) ) ;
#111 = APPROVAL_ROLE ( '' ) ;
#112 = FACE_OUTER_BOUND ( 'NONE', #346, .T. ) ;
#113 = APPROVAL_STATUS ( 'not_yet_approved' ) ;
#114 = CIRCLE ( 'NONE', #347, 12.50000000000000000 ) ;
#115 = EDGE_LOOP ( 'NONE', ( #159, #393, #265, #374 ) ) ;
#116 = DIRECTION ( 'NONE',  ( 1.000000000000000000, 0.000000000000000000, 0.000000000000000000 ) ) ;
#117 = CC_DESIGN_PERSON_AND_ORGANIZATION_ASSIGNMENT ( #19, #142, ( #22 ) ) ;
#118 = DIRECTION ( 'NONE',  ( 0.000000000000000000, 0.000000000000000000, -1.000000000000000000 ) ) ;
#119 = FACE_OUTER_BOUND ( 'NONE', #274, .T. ) ;
#120 = EDGE_LOOP ( 'NONE', ( #339, #186, #101, #96 ) ) ;
#121 = AXIS2_PLACEMENT_3D ( 'NONE', #150, #363, #336 ) ;
#122 = CARTESIAN_POINT ( 'NONE',  ( 4.500000000000000000, 5.000000000000000000, 0.000000000000000000 ) ) ;
#123 = DIRECTION ( 'NONE',  ( 0.000000000000000000, 0.000000000000000000, 1.000000000000000000 ) ) ;
#124 = DATE_AND_TIME ( #155, #361 ) ;
#125 = VERTEX_POINT ( 'NONE', #104 ) ;
#126 = DIRECTION ( 'NONE',  ( 0.000000000000000000, 1.000000000000000000, 0.000000000000000000 ) ) ;
#127 = ORIENTED_EDGE ( 'NONE', *, *, #131, .T. ) ;
#128 = CIRCLE ( 'NONE', #178, 4.500000000000000000 ) ;
#129 = DIRECTION ( 'NONE',  ( 0.000000000000000000, 0.000000000000000000, 1.000000000000000000 ) ) ;
#130 = VERTEX_POINT ( 'NONE', #353 ) ;
#131 = EDGE_CURVE ( 'NONE', #368, #304, #79, .T. ) ;
#132 = PRODUCT_DEFINITION_SHAPE ( 'NONE', 'NONE',  #80 ) ;
#133 = EDGE_LOOP ( 'NONE', ( #91, #271 ) ) ;
#134 = DIRECTION ( 'NONE',  ( 1.000000000000000000, 0.000000000000000000, 0.000000000000000000 ) ) ;
#135 = ORIENTED_EDGE ( 'NONE', *, *, #394, .F. ) ;
#136 = CYLINDRICAL_SURFACE ( 'NONE', #198, 3.399999999999992362 ) ;
#137 = DIRECTION ( 'NONE',  ( 0.000000000000000000, 0.000000000000000000, 1.000000000000000000 ) ) ;
#138 = APPROVAL_PERSON_ORGANIZATION ( #146, #240, #266 ) ;
#139 = PLANE ( 'NONE',  #77 ) ;
#140 = LINE ( 'NONE', #258, #60 ) ;
#141 = DIRECTION ( 'NONE',  ( 0.000000000000000000, 0.000000000000000000, 1.000000000000000000 ) ) ;
#142 = PERSON_AND_ORGANIZATION_ROLE ( 'creator' ) ;
#143 = VECTOR ( 'NONE', #116, 1000.000000000000000 ) ;
#144 = CARTESIAN_POINT ( 'NONE',  ( 4.500000000000000000, 5.000000000000000000, -4.500000000000000000 ) ) ;
#145 = ADVANCED_FACE ( 'NONE', ( #263 ), #49, .F. ) ;
#146 = PERSON_AND_ORGANIZATION ( #31, #306 ) ;
#147 = CARTESIAN_POINT ( 'NONE',  ( -9.386509132694898838, 3.500000000000000000, 8.254904378721498404 ) ) ;
#148 = DESIGN_CONTEXT ( 'detailed design', #279, 'design' ) ;
#149 = PERSON_AND_ORGANIZATION_ROLE ( 'classification_officer' ) ;
#150 = CARTESIAN_POINT ( 'NONE',  ( 0.000000000000000000, 3.500000000000000000, 0.000000000000000000 ) ) ;
#151 = PERSON_AND_ORGANIZATION ( #31, #306 ) ;
#152 = CIRCLE ( 'NONE', #92, 4.500000000000000000 ) ;
#153 = DIRECTION ( 'NONE',  ( 0.000000000000000000, 0.000000000000000000, -1.000000000000000000 ) ) ;
#154 = CC_DESIGN_PERSON_AND_ORGANIZATION_ASSIGNMENT ( #84, #289, ( #21 ) ) ;
#155 = CALENDAR_DATE ( 2021, 3, 6 ) ;
#156 = CARTESIAN_POINT ( 'NONE',  ( 0.000000000000000000, 3.500000000000000000, 0.000000000000000000 ) ) ;
#157 = APPROVAL_PERSON_ORGANIZATION ( #151, #188, #111 ) ;
#158 = EDGE_CURVE ( 'NONE', #67, #368, #88, .T. ) ;
#159 = ORIENTED_EDGE ( 'NONE', *, *, #351, .F. ) ;
#160 = VERTEX_POINT ( 'NONE', #20 ) ;
#161 = ORIENTED_EDGE ( 'NONE', *, *, #338, .F. ) ;
#162 = APPROVAL_PERSON_ORGANIZATION ( #174, #66, #235 ) ;
#163 = EDGE_LOOP ( 'NONE', ( #270, #313, #337, #182 ) ) ;
#164 = ORIENTED_EDGE ( 'NONE', *, *, #309, .F. ) ;
#165 = CARTESIAN_POINT ( 'NONE',  ( 4.500000000000000000, 5.000000000000000000, 0.000000000000000000 ) ) ;
#166 = EDGE_CURVE ( 'NONE', #376, #348, #328, .T. ) ;
#167 = SECURITY_CLASSIFICATION ( '', '', #25 ) ;
#168 = DIRECTION ( 'NONE',  ( 0.000000000000000000, 0.000000000000000000, 1.000000000000000000 ) ) ;
#169 = DIRECTION ( 'NONE',  ( 0.000000000000000000, -1.000000000000000000, 0.000000000000000000 ) ) ;
#170 = DATE_AND_TIME ( #324, #230 ) ;
#171 = CARTESIAN_POINT ( 'NONE',  ( 0.000000000000000000, 3.500000000000000000, 0.000000000000000000 ) ) ;
#172 = CARTESIAN_POINT ( 'NONE',  ( 9.386509132694898838, 3.500000000000000000, 8.254904378721498404 ) ) ;
#173 = AXIS2_PLACEMENT_3D ( 'NONE', #122, #63, #153 ) ;
#174 = PERSON_AND_ORGANIZATION ( #31, #306 ) ;
#175 = CARTESIAN_POINT ( 'NONE',  ( 9.386509132694898838, 3.500000000000000000, 8.254904378721498404 ) ) ;
#176 = ADVANCED_FACE ( 'NONE', ( #112 ), #212, .T. ) ;
#177 = DIRECTION ( 'NONE',  ( 0.000000000000000000, -1.000000000000000000, 0.000000000000000000 ) ) ;
#178 = AXIS2_PLACEMENT_3D ( 'NONE', #15, #261, #204 ) ;
#179 = AXIS2_PLACEMENT_3D ( 'NONE', #171, #234, #290 ) ;
#180 = VERTEX_POINT ( 'NONE', #175 ) ;
#181 = CARTESIAN_POINT ( 'NONE',  ( 4.500000000000000000, -8.673617379884035472E-16, 0.000000000000000000 ) ) ;
#182 = ORIENTED_EDGE ( 'NONE', *, *, #286, .F. ) ;
#183 = AXIS2_PLACEMENT_3D ( 'NONE', #110, #89, #305 ) ;
#184 = CARTESIAN_POINT ( 'NONE',  ( -9.386509132694898838, 0.000000000000000000, 8.254904378721498404 ) ) ;
#185 = VERTEX_POINT ( 'NONE', #86 ) ;
#186 = ORIENTED_EDGE ( 'NONE', *, *, #259, .F. ) ;
#187 = FACE_BOUND ( 'NONE', #133, .T. ) ;
#188 = APPROVAL ( #329, 'UNSPECIFIED' ) ;
#189 = ORIENTED_EDGE ( 'NONE', *, *, #294, .F. ) ;
#190 = AXIS2_PLACEMENT_3D ( 'NONE', #362, #291, #205 ) ;
#191 = PLANE ( 'NONE',  #395 ) ;
#192 = ORIENTED_EDGE ( 'NONE', *, *, #71, .T. ) ;
#193 = FACE_BOUND ( 'NONE', #252, .T. ) ;
#194 = CC_DESIGN_PERSON_AND_ORGANIZATION_ASSIGNMENT ( #285, #106, ( #80 ) ) ;
#195 = FACE_OUTER_BOUND ( 'NONE', #216, .T. ) ;
#196 = AXIS2_PLACEMENT_3D ( 'NONE', #284, #319, #76 ) ;
#197 = CALENDAR_DATE ( 2021, 3, 6 ) ;
#198 = AXIS2_PLACEMENT_3D ( 'NONE', #94, #332, #90 ) ;
#199 = CARTESIAN_POINT ( 'NONE',  ( -9.386509132694898838, 3.500000000000000000, 8.254904378721498404 ) ) ;
#200 = COORDINATED_UNIVERSAL_TIME_OFFSET ( 5, 0, .BEHIND. ) ;
#201 = DIRECTION ( 'NONE',  ( 0.000000000000000000, 0.000000000000000000, -1.000000000000000000 ) ) ;
#202 = APPROVAL_DATE_TIME ( #170, #240 ) ;
#203 = APPLICATION_CONTEXT ( 'configuration controlled 3d designs of mechanical parts and assemblies' ) ;
#204 = DIRECTION ( 'NONE',  ( 0.000000000000000000, 0.000000000000000000, 1.000000000000000000 ) ) ;
#205 = DIRECTION ( 'NONE',  ( 1.000000000000000000, 0.000000000000000000, 0.000000000000000000 ) ) ;
#206 = CARTESIAN_POINT ( 'NONE',  ( 0.000000000000000000, 3.500000000000000000, 0.000000000000000000 ) ) ;
#207 = EDGE_LOOP ( 'NONE', ( #2, #32, #364, #192 ) ) ;
#208 = DIRECTION ( 'NONE',  ( 0.000000000000000000, 0.000000000000000000, 1.000000000000000000 ) ) ;
#209 = DIRECTION ( 'NONE',  ( 0.000000000000000000, 1.000000000000000000, 0.000000000000000000 ) ) ;
#210 = CIRCLE ( 'NONE', #321, 12.50000000000000000 ) ;
#211 = APPROVAL_DATE_TIME ( #124, #66 ) ;
#212 = CYLINDRICAL_SURFACE ( 'NONE', #121, 12.50000000000000000 ) ;
#213 = ORIENTED_EDGE ( 'NONE', *, *, #71, .F. ) ;
#214 = MANIFOLD_SOLID_BREP ( 'M8x1.25 Tapped Hole1', #12 ) ;
#215 = DIRECTION ( 'NONE',  ( 0.000000000000000000, 0.000000000000000000, 1.000000000000000000 ) ) ;
#216 = EDGE_LOOP ( 'NONE', ( #282, #135, #224, #127 ) ) ;
#217 = ORIENTED_EDGE ( 'NONE', *, *, #131, .F. ) ;
#218 = EDGE_CURVE ( 'NONE', #180, #38, #28, .T. ) ;
#219 = ORIENTED_EDGE ( 'NONE', *, *, #105, .T. ) ;
#220 = VERTEX_POINT ( 'NONE', #29 ) ;
#221 = VECTOR ( 'NONE', #24, 1000.000000000000000 ) ;
#222 = CARTESIAN_POINT ( 'NONE',  ( -9.386509132694898838, 3.500000000000000000, 8.254904378721498404 ) ) ;
#223 = ADVANCED_FACE ( 'NONE', ( #331, #119 ), #58, .T. ) ;
#224 = ORIENTED_EDGE ( 'NONE', *, *, #105, .F. ) ;
#225 = DIRECTION ( 'NONE',  ( 0.000000000000000000, -1.000000000000000000, 0.000000000000000000 ) ) ;
#226 = LINE ( 'NONE', #109, #228 ) ;
#227 = DIRECTION ( 'NONE',  ( 0.000000000000000000, 0.000000000000000000, -1.000000000000000000 ) ) ;
#228 = VECTOR ( 'NONE', #350, 1000.000000000000000 ) ;
#229 = DATE_TIME_ROLE ( 'creation_date' ) ;
#230 = LOCAL_TIME ( 12, 36, 53.00000000000000000, #200 ) ;
#231 = PLANE ( 'NONE',  #196 ) ;
#232 = DIRECTION ( 'NONE',  ( -1.000000000000000000, 0.000000000000000000, 0.000000000000000000 ) ) ;
#233 = DATE_AND_TIME ( #386, #292 ) ;
#234 = DIRECTION ( 'NONE',  ( 0.000000000000000000, 1.000000000000000000, 0.000000000000000000 ) ) ;
#235 = APPROVAL_ROLE ( '' ) ;
#236 = VECTOR ( 'NONE', #232, 1000.000000000000000 ) ;
#237 = CIRCLE ( 'NONE', #183, 4.500000000000000000 ) ;
#238 = ADVANCED_FACE ( 'NONE', ( #370 ), #136, .F. ) ;
#239 = CARTESIAN_POINT ( 'NONE',  ( -9.386509132694898838, 0.000000000000000000, 8.254904378721498404 ) ) ;
#240 = APPROVAL ( #48, 'UNSPECIFIED' ) ;
#241 = LOCAL_TIME ( 12, 36, 53.00000000000000000, #50 ) ;
#242 = DIRECTION ( 'NONE',  ( 0.000000000000000000, 0.000000000000000000, 1.000000000000000000 ) ) ;
#243 = ORIENTED_EDGE ( 'NONE', *, *, #218, .F. ) ;
#244 = ADVANCED_FACE ( 'NONE', ( #62 ), #300, .T. ) ;
#245 = VERTEX_POINT ( 'NONE', #267 ) ;
#246 = AXIS2_PLACEMENT_3D ( 'NONE', #59, #177, #118 ) ;
#247 = FACE_OUTER_BOUND ( 'NONE', #120, .T. ) ;
#248 = ORIENTED_EDGE ( 'NONE', *, *, #373, .F. ) ;
#249 = ORIENTED_EDGE ( 'NONE', *, *, #365, .T. ) ;
#250 = ADVANCED_FACE ( 'NONE', ( #391 ), #298, .T. ) ;
#251 = DIRECTION ( 'NONE',  ( -0.000000000000000000, 1.000000000000000000, -0.000000000000000000 ) ) ;
#252 = EDGE_LOOP ( 'NONE', ( #189, #164 ) ) ;
#253 = AXIS2_PLACEMENT_3D ( 'NONE', #310, #272, #123 ) ;
#254 = VECTOR ( 'NONE', #225, 1000.000000000000000 ) ;
#255 = CARTESIAN_POINT ( 'NONE',  ( 9.811396119679020700, 3.500000000000000000, -7.745095621278509590 ) ) ;
#256 = DIRECTION ( 'NONE',  ( 0.000000000000000000, -1.000000000000000000, 0.000000000000000000 ) ) ;
#257 = LINE ( 'NONE', #18, #296 ) ;
#258 = CARTESIAN_POINT ( 'NONE',  ( 4.500000000000000000, 5.000000000000000000, -3.399999999999992362 ) ) ;
#259 = EDGE_CURVE ( 'NONE', #35, #220, #93, .T. ) ;
#260 = CC_DESIGN_APPROVAL ( #188, ( #80 ) ) ;
#261 = DIRECTION ( 'NONE',  ( 0.000000000000000000, 1.000000000000000000, 0.000000000000000000 ) ) ;
#262 = PERSON_AND_ORGANIZATION ( #31, #306 ) ;
#263 = FACE_OUTER_BOUND ( 'NONE', #280, .T. ) ;
#264 = EDGE_CURVE ( 'NONE', #72, #376, #237, .T. ) ;
#265 = ORIENTED_EDGE ( 'NONE', *, *, #309, .T. ) ;
#266 = APPROVAL_ROLE ( '' ) ;
#267 = CARTESIAN_POINT ( 'NONE',  ( 4.500000000000000000, 3.500000000000000000, 4.500000000000000000 ) ) ;
#268 = EDGE_CURVE ( 'NONE', #41, #304, #210, .T. ) ;
#269 = CIRCLE ( 'NONE', #13, 3.399999999999987033 ) ;
#270 = ORIENTED_EDGE ( 'NONE', *, *, #268, .F. ) ;
#271 = ORIENTED_EDGE ( 'NONE', *, *, #351, .T. ) ;
#272 = DIRECTION ( 'NONE',  ( -0.000000000000000000, 1.000000000000000000, -0.000000000000000000 ) ) ;
#273 = VECTOR ( 'NONE', #287, 1000.000000000000000 ) ;
#274 = EDGE_LOOP ( 'NONE', ( #318, #219, #8, #372 ) ) ;
#275 = AXIS2_PLACEMENT_3D ( 'NONE', #206, #209, #301 ) ;
#276 = CARTESIAN_POINT ( 'NONE',  ( -9.811396119679020700, 3.500000000000000000, -7.745095621278499820 ) ) ;
#277 = ORIENTED_EDGE ( 'NONE', *, *, #85, .T. ) ;
#278 = CC_DESIGN_DATE_AND_TIME_ASSIGNMENT ( #233, #56, ( #167 ) ) ;
#279 = APPLICATION_CONTEXT ( 'configuration controlled 3d designs of mechanical parts and assemblies' ) ;
#280 = EDGE_LOOP ( 'NONE', ( #277, #7, #3, #34 ) ) ;
#281 = DIRECTION ( 'NONE',  ( 0.000000000000000000, -1.000000000000000000, 0.000000000000000000 ) ) ;
#282 = ORIENTED_EDGE ( 'NONE', *, *, #286, .T. ) ;
#283 = CIRCLE ( 'NONE', #107, 4.500000000000000000 ) ;
#284 = CARTESIAN_POINT ( 'NONE',  ( 4.500000000000000000, 5.000000000000000000, 0.000000000000000000 ) ) ;
#285 = PERSON_AND_ORGANIZATION ( #31, #306 ) ;
#286 = EDGE_CURVE ( 'NONE', #304, #160, #340, .T. ) ;
#287 = DIRECTION ( 'NONE',  ( 1.000000000000000000, 0.000000000000000000, 0.000000000000000000 ) ) ;
#288 = UNCERTAINTY_MEASURE_WITH_UNIT (LENGTH_MEASURE( 1.000000000000000082E-05 ), #16, 'distance_accuracy_value', 'NONE');
#289 = PERSON_AND_ORGANIZATION_ROLE ( 'design_owner' ) ;
#290 = DIRECTION ( 'NONE',  ( 0.000000000000000000, 0.000000000000000000, 1.000000000000000000 ) ) ;
#291 = DIRECTION ( 'NONE',  ( 0.000000000000000000, 0.000000000000000000, 1.000000000000000000 ) ) ;
#292 = LOCAL_TIME ( 12, 36, 53.00000000000000000, #295 ) ;
#293 = DIRECTION ( 'NONE',  ( 0.000000000000000000, -1.000000000000000000, 0.000000000000000000 ) ) ;
#294 = EDGE_CURVE ( 'NONE', #125, #130, #297, .T. ) ;
#295 = COORDINATED_UNIVERSAL_TIME_OFFSET ( 5, 0, .BEHIND. ) ;
#296 = VECTOR ( 'NONE', #169, 1000.000000000000000 ) ;
#297 = CIRCLE ( 'NONE', #253, 3.399999999999987033 ) ;
#298 = CYLINDRICAL_SURFACE ( 'NONE', #173, 4.500000000000000000 ) ;
#299 = ADVANCED_BREP_SHAPE_REPRESENTATION ( '151213', ( #214, #190 ), #5 ) ;
#300 = CYLINDRICAL_SURFACE ( 'NONE', #246, 4.500000000000000000 ) ;
#301 = DIRECTION ( 'NONE',  ( 0.000000000000000000, 0.000000000000000000, 1.000000000000000000 ) ) ;
#302 = ORIENTED_EDGE ( 'NONE', *, *, #11, .T. ) ;
#303 = DIRECTION ( 'NONE',  ( -0.000000000000000000, 1.000000000000000000, -0.000000000000000000 ) ) ;
#304 = VERTEX_POINT ( 'NONE', #239 ) ;
#305 = DIRECTION ( 'NONE',  ( 0.000000000000000000, 0.000000000000000000, 1.000000000000000000 ) ) ;
#306 = ORGANIZATION ( 'UNSPECIFIED', 'UNSPECIFIED', '' ) ;
#307 = CC_DESIGN_SECURITY_CLASSIFICATION ( #167, ( #22 ) ) ;
#308 = ORIENTED_EDGE ( 'NONE', *, *, #166, .F. ) ;
#309 = EDGE_CURVE ( 'NONE', #130, #125, #269, .T. ) ;
#310 = CARTESIAN_POINT ( 'NONE',  ( 4.500000000000000000, 5.000000000000000888, 0.000000000000000000 ) ) ;
#311 = ORIENTED_EDGE ( 'NONE', *, *, #338, .T. ) ;
#312 = CARTESIAN_POINT ( 'NONE',  ( 4.500000000000000000, 5.000000000000000000, 3.399999999999992362 ) ) ;
#313 = ORIENTED_EDGE ( 'NONE', *, *, #85, .F. ) ;
#314 = EDGE_CURVE ( 'NONE', #67, #41, #343, .T. ) ;
#315 = ORIENTED_EDGE ( 'NONE', *, *, #394, .T. ) ;
#316 = CIRCLE ( 'NONE', #40, 3.399999999999997691 ) ;
#317 = CARTESIAN_POINT ( 'NONE',  ( 0.000000000000000000, 0.000000000000000000, 0.000000000000000000 ) ) ;
#318 = ORIENTED_EDGE ( 'NONE', *, *, #158, .T. ) ;
#319 = DIRECTION ( 'NONE',  ( -0.000000000000000000, 1.000000000000000000, 0.000000000000000000 ) ) ;
#320 = LINE ( 'NONE', #54, #236 ) ;
#321 = AXIS2_PLACEMENT_3D ( 'NONE', #335, #126, #215 ) ;
#322 = DATE_AND_TIME ( #82, #334 ) ;
#323 = DIRECTION ( 'NONE',  ( 0.000000000000000000, -1.000000000000000000, 0.000000000000000000 ) ) ;
#324 = CALENDAR_DATE ( 2021, 3, 6 ) ;
#325 = CARTESIAN_POINT ( 'NONE',  ( -9.811396119679020700, 3.500000000000000000, -7.745095621278499820 ) ) ;
#326 =( NAMED_UNIT ( * ) PLANE_ANGLE_UNIT ( ) SI_UNIT ( $, .RADIAN. ) );
#327 = EDGE_CURVE ( 'NONE', #35, #125, #4, .T. ) ;
#328 = LINE ( 'NONE', #144, #221 ) ;
#329 = APPROVAL_STATUS ( 'not_yet_approved' ) ;
#330 = MECHANICAL_CONTEXT ( 'NONE', #203, 'mechanical' ) ;
#331 = FACE_BOUND ( 'NONE', #95, .T. ) ;
#332 = DIRECTION ( 'NONE',  ( -0.000000000000000000, 1.000000000000000000, -0.000000000000000000 ) ) ;
#333 = ADVANCED_FACE ( 'NONE', ( #187, #9 ), #191, .F. ) ;
#334 = LOCAL_TIME ( 12, 36, 53.00000000000000000, #381 ) ;
#335 = CARTESIAN_POINT ( 'NONE',  ( 0.000000000000000000, 0.000000000000000000, 0.000000000000000000 ) ) ;
#336 = DIRECTION ( 'NONE',  ( 0.000000000000000000, 0.000000000000000000, -1.000000000000000000 ) ) ;
#337 = ORIENTED_EDGE ( 'NONE', *, *, #365, .F. ) ;
#338 = EDGE_CURVE ( 'NONE', #245, #348, #283, .T. ) ;
#339 = ORIENTED_EDGE ( 'NONE', *, *, #87, .F. ) ;
#340 = LINE ( 'NONE', #184, #143 ) ;
#341 = ORIENTED_EDGE ( 'NONE', *, *, #268, .T. ) ;
#342 = ADVANCED_FACE ( 'NONE', ( #247 ), #371, .F. ) ;
#343 = LINE ( 'NONE', #276, #33 ) ;
#344 = ORIENTED_EDGE ( 'NONE', *, *, #264, .F. ) ;
#345 = DIRECTION ( 'NONE',  ( -0.000000000000000000, 1.000000000000000000, 0.000000000000000000 ) ) ;
#346 = EDGE_LOOP ( 'NONE', ( #341, #217, #43, #26 ) ) ;
#347 = AXIS2_PLACEMENT_3D ( 'NONE', #317, #42, #100 ) ;
#348 = VERTEX_POINT ( 'NONE', #102 ) ;
#349 = CARTESIAN_POINT ( 'NONE',  ( 4.500000000000000000, 5.000000000000000000, -4.500000000000000000 ) ) ;
#350 = DIRECTION ( 'NONE',  ( -1.000000000000000000, 0.000000000000000000, 0.000000000000000000 ) ) ;
#351 = EDGE_CURVE ( 'NONE', #220, #35, #316, .T. ) ;
#352 =( NAMED_UNIT ( * ) SI_UNIT ( $, .STERADIAN. ) SOLID_ANGLE_UNIT ( ) );
#353 = CARTESIAN_POINT ( 'NONE',  ( 4.500000000000000000, 5.000000000000000888, -3.399999999999987033 ) ) ;
#354 = AXIS2_PLACEMENT_3D ( 'NONE', #47, #293, #201 ) ;
#355 = VECTOR ( 'NONE', #384, 1000.000000000000000 ) ;
#356 = APPROVAL_DATE_TIME ( #357, #188 ) ;
#357 = DATE_AND_TIME ( #197, #241 ) ;
#358 = CC_DESIGN_DATE_AND_TIME_ASSIGNMENT ( #322, #229, ( #80 ) ) ;
#359 = CARTESIAN_POINT ( 'NONE',  ( -9.811396119679020700, 3.500000000000000000, -7.745095621278499820 ) ) ;
#360 = APPLICATION_PROTOCOL_DEFINITION ( 'international standard', 'config_control_design', 1994, #203 ) ;
#361 = LOCAL_TIME ( 12, 36, 53.00000000000000000, #57 ) ;
#362 = CARTESIAN_POINT ( 'NONE',  ( 0.000000000000000000, 0.000000000000000000, 0.000000000000000000 ) ) ;
#363 = DIRECTION ( 'NONE',  ( 0.000000000000000000, -1.000000000000000000, 0.000000000000000000 ) ) ;
#364 = ORIENTED_EDGE ( 'NONE', *, *, #166, .T. ) ;
#365 = EDGE_CURVE ( 'NONE', #160, #185, #114, .T. ) ;
#366 = DIRECTION ( 'NONE',  ( -0.000000000000000000, 1.000000000000000000, -0.000000000000000000 ) ) ;
#367 = CC_DESIGN_APPROVAL ( #240, ( #22 ) ) ;
#368 = VERTEX_POINT ( 'NONE', #222 ) ;
#369 = EDGE_LOOP ( 'NONE', ( #344, #69, #311, #308 ) ) ;
#370 = FACE_OUTER_BOUND ( 'NONE', #115, .T. ) ;
#371 = CYLINDRICAL_SURFACE ( 'NONE', #389, 3.399999999999992362 ) ;
#372 = ORIENTED_EDGE ( 'NONE', *, *, #6, .T. ) ;
#373 = EDGE_CURVE ( 'NONE', #38, #185, #45, .T. ) ;
#374 = ORIENTED_EDGE ( 'NONE', *, *, #327, .F. ) ;
#375 = DIRECTION ( 'NONE',  ( 0.000000000000000000, 0.000000000000000000, 1.000000000000000000 ) ) ;
#376 = VERTEX_POINT ( 'NONE', #349 ) ;
#377 = DIRECTION ( 'NONE',  ( -0.000000000000000000, 1.000000000000000000, -0.000000000000000000 ) ) ;
#378 = CARTESIAN_POINT ( 'NONE',  ( 9.811396119679020700, 3.500000000000000000, -7.745095621278509590 ) ) ;
#379 = DIRECTION ( 'NONE',  ( 1.000000000000000000, 0.000000000000000000, 0.000000000000000000 ) ) ;
#380 = LINE ( 'NONE', #147, #273 ) ;
#381 = COORDINATED_UNIVERSAL_TIME_OFFSET ( 5, 0, .BEHIND. ) ;
#382 = FACE_OUTER_BOUND ( 'NONE', #10, .T. ) ;
#383 = CC_DESIGN_APPROVAL ( #66, ( #167 ) ) ;
#384 = DIRECTION ( 'NONE',  ( 0.000000000000000000, -1.000000000000000000, 0.000000000000000000 ) ) ;
#385 = CARTESIAN_POINT ( 'NONE',  ( -9.386509132694898838, 3.500000000000000000, 8.254904378721498404 ) ) ;
#386 = CALENDAR_DATE ( 2021, 3, 6 ) ;
#387 = CARTESIAN_POINT ( 'NONE',  ( 4.500000000000000000, -8.673617379884035472E-16, 3.399999999999997691 ) ) ;
#388 = SHAPE_DEFINITION_REPRESENTATION ( #132, #299 ) ;
#389 = AXIS2_PLACEMENT_3D ( 'NONE', #68, #251, #137 ) ;
#390 = APPLICATION_PROTOCOL_DEFINITION ( 'international standard', 'config_control_design', 1994, #279 ) ;
#391 = FACE_OUTER_BOUND ( 'NONE', #207, .T. ) ;
#392 = DIRECTION ( 'NONE',  ( -0.000000000000000000, 1.000000000000000000, 0.000000000000000000 ) ) ;
#393 = ORIENTED_EDGE ( 'NONE', *, *, #87, .T. ) ;
#394 = EDGE_CURVE ( 'NONE', #180, #160, #75, .T. ) ;
#395 = AXIS2_PLACEMENT_3D ( 'NONE', #98, #345, #134 ) ;
ENDSEC;
END-ISO-10303-21;
