ISO-10303-21;
HEADER;
FILE_DESCRIPTION (( 'STEP AP203' ),
    '1' );
FILE_NAME ('151237.step',
    '2021-06-03T16:39:57',
    ( '' ),
    ( '' ),
    'SwSTEP 2.0',
    'SolidWorks 2021',
    '' );
FILE_SCHEMA (( 'CONFIG_CONTROL_DESIGN' ));
ENDSEC;

DATA;
#1 = DIRECTION ( 'NONE',  ( -0.000000000000000000, 1.000000000000000000, -0.000000000000000000 ) ) ;
#2 = ORIENTED_EDGE ( 'NONE', *, *, #198, .T. ) ;
#3 = ADVANCED_FACE ( 'NONE', ( #182 ), #300, .F. ) ;
#4 = FACE_BOUND ( 'NONE', #114, .T. ) ;
#5 = ORIENTED_EDGE ( 'NONE', *, *, #198, .F. ) ;
#6 = ORIENTED_EDGE ( 'NONE', *, *, #152, .F. ) ;
#7 = EDGE_LOOP ( 'NONE', ( #268, #212, #369, #337 ) ) ;
#8 = DIRECTION ( 'NONE',  ( 0.000000000000000000, 0.000000000000000000, -1.000000000000000000 ) ) ;
#9 = DIRECTION ( 'NONE',  ( 0.000000000000000000, 1.000000000000000000, 0.000000000000000000 ) ) ;
#10 = DIRECTION ( 'NONE',  ( 0.000000000000000000, -1.000000000000000000, 0.000000000000000000 ) ) ;
#11 = APPROVAL_DATE_TIME ( #35, #318 ) ;
#12 = CARTESIAN_POINT ( 'NONE',  ( 6.000000000000000000, 5.500000000000000000, 4.500000000000000000 ) ) ;
#13 = EDGE_CURVE ( 'NONE', #158, #286, #295, .T. ) ;
#14 = CARTESIAN_POINT ( 'NONE',  ( 6.000000000000000000, 5.500000000000000000, 4.500000000000000000 ) ) ;
#15 = CC_DESIGN_PERSON_AND_ORGANIZATION_ASSIGNMENT ( #341, #60, ( #363 ) ) ;
#16 = FACE_OUTER_BOUND ( 'NONE', #81, .T. ) ;
#17 = CARTESIAN_POINT ( 'NONE',  ( 0.000000000000000000, 0.000000000000000000, 0.000000000000000000 ) ) ;
#18 = DIRECTION ( 'NONE',  ( -1.000000000000000000, 0.000000000000000000, 0.000000000000000000 ) ) ;
#19 = CIRCLE ( 'NONE', #233, 4.500000000000000000 ) ;
#20 = EDGE_LOOP ( 'NONE', ( #230, #239, #174, #227 ) ) ;
#21 = VERTEX_POINT ( 'NONE', #134 ) ;
#22 = DIRECTION ( 'NONE',  ( 0.000000000000000000, 0.000000000000000000, 1.000000000000000000 ) ) ;
#23 = VERTEX_POINT ( 'NONE', #160 ) ;
#24 = AXIS2_PLACEMENT_3D ( 'NONE', #360, #117, #364 ) ;
#25 = ADVANCED_FACE ( 'NONE', ( #16 ), #222, .T. ) ;
#26 = DIRECTION ( 'NONE',  ( 0.000000000000000000, -1.000000000000000000, 0.000000000000000000 ) ) ;
#27 = CARTESIAN_POINT ( 'NONE',  ( 6.000000000000000000, 5.500000000000000000, -3.399999999999998579 ) ) ;
#28 = CARTESIAN_POINT ( 'NONE',  ( 6.000000000000000000, 0.000000000000000000, 0.000000000000000000 ) ) ;
#29 = ORIENTED_EDGE ( 'NONE', *, *, #48, .T. ) ;
#30 = PERSON_AND_ORGANIZATION ( #207, #258 ) ;
#31 = VERTEX_POINT ( 'NONE', #75 ) ;
#32 = CIRCLE ( 'NONE', #72, 3.399999999999998579 ) ;
#33 = EDGE_LOOP ( 'NONE', ( #124, #29, #319, #5 ) ) ;
#34 = DIRECTION ( 'NONE',  ( 0.000000000000000000, -1.000000000000000000, 0.000000000000000000 ) ) ;
#35 = DATE_AND_TIME ( #163, #49 ) ;
#36 = VERTEX_POINT ( 'NONE', #345 ) ;
#37 = FACE_OUTER_BOUND ( 'NONE', #33, .T. ) ;
#38 = COORDINATED_UNIVERSAL_TIME_OFFSET ( 5, 0, .BEHIND. ) ;
#39 = DIRECTION ( 'NONE',  ( 0.000000000000000000, 0.000000000000000000, 1.000000000000000000 ) ) ;
#40 = AXIS2_PLACEMENT_3D ( 'NONE', #69, #251, #188 ) ;
#41 = CARTESIAN_POINT ( 'NONE',  ( 6.000000000000000000, 0.000000000000000000, -3.399999999999998579 ) ) ;
#42 = DATE_TIME_ROLE ( 'classification_date' ) ;
#43 = PLANE ( 'NONE',  #377 ) ;
#44 = CARTESIAN_POINT ( 'NONE',  ( 6.000000000000000000, 5.500000000000000000, 3.399999999999998579 ) ) ;
#45 = EDGE_CURVE ( 'NONE', #286, #158, #19, .T. ) ;
#46 = CARTESIAN_POINT ( 'NONE',  ( -13.22875655532296157, 0.000000000000000000, -9.000000000000000000 ) ) ;
#47 = DIRECTION ( 'NONE',  ( -0.000000000000000000, 1.000000000000000000, 0.000000000000000000 ) ) ;
#48 = EDGE_CURVE ( 'NONE', #158, #21, #192, .T. ) ;
#49 = LOCAL_TIME ( 12, 39, 57.00000000000000000, #338 ) ;
#50 =( GEOMETRIC_REPRESENTATION_CONTEXT ( 3 ) GLOBAL_UNCERTAINTY_ASSIGNED_CONTEXT ( ( #359 ) ) GLOBAL_UNIT_ASSIGNED_CONTEXT ( ( #229, #365, #356 ) ) REPRESENTATION_CONTEXT ( 'NONE', 'WORKASPACE' ) );
#51 = ORIENTED_EDGE ( 'NONE', *, *, #333, .F. ) ;
#52 = DIRECTION ( 'NONE',  ( 0.000000000000000000, 0.000000000000000000, 1.000000000000000000 ) ) ;
#53 = VECTOR ( 'NONE', #386, 1000.000000000000000 ) ;
#54 = PERSON_AND_ORGANIZATION ( #207, #258 ) ;
#55 = DIRECTION ( 'NONE',  ( 0.000000000000000000, 1.000000000000000000, 0.000000000000000000 ) ) ;
#56 = CYLINDRICAL_SURFACE ( 'NONE', #228, 3.399999999999998579 ) ;
#57 = ORIENTED_EDGE ( 'NONE', *, *, #123, .T. ) ;
#58 = PERSON_AND_ORGANIZATION_ROLE ( 'classification_officer' ) ;
#59 = VERTEX_POINT ( 'NONE', #219 ) ;
#60 = PERSON_AND_ORGANIZATION_ROLE ( 'creator' ) ;
#61 = EDGE_LOOP ( 'NONE', ( #271, #176, #197, #127 ) ) ;
#62 = EDGE_CURVE ( 'NONE', #79, #181, #370, .T. ) ;
#63 = DIRECTION ( 'NONE',  ( -0.000000000000000000, 1.000000000000000000, -0.000000000000000000 ) ) ;
#64 = CIRCLE ( 'NONE', #309, 16.00000000000000000 ) ;
#65 = CARTESIAN_POINT ( 'NONE',  ( -13.22875655532296157, 4.000000000000000000, -9.000000000000000000 ) ) ;
#66 = DIRECTION ( 'NONE',  ( -0.000000000000000000, 1.000000000000000000, -0.000000000000000000 ) ) ;
#67 = LOCAL_TIME ( 12, 39, 57.00000000000000000, #180 ) ;
#68 = ADVANCED_FACE ( 'NONE', ( #104 ), #43, .F. ) ;
#69 = CARTESIAN_POINT ( 'NONE',  ( 6.000000000000000000, 4.000000000000000000, 0.000000000000000000 ) ) ;
#70 = AXIS2_PLACEMENT_3D ( 'NONE', #232, #388, #111 ) ;
#71 = DIRECTION ( 'NONE',  ( 0.000000000000000000, 1.000000000000000000, 0.000000000000000000 ) ) ;
#72 = AXIS2_PLACEMENT_3D ( 'NONE', #280, #216, #308 ) ;
#73 = FACE_BOUND ( 'NONE', #385, .T. ) ;
#74 = CARTESIAN_POINT ( 'NONE',  ( 0.000000000000000000, 4.000000000000000000, 0.000000000000000000 ) ) ;
#75 = CARTESIAN_POINT ( 'NONE',  ( -13.22875655532296157, 4.000000000000000000, -9.000000000000000000 ) ) ;
#76 = AXIS2_PLACEMENT_3D ( 'NONE', #249, #47, #167 ) ;
#77 = PERSON_AND_ORGANIZATION ( #207, #258 ) ;
#78 = EDGE_CURVE ( 'NONE', #366, #358, #344, .T. ) ;
#79 = VERTEX_POINT ( 'NONE', #99 ) ;
#80 = DIRECTION ( 'NONE',  ( -0.000000000000000000, 1.000000000000000000, -0.000000000000000000 ) ) ;
#81 = EDGE_LOOP ( 'NONE', ( #234, #51, #238, #351 ) ) ;
#82 = LINE ( 'NONE', #320, #247 ) ;
#83 = CARTESIAN_POINT ( 'NONE',  ( -13.22875655532296157, 4.000000000000000000, 9.000000000000000000 ) ) ;
#84 = DIRECTION ( 'NONE',  ( 0.000000000000000000, 0.000000000000000000, 1.000000000000000000 ) ) ;
#85 = DIRECTION ( 'NONE',  ( 0.000000000000000000, 0.000000000000000000, 1.000000000000000000 ) ) ;
#86 = ADVANCED_FACE ( 'NONE', ( #73, #135 ), #161, .T. ) ;
#87 = EDGE_LOOP ( 'NONE', ( #294, #297, #389, #206 ) ) ;
#88 = ORIENTED_EDGE ( 'NONE', *, *, #162, .T. ) ;
#89 = ORIENTED_EDGE ( 'NONE', *, *, #152, .T. ) ;
#90 = LINE ( 'NONE', #100, #53 ) ;
#91 = DATE_AND_TIME ( #373, #67 ) ;
#92 = VERTEX_POINT ( 'NONE', #41 ) ;
#93 = VECTOR ( 'NONE', #387, 1000.000000000000000 ) ;
#94 = CARTESIAN_POINT ( 'NONE',  ( -13.22875655532296157, 0.000000000000000000, 9.000000000000000000 ) ) ;
#95 = EDGE_CURVE ( 'NONE', #181, #23, #381, .T. ) ;
#96 = DATE_AND_TIME ( #334, #235 ) ;
#97 = DIRECTION ( 'NONE',  ( 0.000000000000000000, 0.000000000000000000, -1.000000000000000000 ) ) ;
#98 = CC_DESIGN_APPROVAL ( #318, ( #118 ) ) ;
#99 = CARTESIAN_POINT ( 'NONE',  ( 13.22875655532296157, 0.000000000000000000, 9.000000000000000000 ) ) ;
#100 = CARTESIAN_POINT ( 'NONE',  ( 13.22875655532296157, 4.000000000000000000, 9.000000000000000000 ) ) ;
#101 = CARTESIAN_POINT ( 'NONE',  ( 6.000000000000000000, 5.500000000000000000, 0.000000000000000000 ) ) ;
#102 = FACE_OUTER_BOUND ( 'NONE', #61, .T. ) ;
#103 = AXIS2_PLACEMENT_3D ( 'NONE', #392, #55, #84 ) ;
#104 = FACE_OUTER_BOUND ( 'NONE', #20, .T. ) ;
#105 = EDGE_CURVE ( 'NONE', #36, #79, #375, .T. ) ;
#106 = DIRECTION ( 'NONE',  ( -0.000000000000000000, 1.000000000000000000, -0.000000000000000000 ) ) ;
#107 = PRODUCT_RELATED_PRODUCT_CATEGORY ( 'detail', '', ( #266 ) ) ;
#108 = EDGE_CURVE ( 'NONE', #21, #154, #311, .T. ) ;
#109 = ORIENTED_EDGE ( 'NONE', *, *, #162, .F. ) ;
#110 = DIRECTION ( 'NONE',  ( 0.000000000000000000, 0.000000000000000000, 1.000000000000000000 ) ) ;
#111 = DIRECTION ( 'NONE',  ( 1.000000000000000000, 0.000000000000000000, 0.000000000000000000 ) ) ;
#112 = CARTESIAN_POINT ( 'NONE',  ( 13.22875655532296157, 0.000000000000000000, -9.000000000000000000 ) ) ;
#113 = CARTESIAN_POINT ( 'NONE',  ( 6.000000000000000000, 5.500000000000000000, 0.000000000000000000 ) ) ;
#114 = EDGE_LOOP ( 'NONE', ( #183, #89 ) ) ;
#115 = ADVANCED_FACE ( 'NONE', ( #379 ), #213, .T. ) ;
#116 = AXIS2_PLACEMENT_3D ( 'NONE', #306, #275, #312 ) ;
#117 = DIRECTION ( 'NONE',  ( -0.000000000000000000, 1.000000000000000000, 0.000000000000000000 ) ) ;
#118 = SECURITY_CLASSIFICATION ( '', '', #126 ) ;
#119 = VERTEX_POINT ( 'NONE', #339 ) ;
#120 = CARTESIAN_POINT ( 'NONE',  ( 0.000000000000000000, 4.000000000000000000, 0.000000000000000000 ) ) ;
#121 = DIRECTION ( 'NONE',  ( 0.000000000000000000, 1.000000000000000000, 0.000000000000000000 ) ) ;
#122 = ORIENTED_EDGE ( 'NONE', *, *, #380, .F. ) ;
#123 = EDGE_CURVE ( 'NONE', #324, #119, #277, .T. ) ;
#124 = ORIENTED_EDGE ( 'NONE', *, *, #13, .F. ) ;
#125 = CIRCLE ( 'NONE', #285, 3.399999999999998579 ) ;
#126 = SECURITY_CLASSIFICATION_LEVEL ( 'unclassified' ) ;
#127 = ORIENTED_EDGE ( 'NONE', *, *, #283, .T. ) ;
#128 = DIRECTION ( 'NONE',  ( -1.000000000000000000, 0.000000000000000000, 0.000000000000000000 ) ) ;
#129 = PERSON_AND_ORGANIZATION ( #207, #258 ) ;
#130 = CARTESIAN_POINT ( 'NONE',  ( -13.22875655532296157, 4.000000000000000000, 9.000000000000000000 ) ) ;
#131 = SHAPE_DEFINITION_REPRESENTATION ( #331, #378 ) ;
#132 = CIRCLE ( 'NONE', #304, 16.00000000000000000 ) ;
#133 = CARTESIAN_POINT ( 'NONE',  ( 6.000000000000000000, 4.000000000000000000, 0.000000000000000000 ) ) ;
#134 = CARTESIAN_POINT ( 'NONE',  ( 6.000000000000000000, 4.000000000000000000, 4.500000000000000000 ) ) ;
#135 = FACE_OUTER_BOUND ( 'NONE', #362, .T. ) ;
#136 = CIRCLE ( 'NONE', #240, 3.399999999999998579 ) ;
#137 = FACE_OUTER_BOUND ( 'NONE', #87, .T. ) ;
#138 = CC_DESIGN_PERSON_AND_ORGANIZATION_ASSIGNMENT ( #241, #58, ( #118 ) ) ;
#139 = ORIENTED_EDGE ( 'NONE', *, *, #298, .F. ) ;
#140 = APPROVAL_DATE_TIME ( #292, #270 ) ;
#141 = CIRCLE ( 'NONE', #194, 4.500000000000000000 ) ;
#142 = APPROVAL_STATUS ( 'not_yet_approved' ) ;
#143 = EDGE_CURVE ( 'NONE', #59, #181, #164, .T. ) ;
#144 = CC_DESIGN_APPROVAL ( #270, ( #348 ) ) ;
#145 = DIRECTION ( 'NONE',  ( 1.000000000000000000, 0.000000000000000000, 0.000000000000000000 ) ) ;
#146 = PERSON_AND_ORGANIZATION_ROLE ( 'creator' ) ;
#147 = ORIENTED_EDGE ( 'NONE', *, *, #108, .F. ) ;
#148 = VECTOR ( 'NONE', #10, 1000.000000000000000 ) ;
#149 = LINE ( 'NONE', #301, #322 ) ;
#150 = FACE_BOUND ( 'NONE', #329, .T. ) ;
#151 = ORIENTED_EDGE ( 'NONE', *, *, #123, .F. ) ;
#152 = EDGE_CURVE ( 'NONE', #92, #324, #32, .T. ) ;
#153 = DIRECTION ( 'NONE',  ( 0.000000000000000000, -1.000000000000000000, 0.000000000000000000 ) ) ;
#154 = VERTEX_POINT ( 'NONE', #278 ) ;
#155 = LOCAL_TIME ( 12, 39, 57.00000000000000000, #328 ) ;
#156 = APPROVAL ( #215, 'UNSPECIFIED' ) ;
#157 = APPROVAL_DATE_TIME ( #96, #156 ) ;
#158 = VERTEX_POINT ( 'NONE', #12 ) ;
#159 = CYLINDRICAL_SURFACE ( 'NONE', #383, 3.399999999999998579 ) ;
#160 = CARTESIAN_POINT ( 'NONE',  ( -13.22875655532296157, 0.000000000000000000, -9.000000000000000000 ) ) ;
#161 = PLANE ( 'NONE',  #76 ) ;
#162 = EDGE_CURVE ( 'NONE', #154, #21, #141, .T. ) ;
#163 = CALENDAR_DATE ( 2021, 3, 6 ) ;
#164 = LINE ( 'NONE', #218, #148 ) ;
#165 = DIRECTION ( 'NONE',  ( 0.000000000000000000, -1.000000000000000000, 0.000000000000000000 ) ) ;
#166 = EDGE_CURVE ( 'NONE', #324, #92, #125, .T. ) ;
#167 = DIRECTION ( 'NONE',  ( 1.000000000000000000, 0.000000000000000000, 0.000000000000000000 ) ) ;
#168 = DESIGN_CONTEXT ( 'detailed design', #393, 'design' ) ;
#169 = CC_DESIGN_APPROVAL ( #156, ( #363 ) ) ;
#170 = CARTESIAN_POINT ( 'NONE',  ( 6.000000000000000000, 0.000000000000000000, 3.399999999999998579 ) ) ;
#171 = AXIS2_PLACEMENT_3D ( 'NONE', #120, #9, #179 ) ;
#172 = EDGE_CURVE ( 'NONE', #59, #31, #82, .T. ) ;
#173 = COORDINATED_UNIVERSAL_TIME_OFFSET ( 5, 0, .BEHIND. ) ;
#174 = ORIENTED_EDGE ( 'NONE', *, *, #78, .F. ) ;
#175 = CARTESIAN_POINT ( 'NONE',  ( 6.000000000000000000, 5.500000000000000000, -3.399999999999998579 ) ) ;
#176 = ORIENTED_EDGE ( 'NONE', *, *, #143, .F. ) ;
#177 = ORIENTED_EDGE ( 'NONE', *, *, #45, .F. ) ;
#178 = EDGE_CURVE ( 'NONE', #31, #366, #132, .T. ) ;
#179 = DIRECTION ( 'NONE',  ( 0.000000000000000000, 0.000000000000000000, 1.000000000000000000 ) ) ;
#180 = COORDINATED_UNIVERSAL_TIME_OFFSET ( 5, 0, .BEHIND. ) ;
#181 = VERTEX_POINT ( 'NONE', #112 ) ;
#182 = FACE_OUTER_BOUND ( 'NONE', #265, .T. ) ;
#183 = ORIENTED_EDGE ( 'NONE', *, *, #166, .T. ) ;
#184 = AXIS2_PLACEMENT_3D ( 'NONE', #65, #39, #145 ) ;
#185 = ADVANCED_FACE ( 'NONE', ( #150, #137 ), #231, .T. ) ;
#186 = DIRECTION ( 'NONE',  ( 1.000000000000000000, 0.000000000000000000, 0.000000000000000000 ) ) ;
#187 = APPROVAL_PERSON_ORGANIZATION ( #129, #156, #305 ) ;
#188 = DIRECTION ( 'NONE',  ( 0.000000000000000000, 0.000000000000000000, 1.000000000000000000 ) ) ;
#189 = DIRECTION ( 'NONE',  ( 0.000000000000000000, 0.000000000000000000, 1.000000000000000000 ) ) ;
#190 = CC_DESIGN_PERSON_AND_ORGANIZATION_ASSIGNMENT ( #54, #288, ( #266 ) ) ;
#191 = VECTOR ( 'NONE', #26, 1000.000000000000000 ) ;
#192 = LINE ( 'NONE', #14, #395 ) ;
#193 = DIRECTION ( 'NONE',  ( 0.000000000000000000, 0.000000000000000000, 1.000000000000000000 ) ) ;
#194 = AXIS2_PLACEMENT_3D ( 'NONE', #133, #71, #189 ) ;
#195 = LOCAL_TIME ( 12, 39, 57.00000000000000000, #173 ) ;
#196 = LINE ( 'NONE', #175, #93 ) ;
#197 = ORIENTED_EDGE ( 'NONE', *, *, #243, .F. ) ;
#198 = EDGE_CURVE ( 'NONE', #286, #154, #327, .T. ) ;
#199 = FACE_OUTER_BOUND ( 'NONE', #332, .T. ) ;
#200 = AXIS2_PLACEMENT_3D ( 'NONE', #209, #153, #372 ) ;
#201 = EDGE_LOOP ( 'NONE', ( #260, #177, #2, #88 ) ) ;
#202 = CC_DESIGN_PERSON_AND_ORGANIZATION_ASSIGNMENT ( #30, #146, ( #348 ) ) ;
#203 = DIRECTION ( 'NONE',  ( 0.000000000000000000, -1.000000000000000000, 0.000000000000000000 ) ) ;
#204 = ORIENTED_EDGE ( 'NONE', *, *, #380, .T. ) ;
#205 = CARTESIAN_POINT ( 'NONE',  ( 13.22875655532296157, 4.000000000000000000, 9.000000000000000000 ) ) ;
#206 = ORIENTED_EDGE ( 'NONE', *, *, #172, .T. ) ;
#207 = PERSON ( 'UNSPECIFIED', 'UNSPECIFIED', 'UNSPECIFIED', ('UNSPECIFIED'), ('UNSPECIFIED'), ('UNSPECIFIED') ) ;
#208 = ORIENTED_EDGE ( 'NONE', *, *, #45, .T. ) ;
#209 = CARTESIAN_POINT ( 'NONE',  ( 6.000000000000000000, 5.500000000000000000, 0.000000000000000000 ) ) ;
#210 = ORIENTED_EDGE ( 'NONE', *, *, #166, .F. ) ;
#211 = APPROVAL_ROLE ( '' ) ;
#212 = ORIENTED_EDGE ( 'NONE', *, *, #95, .F. ) ;
#213 = CYLINDRICAL_SURFACE ( 'NONE', #272, 4.500000000000000000 ) ;
#214 = VECTOR ( 'NONE', #186, 1000.000000000000000 ) ;
#215 = APPROVAL_STATUS ( 'not_yet_approved' ) ;
#216 = DIRECTION ( 'NONE',  ( -0.000000000000000000, 1.000000000000000000, -0.000000000000000000 ) ) ;
#217 = EDGE_CURVE ( 'NONE', #354, #119, #136, .T. ) ;
#218 = CARTESIAN_POINT ( 'NONE',  ( 13.22875655532296157, 4.000000000000000000, -9.000000000000000000 ) ) ;
#219 = CARTESIAN_POINT ( 'NONE',  ( 13.22875655532296157, 4.000000000000000000, -9.000000000000000000 ) ) ;
#220 = CC_DESIGN_DATE_AND_TIME_ASSIGNMENT ( #276, #368, ( #348 ) ) ;
#221 = CYLINDRICAL_SURFACE ( 'NONE', #250, 16.00000000000000000 ) ;
#222 = CYLINDRICAL_SURFACE ( 'NONE', #340, 16.00000000000000000 ) ;
#223 = DIRECTION ( 'NONE',  ( 0.000000000000000000, 0.000000000000000000, 1.000000000000000000 ) ) ;
#224 = ADVANCED_FACE ( 'NONE', ( #355 ), #159, .F. ) ;
#225 = CARTESIAN_POINT ( 'NONE',  ( 0.000000000000000000, 0.000000000000000000, 0.000000000000000000 ) ) ;
#226 = EDGE_CURVE ( 'NONE', #31, #23, #149, .T. ) ;
#227 = ORIENTED_EDGE ( 'NONE', *, *, #333, .T. ) ;
#228 = AXIS2_PLACEMENT_3D ( 'NONE', #113, #1, #357 ) ;
#229 =( LENGTH_UNIT ( ) NAMED_UNIT ( * ) SI_UNIT ( .MILLI., .METRE. ) );
#230 = ORIENTED_EDGE ( 'NONE', *, *, #105, .T. ) ;
#231 = PLANE ( 'NONE',  #24 ) ;
#232 = CARTESIAN_POINT ( 'NONE',  ( 0.000000000000000000, 0.000000000000000000, 0.000000000000000000 ) ) ;
#233 = AXIS2_PLACEMENT_3D ( 'NONE', #101, #382, #193 ) ;
#234 = ORIENTED_EDGE ( 'NONE', *, *, #293, .T. ) ;
#235 = LOCAL_TIME ( 12, 39, 57.00000000000000000, #38 ) ;
#236 = ORIENTED_EDGE ( 'NONE', *, *, #13, .T. ) ;
#237 = CIRCLE ( 'NONE', #299, 3.399999999999998579 ) ;
#238 = ORIENTED_EDGE ( 'NONE', *, *, #178, .F. ) ;
#239 = ORIENTED_EDGE ( 'NONE', *, *, #283, .F. ) ;
#240 = AXIS2_PLACEMENT_3D ( 'NONE', #384, #106, #223 ) ;
#241 = PERSON_AND_ORGANIZATION ( #207, #258 ) ;
#242 = ORIENTED_EDGE ( 'NONE', *, *, #217, .F. ) ;
#243 = EDGE_CURVE ( 'NONE', #358, #59, #349, .T. ) ;
#244 = DIRECTION ( 'NONE',  ( 0.000000000000000000, -1.000000000000000000, 0.000000000000000000 ) ) ;
#245 = PERSON_AND_ORGANIZATION_ROLE ( 'design_supplier' ) ;
#246 = CARTESIAN_POINT ( 'NONE',  ( 6.000000000000000000, 5.500000000000000000, 0.000000000000000000 ) ) ;
#247 = VECTOR ( 'NONE', #18, 1000.000000000000000 ) ;
#248 = DIRECTION ( 'NONE',  ( 0.000000000000000000, -1.000000000000000000, 0.000000000000000000 ) ) ;
#249 = CARTESIAN_POINT ( 'NONE',  ( 6.000000000000000000, 5.500000000000000000, 0.000000000000000000 ) ) ;
#250 = AXIS2_PLACEMENT_3D ( 'NONE', #74, #314, #284 ) ;
#251 = DIRECTION ( 'NONE',  ( 0.000000000000000000, 1.000000000000000000, 0.000000000000000000 ) ) ;
#252 = VECTOR ( 'NONE', #347, 1000.000000000000000 ) ;
#253 = CARTESIAN_POINT ( 'NONE',  ( 6.000000000000000000, 5.500000000000000000, -4.500000000000000000 ) ) ;
#254 = ADVANCED_FACE ( 'NONE', ( #37 ), #269, .T. ) ;
#255 = DIRECTION ( 'NONE',  ( 0.000000000000000000, 0.000000000000000000, 1.000000000000000000 ) ) ;
#256 = APPROVAL_ROLE ( '' ) ;
#257 = DIRECTION ( 'NONE',  ( -0.000000000000000000, 1.000000000000000000, -0.000000000000000000 ) ) ;
#258 = ORGANIZATION ( 'UNSPECIFIED', 'UNSPECIFIED', '' ) ;
#259 = DIRECTION ( 'NONE',  ( 1.000000000000000000, 0.000000000000000000, 0.000000000000000000 ) ) ;
#260 = ORIENTED_EDGE ( 'NONE', *, *, #48, .F. ) ;
#261 = PLANE ( 'NONE',  #70 ) ;
#262 = VECTOR ( 'NONE', #128, 1000.000000000000000 ) ;
#263 = ORIENTED_EDGE ( 'NONE', *, *, #217, .T. ) ;
#264 = APPLICATION_PROTOCOL_DEFINITION ( 'international standard', 'config_control_design', 1994, #393 ) ;
#265 = EDGE_LOOP ( 'NONE', ( #371, #303, #326, #374 ) ) ;
#266 = PRODUCT ( '151237', '151237', '', ( #321 ) ) ;
#267 = AXIS2_PLACEMENT_3D ( 'NONE', #225, #110, #259 ) ;
#268 = ORIENTED_EDGE ( 'NONE', *, *, #293, .F. ) ;
#269 = CYLINDRICAL_SURFACE ( 'NONE', #200, 4.500000000000000000 ) ;
#270 = APPROVAL ( #142, 'UNSPECIFIED' ) ;
#271 = ORIENTED_EDGE ( 'NONE', *, *, #62, .T. ) ;
#272 = AXIS2_PLACEMENT_3D ( 'NONE', #246, #165, #97 ) ;
#273 = PERSON_AND_ORGANIZATION ( #207, #258 ) ;
#274 = CC_DESIGN_SECURITY_CLASSIFICATION ( #118, ( #363 ) ) ;
#275 = DIRECTION ( 'NONE',  ( 0.000000000000000000, 1.000000000000000000, 0.000000000000000000 ) ) ;
#276 = DATE_AND_TIME ( #330, #155 ) ;
#277 = LINE ( 'NONE', #44, #316 ) ;
#278 = CARTESIAN_POINT ( 'NONE',  ( 6.000000000000000000, 4.000000000000000000, -4.500000000000000000 ) ) ;
#279 = CC_DESIGN_DATE_AND_TIME_ASSIGNMENT ( #91, #42, ( #118 ) ) ;
#280 = CARTESIAN_POINT ( 'NONE',  ( 6.000000000000000000, 0.000000000000000000, 0.000000000000000000 ) ) ;
#281 = DIRECTION ( 'NONE',  ( 0.000000000000000000, -1.000000000000000000, 0.000000000000000000 ) ) ;
#282 = MANIFOLD_SOLID_BREP ( 'M8x1.25 Tapped Hole1', #352 ) ;
#283 = EDGE_CURVE ( 'NONE', #358, #79, #90, .T. ) ;
#284 = DIRECTION ( 'NONE',  ( 0.000000000000000000, 0.000000000000000000, -1.000000000000000000 ) ) ;
#285 = AXIS2_PLACEMENT_3D ( 'NONE', #28, #257, #291 ) ;
#286 = VERTEX_POINT ( 'NONE', #353 ) ;
#287 = ADVANCED_FACE ( 'NONE', ( #102 ), #221, .T. ) ;
#288 = PERSON_AND_ORGANIZATION_ROLE ( 'design_owner' ) ;
#289 = CARTESIAN_POINT ( 'NONE',  ( -13.22875655532296157, 4.000000000000000000, 9.000000000000000000 ) ) ;
#290 = CALENDAR_DATE ( 2021, 3, 6 ) ;
#291 = DIRECTION ( 'NONE',  ( 0.000000000000000000, 0.000000000000000000, 1.000000000000000000 ) ) ;
#292 = DATE_AND_TIME ( #290, #195 ) ;
#293 = EDGE_CURVE ( 'NONE', #23, #36, #64, .T. ) ;
#294 = ORIENTED_EDGE ( 'NONE', *, *, #178, .T. ) ;
#295 = CIRCLE ( 'NONE', #103, 4.500000000000000000 ) ;
#296 = ORIENTED_EDGE ( 'NONE', *, *, #298, .T. ) ;
#297 = ORIENTED_EDGE ( 'NONE', *, *, #78, .T. ) ;
#298 = EDGE_CURVE ( 'NONE', #119, #354, #237, .T. ) ;
#299 = AXIS2_PLACEMENT_3D ( 'NONE', #361, #80, #22 ) ;
#300 = PLANE ( 'NONE',  #184 ) ;
#301 = CARTESIAN_POINT ( 'NONE',  ( -13.22875655532296157, 4.000000000000000000, -9.000000000000000000 ) ) ;
#302 = PERSON_AND_ORGANIZATION ( #207, #258 ) ;
#303 = ORIENTED_EDGE ( 'NONE', *, *, #226, .F. ) ;
#304 = AXIS2_PLACEMENT_3D ( 'NONE', #394, #390, #52 ) ;
#305 = APPROVAL_ROLE ( '' ) ;
#306 = CARTESIAN_POINT ( 'NONE',  ( 0.000000000000000000, 0.000000000000000000, 0.000000000000000000 ) ) ;
#307 = APPROVAL_STATUS ( 'not_yet_approved' ) ;
#308 = DIRECTION ( 'NONE',  ( 0.000000000000000000, 0.000000000000000000, 1.000000000000000000 ) ) ;
#309 = AXIS2_PLACEMENT_3D ( 'NONE', #17, #121, #255 ) ;
#310 = DIRECTION ( 'NONE',  ( 0.000000000000000000, 0.000000000000000000, -1.000000000000000000 ) ) ;
#311 = CIRCLE ( 'NONE', #40, 4.500000000000000000 ) ;
#312 = DIRECTION ( 'NONE',  ( 0.000000000000000000, 0.000000000000000000, 1.000000000000000000 ) ) ;
#313 = ADVANCED_FACE ( 'NONE', ( #199 ), #56, .F. ) ;
#314 = DIRECTION ( 'NONE',  ( 0.000000000000000000, -1.000000000000000000, 0.000000000000000000 ) ) ;
#315 = APPROVAL_PERSON_ORGANIZATION ( #77, #270, #256 ) ;
#316 = VECTOR ( 'NONE', #66, 1000.000000000000000 ) ;
#317 = ADVANCED_FACE ( 'NONE', ( #4, #391 ), #261, .F. ) ;
#318 = APPROVAL ( #307, 'UNSPECIFIED' ) ;
#319 = ORIENTED_EDGE ( 'NONE', *, *, #108, .T. ) ;
#320 = CARTESIAN_POINT ( 'NONE',  ( -13.22875655532296157, 4.000000000000000000, -9.000000000000000000 ) ) ;
#321 = MECHANICAL_CONTEXT ( 'NONE', #343, 'mechanical' ) ;
#322 = VECTOR ( 'NONE', #34, 1000.000000000000000 ) ;
#323 = LINE ( 'NONE', #83, #346 ) ;
#324 = VERTEX_POINT ( 'NONE', #170 ) ;
#325 = APPLICATION_PROTOCOL_DEFINITION ( 'international standard', 'config_control_design', 1994, #343 ) ;
#326 = ORIENTED_EDGE ( 'NONE', *, *, #172, .F. ) ;
#327 = LINE ( 'NONE', #253, #191 ) ;
#328 = COORDINATED_UNIVERSAL_TIME_OFFSET ( 5, 0, .BEHIND. ) ;
#329 = EDGE_LOOP ( 'NONE', ( #109, #147 ) ) ;
#330 = CALENDAR_DATE ( 2021, 3, 6 ) ;
#331 = PRODUCT_DEFINITION_SHAPE ( 'NONE', 'NONE',  #348 ) ;
#332 = EDGE_LOOP ( 'NONE', ( #122, #210, #57, #296 ) ) ;
#333 = EDGE_CURVE ( 'NONE', #366, #36, #323, .T. ) ;
#334 = CALENDAR_DATE ( 2021, 3, 6 ) ;
#335 = EDGE_LOOP ( 'NONE', ( #6, #204, #263, #151 ) ) ;
#336 = CC_DESIGN_PERSON_AND_ORGANIZATION_ASSIGNMENT ( #302, #245, ( #363 ) ) ;
#337 = ORIENTED_EDGE ( 'NONE', *, *, #105, .F. ) ;
#338 = COORDINATED_UNIVERSAL_TIME_OFFSET ( 5, 0, .BEHIND. ) ;
#339 = CARTESIAN_POINT ( 'NONE',  ( 6.000000000000000000, 5.500000000000000000, 3.399999999999998579 ) ) ;
#340 = AXIS2_PLACEMENT_3D ( 'NONE', #350, #244, #310 ) ;
#341 = PERSON_AND_ORGANIZATION ( #207, #258 ) ;
#342 = APPROVAL_PERSON_ORGANIZATION ( #273, #318, #211 ) ;
#343 = APPLICATION_CONTEXT ( 'configuration controlled 3d designs of mechanical parts and assemblies' ) ;
#344 = LINE ( 'NONE', #130, #214 ) ;
#345 = CARTESIAN_POINT ( 'NONE',  ( -13.22875655532296157, 0.000000000000000000, 9.000000000000000000 ) ) ;
#346 = VECTOR ( 'NONE', #203, 1000.000000000000000 ) ;
#347 = DIRECTION ( 'NONE',  ( 1.000000000000000000, 0.000000000000000000, 0.000000000000000000 ) ) ;
#348 = PRODUCT_DEFINITION ( 'UNKNOWN', '', #363, #168 ) ;
#349 = CIRCLE ( 'NONE', #171, 16.00000000000000000 ) ;
#350 = CARTESIAN_POINT ( 'NONE',  ( 0.000000000000000000, 4.000000000000000000, 0.000000000000000000 ) ) ;
#351 = ORIENTED_EDGE ( 'NONE', *, *, #226, .T. ) ;
#352 = CLOSED_SHELL ( 'NONE', ( #224, #254, #25, #68, #287, #3, #185, #317, #115, #86, #313 ) ) ;
#353 = CARTESIAN_POINT ( 'NONE',  ( 6.000000000000000000, 5.500000000000000000, -4.500000000000000000 ) ) ;
#354 = VERTEX_POINT ( 'NONE', #27 ) ;
#355 = FACE_OUTER_BOUND ( 'NONE', #335, .T. ) ;
#356 =( NAMED_UNIT ( * ) SI_UNIT ( $, .STERADIAN. ) SOLID_ANGLE_UNIT ( ) );
#357 = DIRECTION ( 'NONE',  ( 0.000000000000000000, 0.000000000000000000, 1.000000000000000000 ) ) ;
#358 = VERTEX_POINT ( 'NONE', #205 ) ;
#359 = UNCERTAINTY_MEASURE_WITH_UNIT (LENGTH_MEASURE( 1.000000000000000082E-05 ), #229, 'distance_accuracy_value', 'NONE');
#360 = CARTESIAN_POINT ( 'NONE',  ( 0.000000000000000000, 4.000000000000000000, 0.000000000000000000 ) ) ;
#361 = CARTESIAN_POINT ( 'NONE',  ( 6.000000000000000000, 5.500000000000000000, 0.000000000000000000 ) ) ;
#362 = EDGE_LOOP ( 'NONE', ( #208, #236 ) ) ;
#363 = PRODUCT_DEFINITION_FORMATION_WITH_SPECIFIED_SOURCE ( 'ANY', '', #266, .NOT_KNOWN. ) ;
#364 = DIRECTION ( 'NONE',  ( 1.000000000000000000, 0.000000000000000000, 0.000000000000000000 ) ) ;
#365 =( NAMED_UNIT ( * ) PLANE_ANGLE_UNIT ( ) SI_UNIT ( $, .RADIAN. ) );
#366 = VERTEX_POINT ( 'NONE', #289 ) ;
#367 = CARTESIAN_POINT ( 'NONE',  ( 6.000000000000000000, 5.500000000000000000, 0.000000000000000000 ) ) ;
#368 = DATE_TIME_ROLE ( 'creation_date' ) ;
#369 = ORIENTED_EDGE ( 'NONE', *, *, #62, .F. ) ;
#370 = CIRCLE ( 'NONE', #116, 16.00000000000000000 ) ;
#371 = ORIENTED_EDGE ( 'NONE', *, *, #95, .T. ) ;
#372 = DIRECTION ( 'NONE',  ( 0.000000000000000000, 0.000000000000000000, -1.000000000000000000 ) ) ;
#373 = CALENDAR_DATE ( 2021, 3, 6 ) ;
#374 = ORIENTED_EDGE ( 'NONE', *, *, #143, .T. ) ;
#375 = LINE ( 'NONE', #94, #252 ) ;
#376 = CARTESIAN_POINT ( 'NONE',  ( -13.22875655532296157, 4.000000000000000000, 9.000000000000000000 ) ) ;
#377 = AXIS2_PLACEMENT_3D ( 'NONE', #376, #8, #248 ) ;
#378 = ADVANCED_BREP_SHAPE_REPRESENTATION ( '151237', ( #282, #267 ), #50 ) ;
#379 = FACE_OUTER_BOUND ( 'NONE', #201, .T. ) ;
#380 = EDGE_CURVE ( 'NONE', #92, #354, #196, .T. ) ;
#381 = LINE ( 'NONE', #46, #262 ) ;
#382 = DIRECTION ( 'NONE',  ( 0.000000000000000000, 1.000000000000000000, 0.000000000000000000 ) ) ;
#383 = AXIS2_PLACEMENT_3D ( 'NONE', #367, #63, #85 ) ;
#384 = CARTESIAN_POINT ( 'NONE',  ( 6.000000000000000000, 5.500000000000000000, 0.000000000000000000 ) ) ;
#385 = EDGE_LOOP ( 'NONE', ( #139, #242 ) ) ;
#386 = DIRECTION ( 'NONE',  ( 0.000000000000000000, -1.000000000000000000, 0.000000000000000000 ) ) ;
#387 = DIRECTION ( 'NONE',  ( -0.000000000000000000, 1.000000000000000000, -0.000000000000000000 ) ) ;
#388 = DIRECTION ( 'NONE',  ( -0.000000000000000000, 1.000000000000000000, 0.000000000000000000 ) ) ;
#389 = ORIENTED_EDGE ( 'NONE', *, *, #243, .T. ) ;
#390 = DIRECTION ( 'NONE',  ( 0.000000000000000000, 1.000000000000000000, 0.000000000000000000 ) ) ;
#391 = FACE_OUTER_BOUND ( 'NONE', #7, .T. ) ;
#392 = CARTESIAN_POINT ( 'NONE',  ( 6.000000000000000000, 5.500000000000000000, 0.000000000000000000 ) ) ;
#393 = APPLICATION_CONTEXT ( 'configuration controlled 3d designs of mechanical parts and assemblies' ) ;
#394 = CARTESIAN_POINT ( 'NONE',  ( 0.000000000000000000, 4.000000000000000000, 0.000000000000000000 ) ) ;
#395 = VECTOR ( 'NONE', #281, 1000.000000000000000 ) ;
ENDSEC;
END-ISO-10303-21;
