ISO-10303-21;
HEADER;
FILE_DESCRIPTION (( 'STEP AP203' ),
    '1' );
FILE_NAME ('5003-008.step',
    '2021-09-29T10:28:36',
    ( '' ),
    ( '' ),
    'SwSTEP 2.0',
    'SolidWorks 2021',
    '' );
FILE_SCHEMA (( 'CONFIG_CONTROL_DESIGN' ));
ENDSEC;

DATA;
#1 = PERSON_AND_ORGANIZATION_ROLE ( 'design_owner' ) ;
#2 = SECURITY_CLASSIFICATION_LEVEL ( 'unclassified' ) ;
#3 = ORIENTED_EDGE ( 'NONE', *, *, #212, .T. ) ;
#4 = VERTEX_POINT ( 'NONE', #21 ) ;
#5 = DIRECTION ( 'NONE',  ( -0.000000000000000000, -0.000000000000000000, -1.000000000000000000 ) ) ;
#6 = AXIS2_PLACEMENT_3D ( 'NONE', #168, #35, #166 ) ;
#7 = LOCAL_TIME ( 6, 28, 36.00000000000000000, #120 ) ;
#8 = LINE ( 'NONE', #145, #113 ) ;
#9 = DIRECTION ( 'NONE',  ( -0.000000000000000000, -0.000000000000000000, -1.000000000000000000 ) ) ;
#10 = DIRECTION ( 'NONE',  ( -0.000000000000000000, -0.000000000000000000, -1.000000000000000000 ) ) ;
#11 = APPLICATION_CONTEXT ( 'configuration controlled 3d designs of mechanical parts and assemblies' ) ;
#12 = CARTESIAN_POINT ( 'NONE',  ( 0.000000000000000000, 0.000000000000000000, 0.1181102362204724532 ) ) ;
#13 = ADVANCED_FACE ( 'NONE', ( #223 ), #201, .F. ) ;
#14 = CARTESIAN_POINT ( 'NONE',  ( 0.000000000000000000, 0.000000000000000000, 0.000000000000000000 ) ) ;
#15 = DIRECTION ( 'NONE',  ( -1.000000000000000000, 0.000000000000000000, 0.000000000000000000 ) ) ;
#16 = AXIS2_PLACEMENT_3D ( 'NONE', #110, #77, #53 ) ;
#17 = EDGE_CURVE ( 'NONE', #181, #68, #32, .T. ) ;
#18 = DIRECTION ( 'NONE',  ( 1.000000000000000000, 0.000000000000000000, 0.000000000000000000 ) ) ;
#19 = VECTOR ( 'NONE', #105, 39.37007874015748143 ) ;
#20 = EDGE_LOOP ( 'NONE', ( #25, #102, #180, #220 ) ) ;
#21 = CARTESIAN_POINT ( 'NONE',  ( -0.9921259842519686289, 0.000000000000000000, 0.1181102362204724532 ) ) ;
#22 = VECTOR ( 'NONE', #190, 39.37007874015748143 ) ;
#23 = PRODUCT ( '5003-008', '5003-008', '', ( #236 ) ) ;
#24 = ORIENTED_EDGE ( 'NONE', *, *, #17, .F. ) ;
#25 = ORIENTED_EDGE ( 'NONE', *, *, #58, .F. ) ;
#26 = LOCAL_TIME ( 6, 28, 36.00000000000000000, #151 ) ;
#27 = ORIENTED_EDGE ( 'NONE', *, *, #136, .T. ) ;
#28 = CIRCLE ( 'NONE', #131, 1.102362204724409489 ) ;
#29 = FACE_OUTER_BOUND ( 'NONE', #20, .T. ) ;
#30 = PLANE ( 'NONE',  #44 ) ;
#31 = CC_DESIGN_APPROVAL ( #240, ( #135 ) ) ;
#32 = CIRCLE ( 'NONE', #64, 1.102362204724409489 ) ;
#33 = CIRCLE ( 'NONE', #161, 0.9921259842519686289 ) ;
#34 = CARTESIAN_POINT ( 'NONE',  ( 0.000000000000000000, 0.000000000000000000, 0.1181102362204724532 ) ) ;
#35 = DIRECTION ( 'NONE',  ( -0.000000000000000000, -0.000000000000000000, -1.000000000000000000 ) ) ;
#36 = PERSON ( 'UNSPECIFIED', 'UNSPECIFIED', 'UNSPECIFIED', ('UNSPECIFIED'), ('UNSPECIFIED'), ('UNSPECIFIED') ) ;
#37 = PERSON_AND_ORGANIZATION ( #36, #104 ) ;
#38 = APPROVAL_DATE_TIME ( #214, #55 ) ;
#39 = PERSON_AND_ORGANIZATION ( #36, #104 ) ;
#40 = PERSON_AND_ORGANIZATION_ROLE ( 'classification_officer' ) ;
#41 = LOCAL_TIME ( 6, 28, 36.00000000000000000, #197 ) ;
#42 = ORIENTED_EDGE ( 'NONE', *, *, #202, .T. ) ;
#43 = VERTEX_POINT ( 'NONE', #203 ) ;
#44 = AXIS2_PLACEMENT_3D ( 'NONE', #14, #211, #206 ) ;
#45 = EDGE_LOOP ( 'NONE', ( #42, #103 ) ) ;
#46 = MANIFOLD_SOLID_BREP ( 'Boss-Extrude1', #171 ) ;
#47 = EDGE_LOOP ( 'NONE', ( #160, #27 ) ) ;
#48 = ORIENTED_EDGE ( 'NONE', *, *, #136, .F. ) ;
#49 = CARTESIAN_POINT ( 'NONE',  ( -0.9921259842519686289, 0.000000000000000000, 0.000000000000000000 ) ) ;
#50 = LENGTH_MEASURE_WITH_UNIT ( LENGTH_MEASURE( 0.02539999999999999897 ), #106 );
#51 = CARTESIAN_POINT ( 'NONE',  ( 0.000000000000000000, 0.000000000000000000, 0.1181102362204724532 ) ) ;
#52 = AXIS2_PLACEMENT_3D ( 'NONE', #34, #10, #247 ) ;
#53 = DIRECTION ( 'NONE',  ( -1.000000000000000000, 0.000000000000000000, 0.000000000000000000 ) ) ;
#54 = PERSON_AND_ORGANIZATION ( #36, #104 ) ;
#55 = APPROVAL ( #217, 'UNSPECIFIED' ) ;
#56 = APPROVAL_DATE_TIME ( #175, #73 ) ;
#57 = CALENDAR_DATE ( 2021, 29, 9 ) ;
#58 = EDGE_CURVE ( 'NONE', #88, #4, #205, .T. ) ;
#59 = PERSON_AND_ORGANIZATION ( #36, #104 ) ;
#60 = LOCAL_TIME ( 6, 28, 36.00000000000000000, #195 ) ;
#61 = CIRCLE ( 'NONE', #66, 0.9921259842519686289 ) ;
#62 = CARTESIAN_POINT ( 'NONE',  ( 0.9921259842519686289, 1.215003910965090714E-16, 0.1181102362204724532 ) ) ;
#63 = ORIENTED_EDGE ( 'NONE', *, *, #187, .T. ) ;
#64 = AXIS2_PLACEMENT_3D ( 'NONE', #84, #141, #124 ) ;
#65 = DIRECTION ( 'NONE',  ( -0.000000000000000000, -0.000000000000000000, -1.000000000000000000 ) ) ;
#66 = AXIS2_PLACEMENT_3D ( 'NONE', #51, #127, #74 ) ;
#67 = EDGE_CURVE ( 'NONE', #68, #162, #8, .T. ) ;
#68 = VERTEX_POINT ( 'NONE', #158 ) ;
#69 = ORIENTED_EDGE ( 'NONE', *, *, #67, .F. ) ;
#70 = CC_DESIGN_SECURITY_CLASSIFICATION ( #140, ( #135 ) ) ;
#71 = DIRECTION ( 'NONE',  ( -1.000000000000000000, 0.000000000000000000, 0.000000000000000000 ) ) ;
#72 = CIRCLE ( 'NONE', #16, 0.9921259842519686289 ) ;
#73 = APPROVAL ( #134, 'UNSPECIFIED' ) ;
#74 = DIRECTION ( 'NONE',  ( -1.000000000000000000, 0.000000000000000000, 0.000000000000000000 ) ) ;
#75 = FACE_OUTER_BOUND ( 'NONE', #47, .T. ) ;
#76 = LINE ( 'NONE', #148, #22 ) ;
#77 = DIRECTION ( 'NONE',  ( 0.000000000000000000, 0.000000000000000000, 1.000000000000000000 ) ) ;
#78 = APPROVAL_DATE_TIME ( #137, #240 ) ;
#79 = CALENDAR_DATE ( 2021, 29, 9 ) ;
#80 = APPROVAL_PERSON_ORGANIZATION ( #37, #55, #116 ) ;
#81 = EDGE_LOOP ( 'NONE', ( #48, #123, #184, #198 ) ) ;
#82 = EDGE_LOOP ( 'NONE', ( #69, #24, #3, #143 ) ) ;
#83 = ADVANCED_BREP_SHAPE_REPRESENTATION ( '5003-008', ( #46, #87 ), #196 ) ;
#84 = CARTESIAN_POINT ( 'NONE',  ( 0.000000000000000000, 0.000000000000000000, 0.1181102362204724532 ) ) ;
#85 = CC_DESIGN_PERSON_AND_ORGANIZATION_ASSIGNMENT ( #54, #1, ( #23 ) ) ;
#86 = DIRECTION ( 'NONE',  ( -1.000000000000000000, 0.000000000000000000, 0.000000000000000000 ) ) ;
#87 = AXIS2_PLACEMENT_3D ( 'NONE', #156, #152, #18 ) ;
#88 = VERTEX_POINT ( 'NONE', #62 ) ;
#89 = CARTESIAN_POINT ( 'NONE',  ( 0.000000000000000000, 0.000000000000000000, 0.1181102362204724532 ) ) ;
#90 = CARTESIAN_POINT ( 'NONE',  ( -1.102362204724409489, 0.000000000000000000, 0.000000000000000000 ) ) ;
#91 = DIRECTION ( 'NONE',  ( 1.000000000000000000, 0.000000000000000000, -0.000000000000000000 ) ) ;
#92 = ADVANCED_FACE ( 'NONE', ( #121 ), #200, .T. ) ;
#93 = PLANE ( 'NONE',  #231 ) ;
#94 = SHAPE_DEFINITION_REPRESENTATION ( #199, #83 ) ;
#95 = PERSON_AND_ORGANIZATION_ROLE ( 'creator' ) ;
#96 = DESIGN_CONTEXT ( 'detailed design', #107, 'design' ) ;
#97 = LOCAL_TIME ( 6, 28, 36.00000000000000000, #117 ) ;
#98 = APPROVAL_ROLE ( '' ) ;
#99 = DATE_TIME_ROLE ( 'creation_date' ) ;
#100 = CARTESIAN_POINT ( 'NONE',  ( 0.000000000000000000, 0.000000000000000000, 0.1181102362204724532 ) ) ;
#101 = EDGE_CURVE ( 'NONE', #245, #43, #72, .T. ) ;
#102 = ORIENTED_EDGE ( 'NONE', *, *, #154, .T. ) ;
#103 = ORIENTED_EDGE ( 'NONE', *, *, #58, .T. ) ;
#104 = ORGANIZATION ( 'UNSPECIFIED', 'UNSPECIFIED', '' ) ;
#105 = DIRECTION ( 'NONE',  ( -0.000000000000000000, -0.000000000000000000, -1.000000000000000000 ) ) ;
#106 =( LENGTH_UNIT ( ) NAMED_UNIT ( * ) SI_UNIT ( $, .METRE. ) );
#107 = APPLICATION_CONTEXT ( 'configuration controlled 3d designs of mechanical parts and assemblies' ) ;
#108 = FACE_BOUND ( 'NONE', #45, .T. ) ;
#109 = VECTOR ( 'NONE', #248, 39.37007874015748143 ) ;
#110 = CARTESIAN_POINT ( 'NONE',  ( 0.000000000000000000, 0.000000000000000000, 0.000000000000000000 ) ) ;
#111 = DIRECTION ( 'NONE',  ( -1.000000000000000000, 0.000000000000000000, 0.000000000000000000 ) ) ;
#112 = APPLICATION_PROTOCOL_DEFINITION ( 'international standard', 'config_control_design', 1994, #107 ) ;
#113 = VECTOR ( 'NONE', #225, 39.37007874015748143 ) ;
#114 = ADVANCED_FACE ( 'NONE', ( #108, #75 ), #93, .T. ) ;
#115 = APPLICATION_PROTOCOL_DEFINITION ( 'international standard', 'config_control_design', 1994, #11 ) ;
#116 = APPROVAL_ROLE ( '' ) ;
#117 = COORDINATED_UNIVERSAL_TIME_OFFSET ( 5, 0, .BEHIND. ) ;
#118 = CIRCLE ( 'NONE', #215, 1.102362204724409489 ) ;
#119 = APPROVAL_PERSON_ORGANIZATION ( #39, #73, #153 ) ;
#120 = COORDINATED_UNIVERSAL_TIME_OFFSET ( 5, 0, .BEHIND. ) ;
#121 = FACE_OUTER_BOUND ( 'NONE', #81, .T. ) ;
#122 = CC_DESIGN_PERSON_AND_ORGANIZATION_ASSIGNMENT ( #59, #95, ( #135 ) ) ;
#123 = ORIENTED_EDGE ( 'NONE', *, *, #67, .T. ) ;
#124 = DIRECTION ( 'NONE',  ( -1.000000000000000000, 0.000000000000000000, 0.000000000000000000 ) ) ;
#125 = ORIENTED_EDGE ( 'NONE', *, *, #144, .T. ) ;
#126 = CARTESIAN_POINT ( 'NONE',  ( -1.102362204724409489, 0.000000000000000000, 0.1181102362204724532 ) ) ;
#127 = DIRECTION ( 'NONE',  ( -0.000000000000000000, -0.000000000000000000, -1.000000000000000000 ) ) ;
#128 = FACE_OUTER_BOUND ( 'NONE', #82, .T. ) ;
#129 = ADVANCED_FACE ( 'NONE', ( #128 ), #208, .T. ) ;
#130 = DIRECTION ( 'NONE',  ( 0.000000000000000000, 0.000000000000000000, 1.000000000000000000 ) ) ;
#131 = AXIS2_PLACEMENT_3D ( 'NONE', #146, #164, #71 ) ;
#132 = LINE ( 'NONE', #186, #109 ) ;
#133 = CALENDAR_DATE ( 2021, 29, 9 ) ;
#134 = APPROVAL_STATUS ( 'not_yet_approved' ) ;
#135 = PRODUCT_DEFINITION_FORMATION_WITH_SPECIFIED_SOURCE ( 'ANY', '', #23, .NOT_KNOWN. ) ;
#136 = EDGE_CURVE ( 'NONE', #68, #181, #118, .T. ) ;
#137 = DATE_AND_TIME ( #252, #60 ) ;
#138 = PERSON_AND_ORGANIZATION ( #36, #104 ) ;
#139 =( NAMED_UNIT ( * ) SI_UNIT ( $, .STERADIAN. ) SOLID_ANGLE_UNIT ( ) );
#140 = SECURITY_CLASSIFICATION ( '', '', #2 ) ;
#141 = DIRECTION ( 'NONE',  ( 0.000000000000000000, 0.000000000000000000, 1.000000000000000000 ) ) ;
#142 = ORIENTED_EDGE ( 'NONE', *, *, #207, .F. ) ;
#143 = ORIENTED_EDGE ( 'NONE', *, *, #207, .T. ) ;
#144 = EDGE_CURVE ( 'NONE', #4, #245, #132, .T. ) ;
#145 = CARTESIAN_POINT ( 'NONE',  ( 1.102362204724409489, 1.350004345516767350E-16, 0.1181102362204724532 ) ) ;
#146 = CARTESIAN_POINT ( 'NONE',  ( 0.000000000000000000, 0.000000000000000000, 0.000000000000000000 ) ) ;
#147 = CARTESIAN_POINT ( 'NONE',  ( 1.102362204724409489, 1.350004345516767350E-16, 0.000000000000000000 ) ) ;
#148 = CARTESIAN_POINT ( 'NONE',  ( 0.9921259842519686289, 1.215003910965090714E-16, 0.1181102362204724532 ) ) ;
#149 = CC_DESIGN_APPROVAL ( #73, ( #216 ) ) ;
#150 = DIRECTION ( 'NONE',  ( 0.000000000000000000, 0.000000000000000000, 1.000000000000000000 ) ) ;
#151 = COORDINATED_UNIVERSAL_TIME_OFFSET ( 5, 0, .BEHIND. ) ;
#152 = DIRECTION ( 'NONE',  ( 0.000000000000000000, 0.000000000000000000, 1.000000000000000000 ) ) ;
#153 = APPROVAL_ROLE ( '' ) ;
#154 = EDGE_CURVE ( 'NONE', #88, #43, #76, .T. ) ;
#155 = PERSON_AND_ORGANIZATION_ROLE ( 'creator' ) ;
#156 = CARTESIAN_POINT ( 'NONE',  ( 0.000000000000000000, 0.000000000000000000, 0.000000000000000000 ) ) ;
#157 = ADVANCED_FACE ( 'NONE', ( #210, #189 ), #30, .F. ) ;
#158 = CARTESIAN_POINT ( 'NONE',  ( 1.102362204724409489, 1.350004345516767350E-16, 0.1181102362204724532 ) ) ;
#159 = ORIENTED_EDGE ( 'NONE', *, *, #222, .F. ) ;
#160 = ORIENTED_EDGE ( 'NONE', *, *, #17, .T. ) ;
#161 = AXIS2_PLACEMENT_3D ( 'NONE', #169, #232, #111 ) ;
#162 = VERTEX_POINT ( 'NONE', #147 ) ;
#163 = EDGE_LOOP ( 'NONE', ( #224, #179, #125, #243 ) ) ;
#164 = DIRECTION ( 'NONE',  ( 0.000000000000000000, 0.000000000000000000, 1.000000000000000000 ) ) ;
#165 = AXIS2_PLACEMENT_3D ( 'NONE', #12, #9, #227 ) ;
#166 = DIRECTION ( 'NONE',  ( -1.000000000000000000, 0.000000000000000000, 0.000000000000000000 ) ) ;
#167 = PRODUCT_RELATED_PRODUCT_CATEGORY ( 'detail', '', ( #23 ) ) ;
#168 = CARTESIAN_POINT ( 'NONE',  ( 0.000000000000000000, 0.000000000000000000, 0.1181102362204724532 ) ) ;
#169 = CARTESIAN_POINT ( 'NONE',  ( 0.000000000000000000, 0.000000000000000000, 0.000000000000000000 ) ) ;
#170 = APPROVAL_PERSON_ORGANIZATION ( #239, #240, #98 ) ;
#171 = CLOSED_SHELL ( 'NONE', ( #228, #92, #114, #13, #129, #157 ) ) ;
#172 = LINE ( 'NONE', #126, #19 ) ;
#173 = AXIS2_PLACEMENT_3D ( 'NONE', #191, #150, #15 ) ;
#174 = PERSON_AND_ORGANIZATION ( #36, #104 ) ;
#175 = DATE_AND_TIME ( #79, #7 ) ;
#176 = CC_DESIGN_PERSON_AND_ORGANIZATION_ASSIGNMENT ( #138, #40, ( #140 ) ) ;
#177 =( NAMED_UNIT ( * ) PLANE_ANGLE_UNIT ( ) SI_UNIT ( $, .RADIAN. ) );
#178 = APPROVAL_STATUS ( 'not_yet_approved' ) ;
#179 = ORIENTED_EDGE ( 'NONE', *, *, #202, .F. ) ;
#180 = ORIENTED_EDGE ( 'NONE', *, *, #101, .F. ) ;
#181 = VERTEX_POINT ( 'NONE', #251 ) ;
#182 = VERTEX_POINT ( 'NONE', #90 ) ;
#183 = CC_DESIGN_PERSON_AND_ORGANIZATION_ASSIGNMENT ( #174, #155, ( #216 ) ) ;
#184 = ORIENTED_EDGE ( 'NONE', *, *, #222, .T. ) ;
#185 = DIMENSIONAL_EXPONENTS ( 1.000000000000000000, 0.000000000000000000, 0.000000000000000000, 0.000000000000000000, 0.000000000000000000, 0.000000000000000000, 0.000000000000000000 ) ;
#186 = CARTESIAN_POINT ( 'NONE',  ( -0.9921259842519686289, 0.000000000000000000, 0.1181102362204724532 ) ) ;
#187 = EDGE_CURVE ( 'NONE', #43, #245, #33, .T. ) ;
#188 = AXIS2_PLACEMENT_3D ( 'NONE', #100, #65, #204 ) ;
#189 = FACE_OUTER_BOUND ( 'NONE', #242, .T. ) ;
#190 = DIRECTION ( 'NONE',  ( -0.000000000000000000, -0.000000000000000000, -1.000000000000000000 ) ) ;
#191 = CARTESIAN_POINT ( 'NONE',  ( 0.000000000000000000, 0.000000000000000000, 0.000000000000000000 ) ) ;
#192 = CC_DESIGN_PERSON_AND_ORGANIZATION_ASSIGNMENT ( #218, #238, ( #135 ) ) ;
#193 = DATE_TIME_ROLE ( 'classification_date' ) ;
#194 = DATE_AND_TIME ( #57, #41 ) ;
#195 = COORDINATED_UNIVERSAL_TIME_OFFSET ( 5, 0, .BEHIND. ) ;
#196 =( GEOMETRIC_REPRESENTATION_CONTEXT ( 3 ) GLOBAL_UNCERTAINTY_ASSIGNED_CONTEXT ( ( #237 ) ) GLOBAL_UNIT_ASSIGNED_CONTEXT ( ( #249, #177, #139 ) ) REPRESENTATION_CONTEXT ( 'NONE', 'WORKASPACE' ) );
#197 = COORDINATED_UNIVERSAL_TIME_OFFSET ( 5, 0, .BEHIND. ) ;
#198 = ORIENTED_EDGE ( 'NONE', *, *, #212, .F. ) ;
#199 = PRODUCT_DEFINITION_SHAPE ( 'NONE', 'NONE',  #216 ) ;
#200 = CYLINDRICAL_SURFACE ( 'NONE', #52, 1.102362204724409489 ) ;
#201 = CYLINDRICAL_SURFACE ( 'NONE', #188, 0.9921259842519686289 ) ;
#202 = EDGE_CURVE ( 'NONE', #4, #88, #61, .T. ) ;
#203 = CARTESIAN_POINT ( 'NONE',  ( 0.9921259842519686289, 1.215003910965090714E-16, 0.000000000000000000 ) ) ;
#204 = DIRECTION ( 'NONE',  ( -1.000000000000000000, 0.000000000000000000, 0.000000000000000000 ) ) ;
#205 = CIRCLE ( 'NONE', #209, 0.9921259842519686289 ) ;
#206 = DIRECTION ( 'NONE',  ( 1.000000000000000000, 0.000000000000000000, -0.000000000000000000 ) ) ;
#207 = EDGE_CURVE ( 'NONE', #182, #162, #28, .T. ) ;
#208 = CYLINDRICAL_SURFACE ( 'NONE', #6, 1.102362204724409489 ) ;
#209 = AXIS2_PLACEMENT_3D ( 'NONE', #241, #5, #86 ) ;
#210 = FACE_BOUND ( 'NONE', #221, .T. ) ;
#211 = DIRECTION ( 'NONE',  ( 0.000000000000000000, 0.000000000000000000, 1.000000000000000000 ) ) ;
#212 = EDGE_CURVE ( 'NONE', #181, #182, #172, .T. ) ;
#213 = DATE_AND_TIME ( #133, #97 ) ;
#214 = DATE_AND_TIME ( #234, #26 ) ;
#215 = AXIS2_PLACEMENT_3D ( 'NONE', #233, #130, #230 ) ;
#216 = PRODUCT_DEFINITION ( 'UNKNOWN', '', #135, #96 ) ;
#217 = APPROVAL_STATUS ( 'not_yet_approved' ) ;
#218 = PERSON_AND_ORGANIZATION ( #36, #104 ) ;
#219 = CC_DESIGN_APPROVAL ( #55, ( #140 ) ) ;
#220 = ORIENTED_EDGE ( 'NONE', *, *, #144, .F. ) ;
#221 = EDGE_LOOP ( 'NONE', ( #244, #63 ) ) ;
#222 = EDGE_CURVE ( 'NONE', #162, #182, #226, .T. ) ;
#223 = FACE_OUTER_BOUND ( 'NONE', #163, .T. ) ;
#224 = ORIENTED_EDGE ( 'NONE', *, *, #154, .F. ) ;
#225 = DIRECTION ( 'NONE',  ( -0.000000000000000000, -0.000000000000000000, -1.000000000000000000 ) ) ;
#226 = CIRCLE ( 'NONE', #173, 1.102362204724409489 ) ;
#227 = DIRECTION ( 'NONE',  ( -1.000000000000000000, 0.000000000000000000, 0.000000000000000000 ) ) ;
#228 = ADVANCED_FACE ( 'NONE', ( #29 ), #229, .F. ) ;
#229 = CYLINDRICAL_SURFACE ( 'NONE', #165, 0.9921259842519686289 ) ;
#230 = DIRECTION ( 'NONE',  ( -1.000000000000000000, 0.000000000000000000, 0.000000000000000000 ) ) ;
#231 = AXIS2_PLACEMENT_3D ( 'NONE', #89, #250, #91 ) ;
#232 = DIRECTION ( 'NONE',  ( 0.000000000000000000, 0.000000000000000000, 1.000000000000000000 ) ) ;
#233 = CARTESIAN_POINT ( 'NONE',  ( 0.000000000000000000, 0.000000000000000000, 0.1181102362204724532 ) ) ;
#234 = CALENDAR_DATE ( 2021, 29, 9 ) ;
#235 = CC_DESIGN_DATE_AND_TIME_ASSIGNMENT ( #194, #99, ( #216 ) ) ;
#236 = MECHANICAL_CONTEXT ( 'NONE', #11, 'mechanical' ) ;
#237 = UNCERTAINTY_MEASURE_WITH_UNIT (LENGTH_MEASURE( 1.000000000000000082E-05 ), #249, 'distance_accuracy_value', 'NONE');
#238 = PERSON_AND_ORGANIZATION_ROLE ( 'design_supplier' ) ;
#239 = PERSON_AND_ORGANIZATION ( #36, #104 ) ;
#240 = APPROVAL ( #178, 'UNSPECIFIED' ) ;
#241 = CARTESIAN_POINT ( 'NONE',  ( 0.000000000000000000, 0.000000000000000000, 0.1181102362204724532 ) ) ;
#242 = EDGE_LOOP ( 'NONE', ( #142, #159 ) ) ;
#243 = ORIENTED_EDGE ( 'NONE', *, *, #187, .F. ) ;
#244 = ORIENTED_EDGE ( 'NONE', *, *, #101, .T. ) ;
#245 = VERTEX_POINT ( 'NONE', #49 ) ;
#246 = CC_DESIGN_DATE_AND_TIME_ASSIGNMENT ( #213, #193, ( #140 ) ) ;
#247 = DIRECTION ( 'NONE',  ( -1.000000000000000000, 0.000000000000000000, 0.000000000000000000 ) ) ;
#248 = DIRECTION ( 'NONE',  ( -0.000000000000000000, -0.000000000000000000, -1.000000000000000000 ) ) ;
#249 =( CONVERSION_BASED_UNIT ( 'INCH', #50 ) LENGTH_UNIT ( ) NAMED_UNIT ( #185 ) );
#250 = DIRECTION ( 'NONE',  ( 0.000000000000000000, 0.000000000000000000, 1.000000000000000000 ) ) ;
#251 = CARTESIAN_POINT ( 'NONE',  ( -1.102362204724409489, 0.000000000000000000, 0.1181102362204724532 ) ) ;
#252 = CALENDAR_DATE ( 2021, 29, 9 ) ;
ENDSEC;
END-ISO-10303-21;
