ISO-10303-21;
HEADER;
FILE_DESCRIPTION (( 'STEP AP203' ),
    '1' );
FILE_NAME ('60FD14_Default.step',
    '2019-09-13T18:12:03',
    ( '' ),
    ( '' ),
    'SwSTEP 2.0',
    'SolidWorks 2018',
    '' );
FILE_SCHEMA (( 'CONFIG_CONTROL_DESIGN' ));
ENDSEC;

DATA;
#1 = ORIENTED_EDGE ( 'NONE', *, *, #57, .F. ) ;
#2 = CC_DESIGN_APPROVAL ( #207, ( #169 ) ) ;
#3 = ORIENTED_EDGE ( 'NONE', *, *, #74, .T. ) ;
#4 = ORIENTED_EDGE ( 'NONE', *, *, #136, .T. ) ;
#5 = CC_DESIGN_SECURITY_CLASSIFICATION ( #116, ( #169 ) ) ;
#6 = DIRECTION ( 'NONE',  ( 1.000000000000000000, 0.0000000000000000000, 0.0000000000000000000 ) ) ;
#7 = UNCERTAINTY_MEASURE_WITH_UNIT (LENGTH_MEASURE( 1.000000000000000082E-05 ), #109, 'distance_accuracy_value', 'NONE');
#8 = CARTESIAN_POINT ( 'NONE',  ( 0.0000000000000000000, 0.0000000000000000000, 0.0000000000000000000 ) ) ;
#9 = CARTESIAN_POINT ( 'NONE',  ( 23.93499999999999872, 0.1250000000000000000, 29.93500000000000227 ) ) ;
#10 = DATE_TIME_ROLE ( 'classification_date' ) ;
#11 = PLANE ( 'NONE',  #184 ) ;
#12 = EDGE_CURVE ( 'NONE', #27, #47, #76, .T. ) ;
#13 = APPROVAL ( #191, 'UNSPECIFIED' ) ;
#14 = VECTOR ( 'NONE', #67, 39.37007874015748143 ) ;
#15 = VERTEX_POINT ( 'NONE', #174 ) ;
#16 = PERSON_AND_ORGANIZATION ( #53, #166 ) ;
#17 = CC_DESIGN_PERSON_AND_ORGANIZATION_ASSIGNMENT ( #84, #106, ( #116 ) ) ;
#18 = VECTOR ( 'NONE', #69, 39.37007874015748143 ) ;
#19 = CARTESIAN_POINT ( 'NONE',  ( -23.93499999999999872, 0.0000000000000000000, 29.93500000000000227 ) ) ;
#20 = EDGE_CURVE ( 'NONE', #52, #190, #141, .T. ) ;
#21 = DIRECTION ( 'NONE',  ( 0.0000000000000000000, 0.0000000000000000000, -1.000000000000000000 ) ) ;
#22 = PERSON_AND_ORGANIZATION_ROLE ( 'design_supplier' ) ;
#23 = ORIENTED_EDGE ( 'NONE', *, *, #29, .T. ) ;
#24 = PLANE ( 'NONE',  #25 ) ;
#25 = AXIS2_PLACEMENT_3D ( 'NONE', #64, #199, #159 ) ;
#26 = CARTESIAN_POINT ( 'NONE',  ( -23.93499999999999872, 0.0000000000000000000, -29.93500000000000227 ) ) ;
#27 = VERTEX_POINT ( 'NONE', #9 ) ;
#28 = APPROVAL_PERSON_ORGANIZATION ( #85, #13, #209 ) ;
#29 = EDGE_CURVE ( 'NONE', #39, #15, #104, .T. ) ;
#30 = CC_DESIGN_APPROVAL ( #235, ( #116 ) ) ;
#31 = VECTOR ( 'NONE', #87, 39.37007874015748143 ) ;
#32 = ORIENTED_EDGE ( 'NONE', *, *, #40, .T. ) ;
#33 = VECTOR ( 'NONE', #149, 39.37007874015748143 ) ;
#34 = APPROVAL_PERSON_ORGANIZATION ( #77, #235, #41 ) ;
#35 = ORIENTED_EDGE ( 'NONE', *, *, #20, .F. ) ;
#36 = LINE ( 'NONE', #26, #133 ) ;
#37 = PERSON_AND_ORGANIZATION ( #53, #166 ) ;
#38 = DIRECTION ( 'NONE',  ( 0.0000000000000000000, -0.0000000000000000000, -1.000000000000000000 ) ) ;
#39 = VERTEX_POINT ( 'NONE', #63 ) ;
#40 = EDGE_CURVE ( 'NONE', #90, #27, #152, .T. ) ;
#41 = APPROVAL_ROLE ( '' ) ;
#42 = APPROVAL_ROLE ( '' ) ;
#43 =( LENGTH_UNIT ( ) NAMED_UNIT ( * ) SI_UNIT ( $, .METRE. ) );
#44 = CARTESIAN_POINT ( 'NONE',  ( 23.93499999999999872, 0.0000000000000000000, -29.93499999999999872 ) ) ;
#45 = ADVANCED_FACE ( 'NONE', ( #201 ), #177, .T. ) ;
#46 =( NAMED_UNIT ( * ) SI_UNIT ( $, .STERADIAN. ) SOLID_ANGLE_UNIT ( ) );
#47 = VERTEX_POINT ( 'NONE', #114 ) ;
#48 = CARTESIAN_POINT ( 'NONE',  ( 23.93499999999999872, 0.0000000000000000000, 29.93500000000000227 ) ) ;
#49 = CC_DESIGN_DATE_AND_TIME_ASSIGNMENT ( #102, #232, ( #203 ) ) ;
#50 = ORIENTED_EDGE ( 'NONE', *, *, #215, .F. ) ;
#51 = ORIENTED_EDGE ( 'NONE', *, *, #40, .F. ) ;
#52 = VERTEX_POINT ( 'NONE', #48 ) ;
#53 = PERSON ( 'UNSPECIFIED', 'UNSPECIFIED', 'UNSPECIFIED', ('UNSPECIFIED'), ('UNSPECIFIED'), ('UNSPECIFIED') ) ;
#54 = CC_DESIGN_PERSON_AND_ORGANIZATION_ASSIGNMENT ( #145, #208, ( #169 ) ) ;
#55 = LOCAL_TIME ( 14, 12, 2.000000000000000000, #132 ) ;
#56 = PRODUCT ( '60FD14_Default', '60FD14_Default', '', ( #124 ) ) ;
#57 = EDGE_CURVE ( 'NONE', #47, #190, #221, .T. ) ;
#58 = CALENDAR_DATE ( 2019, 13, 9 ) ;
#59 = AXIS2_PLACEMENT_3D ( 'NONE', #163, #214, #127 ) ;
#60 = ORIENTED_EDGE ( 'NONE', *, *, #181, .T. ) ;
#61 = LINE ( 'NONE', #91, #170 ) ;
#62 = DIRECTION ( 'NONE',  ( 0.0000000000000000000, 0.0000000000000000000, 1.000000000000000000 ) ) ;
#63 = CARTESIAN_POINT ( 'NONE',  ( -23.93499999999999517, 0.0000000000000000000, -29.93500000000000227 ) ) ;
#64 = CARTESIAN_POINT ( 'NONE',  ( -23.93499999999999872, 0.1250000000000000000, 29.93500000000000227 ) ) ;
#65 = ORIENTED_EDGE ( 'NONE', *, *, #20, .T. ) ;
#66 = CARTESIAN_POINT ( 'NONE',  ( 23.93499999999999872, 0.1250000000000000000, 29.93500000000000227 ) ) ;
#67 = DIRECTION ( 'NONE',  ( -0.0000000000000000000, -0.0000000000000000000, 1.000000000000000000 ) ) ;
#68 = DIRECTION ( 'NONE',  ( 0.0000000000000000000, -1.000000000000000000, 0.0000000000000000000 ) ) ;
#69 = DIRECTION ( 'NONE',  ( -0.0000000000000000000, 1.000000000000000000, 0.0000000000000000000 ) ) ;
#70 = EDGE_CURVE ( 'NONE', #15, #90, #239, .T. ) ;
#71 = DATE_AND_TIME ( #229, #55 ) ;
#72 = AXIS2_PLACEMENT_3D ( 'NONE', #128, #68, #38 ) ;
#73 = PRODUCT_DEFINITION_SHAPE ( 'NONE', 'NONE',  #203 ) ;
#74 = EDGE_CURVE ( 'NONE', #180, #90, #218, .T. ) ;
#75 = CC_DESIGN_PERSON_AND_ORGANIZATION_ASSIGNMENT ( #130, #22, ( #169 ) ) ;
#76 = LINE ( 'NONE', #227, #198 ) ;
#77 = PERSON_AND_ORGANIZATION ( #53, #166 ) ;
#78 = LINE ( 'NONE', #147, #205 ) ;
#79 = DATE_AND_TIME ( #182, #117 ) ;
#80 = VECTOR ( 'NONE', #139, 39.37007874015748143 ) ;
#81 = COORDINATED_UNIVERSAL_TIME_OFFSET ( 5, 0, .BEHIND. ) ;
#82 = EDGE_CURVE ( 'NONE', #190, #39, #36, .T. ) ;
#83 = EDGE_LOOP ( 'NONE', ( #112, #187, #35, #89 ) ) ;
#84 = PERSON_AND_ORGANIZATION ( #53, #166 ) ;
#85 = PERSON_AND_ORGANIZATION ( #53, #166 ) ;
#86 = PERSON_AND_ORGANIZATION_ROLE ( 'creator' ) ;
#87 = DIRECTION ( 'NONE',  ( -1.000000000000000000, -0.0000000000000000000, -0.0000000000000000000 ) ) ;
#88 = ADVANCED_FACE ( 'NONE', ( #189 ), #211, .T. ) ;
#89 = ORIENTED_EDGE ( 'NONE', *, *, #215, .T. ) ;
#90 = VERTEX_POINT ( 'NONE', #110 ) ;
#91 = CARTESIAN_POINT ( 'NONE',  ( -23.93499999999999872, 0.0000000000000000000, -29.93500000000000227 ) ) ;
#92 = APPROVAL_STATUS ( 'not_yet_approved' ) ;
#93 = APPROVAL_DATE_TIME ( #71, #235 ) ;
#94 = CARTESIAN_POINT ( 'NONE',  ( -23.93499999999999872, 0.1250000000000000000, 29.93499999999999872 ) ) ;
#95 = VECTOR ( 'NONE', #196, 39.37007874015748143 ) ;
#96 = ADVANCED_FACE ( 'NONE', ( #148 ), #11, .F. ) ;
#97 = COORDINATED_UNIVERSAL_TIME_OFFSET ( 5, 0, .BEHIND. ) ;
#98 = EDGE_LOOP ( 'NONE', ( #32, #50, #126, #3 ) ) ;
#99 = CLOSED_SHELL ( 'NONE', ( #197, #45, #175, #88, #108, #96 ) ) ;
#100 = CALENDAR_DATE ( 2019, 13, 9 ) ;
#101 = LINE ( 'NONE', #178, #33 ) ;
#102 = DATE_AND_TIME ( #100, #115 ) ;
#103 = ORIENTED_EDGE ( 'NONE', *, *, #181, .F. ) ;
#104 = LINE ( 'NONE', #122, #80 ) ;
#105 = ORIENTED_EDGE ( 'NONE', *, *, #82, .F. ) ;
#106 = PERSON_AND_ORGANIZATION_ROLE ( 'classification_officer' ) ;
#107 = DIRECTION ( 'NONE',  ( -1.000000000000000000, -0.0000000000000000000, -9.130889471198710580E-17 ) ) ;
#108 = ADVANCED_FACE ( 'NONE', ( #120 ), #24, .T. ) ;
#109 =( CONVERSION_BASED_UNIT ( 'INCH', #151 ) LENGTH_UNIT ( ) NAMED_UNIT ( #165 ) );
#110 = CARTESIAN_POINT ( 'NONE',  ( 23.93499999999999872, 0.1250000000000000000, -29.93499999999999872 ) ) ;
#111 = PLANE ( 'NONE',  #72 ) ;
#112 = ORIENTED_EDGE ( 'NONE', *, *, #12, .T. ) ;
#113 = CARTESIAN_POINT ( 'NONE',  ( -23.93499999999999872, 0.1250000000000000000, -29.93500000000000227 ) ) ;
#114 = CARTESIAN_POINT ( 'NONE',  ( -23.93499999999999872, 0.1250000000000000000, 29.93499999999999872 ) ) ;
#115 = LOCAL_TIME ( 14, 12, 2.000000000000000000, #81 ) ;
#116 = SECURITY_CLASSIFICATION ( '', '', #123 ) ;
#117 = LOCAL_TIME ( 14, 12, 2.000000000000000000, #97 ) ;
#118 = FACE_OUTER_BOUND ( 'NONE', #138, .T. ) ;
#119 = COORDINATED_UNIVERSAL_TIME_OFFSET ( 5, 0, .BEHIND. ) ;
#120 = FACE_OUTER_BOUND ( 'NONE', #153, .T. ) ;
#121 =( GEOMETRIC_REPRESENTATION_CONTEXT ( 3 ) GLOBAL_UNCERTAINTY_ASSIGNED_CONTEXT ( ( #7 ) ) GLOBAL_UNIT_ASSIGNED_CONTEXT ( ( #109, #193, #46 ) ) REPRESENTATION_CONTEXT ( 'NONE', 'WORKASPACE' ) );
#122 = CARTESIAN_POINT ( 'NONE',  ( -23.93499999999999872, 0.1250000000000000000, -29.93500000000000227 ) ) ;
#123 = SECURITY_CLASSIFICATION_LEVEL ( 'unclassified' ) ;
#124 = MECHANICAL_CONTEXT ( 'NONE', #146, 'mechanical' ) ;
#125 = CC_DESIGN_PERSON_AND_ORGANIZATION_ASSIGNMENT ( #16, #144, ( #56 ) ) ;
#126 = ORIENTED_EDGE ( 'NONE', *, *, #136, .F. ) ;
#127 = DIRECTION ( 'NONE',  ( 1.000000000000000000, 0.0000000000000000000, 9.130889471198710580E-17 ) ) ;
#128 = CARTESIAN_POINT ( 'NONE',  ( -23.93499999999999872, 0.0000000000000000000, -29.93500000000000227 ) ) ;
#129 = DIRECTION ( 'NONE',  ( -1.000000000000000000, 0.0000000000000000000, -9.130889471198710580E-17 ) ) ;
#130 = PERSON_AND_ORGANIZATION ( #53, #166 ) ;
#131 = CARTESIAN_POINT ( 'NONE',  ( -23.93499999999999872, 0.1250000000000000000, -29.93500000000000227 ) ) ;
#132 = COORDINATED_UNIVERSAL_TIME_OFFSET ( 5, 0, .BEHIND. ) ;
#133 = VECTOR ( 'NONE', #161, 39.37007874015748143 ) ;
#134 = ORIENTED_EDGE ( 'NONE', *, *, #74, .F. ) ;
#135 = EDGE_LOOP ( 'NONE', ( #204, #51, #150, #103 ) ) ;
#136 = EDGE_CURVE ( 'NONE', #180, #52, #101, .T. ) ;
#137 = APPROVAL_DATE_TIME ( #185, #207 ) ;
#138 = EDGE_LOOP ( 'NONE', ( #4, #65, #157, #224 ) ) ;
#139 = DIRECTION ( 'NONE',  ( 0.0000000000000000000, 1.000000000000000000, 0.0000000000000000000 ) ) ;
#140 = DIRECTION ( 'NONE',  ( 0.0000000000000000000, 1.000000000000000000, -0.0000000000000000000 ) ) ;
#141 = LINE ( 'NONE', #19, #31 ) ;
#142 = CARTESIAN_POINT ( 'NONE',  ( 23.93499999999999872, 0.1250000000000000000, -29.93500000000000227 ) ) ;
#143 = APPLICATION_PROTOCOL_DEFINITION ( 'international standard', 'config_control_design', 1994, #206 ) ;
#144 = PERSON_AND_ORGANIZATION_ROLE ( 'design_owner' ) ;
#145 = PERSON_AND_ORGANIZATION ( #53, #166 ) ;
#146 = APPLICATION_CONTEXT ( 'configuration controlled 3d designs of mechanical parts and assemblies' ) ;
#147 = CARTESIAN_POINT ( 'NONE',  ( -23.93499999999999872, 0.1250000000000000000, 29.93500000000000227 ) ) ;
#148 = FACE_OUTER_BOUND ( 'NONE', #135, .T. ) ;
#149 = DIRECTION ( 'NONE',  ( -0.0000000000000000000, 0.0000000000000000000, 1.000000000000000000 ) ) ;
#150 = ORIENTED_EDGE ( 'NONE', *, *, #70, .F. ) ;
#151 = LENGTH_MEASURE_WITH_UNIT ( LENGTH_MEASURE( 0.02539999999999999897 ), #43 );
#152 = LINE ( 'NONE', #142, #14 ) ;
#153 = EDGE_LOOP ( 'NONE', ( #60, #192, #105, #1 ) ) ;
#154 = APPROVAL_DATE_TIME ( #240, #13 ) ;
#155 = AXIS2_PLACEMENT_3D ( 'NONE', #8, #62, #158 ) ;
#156 = VECTOR ( 'NONE', #140, 39.37007874015748143 ) ;
#157 = ORIENTED_EDGE ( 'NONE', *, *, #82, .T. ) ;
#158 = DIRECTION ( 'NONE',  ( 1.000000000000000000, 0.0000000000000000000, 0.0000000000000000000 ) ) ;
#159 = DIRECTION ( 'NONE',  ( -1.460149253336500075E-16, 0.0000000000000000000, 1.000000000000000000 ) ) ;
#160 = FACE_OUTER_BOUND ( 'NONE', #98, .T. ) ;
#161 = DIRECTION ( 'NONE',  ( 0.0000000000000000000, -0.0000000000000000000, -1.000000000000000000 ) ) ;
#162 = CARTESIAN_POINT ( 'NONE',  ( -23.93499999999999872, 0.0000000000000000000, 29.93499999999999872 ) ) ;
#163 = CARTESIAN_POINT ( 'NONE',  ( 23.93499999999999872, 0.1250000000000000000, 29.93500000000000227 ) ) ;
#164 = DIRECTION ( 'NONE',  ( 0.0000000000000000000, -1.000000000000000000, 0.0000000000000000000 ) ) ;
#165 = DIMENSIONAL_EXPONENTS ( 1.000000000000000000, 0.0000000000000000000, 0.0000000000000000000, 0.0000000000000000000, 0.0000000000000000000, 0.0000000000000000000, 0.0000000000000000000 ) ;
#166 = ORGANIZATION ( 'UNSPECIFIED', 'UNSPECIFIED', '' ) ;
#167 = VECTOR ( 'NONE', #194, 39.37007874015748143 ) ;
#168 = COORDINATED_UNIVERSAL_TIME_OFFSET ( 5, 0, .BEHIND. ) ;
#169 = PRODUCT_DEFINITION_FORMATION_WITH_SPECIFIED_SOURCE ( 'ANY', '', #56, .NOT_KNOWN. ) ;
#170 = VECTOR ( 'NONE', #233, 39.37007874015748143 ) ;
#171 = ORIENTED_EDGE ( 'NONE', *, *, #70, .T. ) ;
#172 = CC_DESIGN_PERSON_AND_ORGANIZATION_ASSIGNMENT ( #200, #86, ( #203 ) ) ;
#173 = AXIS2_PLACEMENT_3D ( 'NONE', #213, #234, #129 ) ;
#174 = CARTESIAN_POINT ( 'NONE',  ( -23.93499999999999517, 0.1250000000000000000, -29.93500000000000227 ) ) ;
#175 = ADVANCED_FACE ( 'NONE', ( #160 ), #212, .T. ) ;
#176 = CARTESIAN_POINT ( 'NONE',  ( 23.93499999999999872, 0.1250000000000000000, -29.93500000000000227 ) ) ;
#177 = PLANE ( 'NONE',  #59 ) ;
#178 = CARTESIAN_POINT ( 'NONE',  ( 23.93499999999999872, 0.0000000000000000000, -29.93500000000000227 ) ) ;
#179 = CARTESIAN_POINT ( 'NONE',  ( 23.93499999999999872, 0.1250000000000000000, -29.93500000000000227 ) ) ;
#180 = VERTEX_POINT ( 'NONE', #44 ) ;
#181 = EDGE_CURVE ( 'NONE', #47, #15, #78, .T. ) ;
#182 = CALENDAR_DATE ( 2019, 13, 9 ) ;
#183 = CC_DESIGN_DATE_AND_TIME_ASSIGNMENT ( #79, #10, ( #116 ) ) ;
#184 = AXIS2_PLACEMENT_3D ( 'NONE', #131, #164, #237 ) ;
#185 = DATE_AND_TIME ( #219, #238 ) ;
#186 = AXIS2_PLACEMENT_3D ( 'NONE', #176, #6, #21 ) ;
#187 = ORIENTED_EDGE ( 'NONE', *, *, #57, .T. ) ;
#188 = APPROVAL_PERSON_ORGANIZATION ( #37, #207, #42 ) ;
#189 = FACE_OUTER_BOUND ( 'NONE', #210, .T. ) ;
#190 = VERTEX_POINT ( 'NONE', #162 ) ;
#191 = APPROVAL_STATUS ( 'not_yet_approved' ) ;
#192 = ORIENTED_EDGE ( 'NONE', *, *, #29, .F. ) ;
#193 =( NAMED_UNIT ( * ) PLANE_ANGLE_UNIT ( ) SI_UNIT ( $, .RADIAN. ) );
#194 = DIRECTION ( 'NONE',  ( -0.0000000000000000000, -1.000000000000000000, 0.0000000000000000000 ) ) ;
#195 = APPLICATION_PROTOCOL_DEFINITION ( 'international standard', 'config_control_design', 1994, #146 ) ;
#196 = DIRECTION ( 'NONE',  ( 1.000000000000000000, -0.0000000000000000000, 9.130889471198710580E-17 ) ) ;
#197 = ADVANCED_FACE ( 'NONE', ( #118 ), #111, .T. ) ;
#198 = VECTOR ( 'NONE', #107, 39.37007874015748143 ) ;
#199 = DIRECTION ( 'NONE',  ( -1.000000000000000000, 0.0000000000000000000, -1.460149253336500075E-16 ) ) ;
#200 = PERSON_AND_ORGANIZATION ( #53, #166 ) ;
#201 = FACE_OUTER_BOUND ( 'NONE', #83, .T. ) ;
#202 = LINE ( 'NONE', #66, #156 ) ;
#203 = PRODUCT_DEFINITION ( 'UNKNOWN', '', #169, #217 ) ;
#204 = ORIENTED_EDGE ( 'NONE', *, *, #12, .F. ) ;
#205 = VECTOR ( 'NONE', #231, 39.37007874015748143 ) ;
#206 = APPLICATION_CONTEXT ( 'configuration controlled 3d designs of mechanical parts and assemblies' ) ;
#207 = APPROVAL ( #230, 'UNSPECIFIED' ) ;
#208 = PERSON_AND_ORGANIZATION_ROLE ( 'creator' ) ;
#209 = APPROVAL_ROLE ( '' ) ;
#210 = EDGE_LOOP ( 'NONE', ( #171, #134, #226, #23 ) ) ;
#211 = PLANE ( 'NONE',  #173 ) ;
#212 = PLANE ( 'NONE',  #186 ) ;
#213 = CARTESIAN_POINT ( 'NONE',  ( -23.93499999999999872, 0.1250000000000000000, -29.93500000000000227 ) ) ;
#214 = DIRECTION ( 'NONE',  ( -9.130889471198710580E-17, 0.0000000000000000000, 1.000000000000000000 ) ) ;
#215 = EDGE_CURVE ( 'NONE', #52, #27, #202, .T. ) ;
#216 = SHAPE_DEFINITION_REPRESENTATION ( #73, #236 ) ;
#217 = DESIGN_CONTEXT ( 'detailed design', #206, 'design' ) ;
#218 = LINE ( 'NONE', #179, #18 ) ;
#219 = CALENDAR_DATE ( 2019, 13, 9 ) ;
#220 = CC_DESIGN_APPROVAL ( #13, ( #203 ) ) ;
#221 = LINE ( 'NONE', #94, #167 ) ;
#222 = LOCAL_TIME ( 14, 12, 2.000000000000000000, #119 ) ;
#223 = PRODUCT_RELATED_PRODUCT_CATEGORY ( 'detail', '', ( #56 ) ) ;
#224 = ORIENTED_EDGE ( 'NONE', *, *, #228, .T. ) ;
#225 = MANIFOLD_SOLID_BREP ( 'COM48811-1-solid1', #99 ) ;
#226 = ORIENTED_EDGE ( 'NONE', *, *, #228, .F. ) ;
#227 = CARTESIAN_POINT ( 'NONE',  ( 23.93499999999999872, 0.1250000000000000000, 29.93500000000000227 ) ) ;
#228 = EDGE_CURVE ( 'NONE', #39, #180, #61, .T. ) ;
#229 = CALENDAR_DATE ( 2019, 13, 9 ) ;
#230 = APPROVAL_STATUS ( 'not_yet_approved' ) ;
#231 = DIRECTION ( 'NONE',  ( 1.460149253336500075E-16, -0.0000000000000000000, -1.000000000000000000 ) ) ;
#232 = DATE_TIME_ROLE ( 'creation_date' ) ;
#233 = DIRECTION ( 'NONE',  ( 1.000000000000000000, 0.0000000000000000000, 0.0000000000000000000 ) ) ;
#234 = DIRECTION ( 'NONE',  ( 9.130889471198710580E-17, 0.0000000000000000000, -1.000000000000000000 ) ) ;
#235 = APPROVAL ( #92, 'UNSPECIFIED' ) ;
#236 = ADVANCED_BREP_SHAPE_REPRESENTATION ( '60FD14_Default', ( #225, #155 ), #121 ) ;
#237 = DIRECTION ( 'NONE',  ( 0.0000000000000000000, -0.0000000000000000000, -1.000000000000000000 ) ) ;
#238 = LOCAL_TIME ( 14, 12, 2.000000000000000000, #168 ) ;
#239 = LINE ( 'NONE', #113, #95 ) ;
#240 = DATE_AND_TIME ( #58, #222 ) ;
ENDSEC;
END-ISO-10303-21;
