ISO-10303-21;
HEADER;
FILE_DESCRIPTION (( 'STEP AP214' ),
    '1' );
FILE_NAME ('96000031.step',
    '2016-03-14T14:23:18',
    ( '' ),
    ( '' ),
    'SwSTEP 2.0',
    'SolidWorks 2015',
    '' );
FILE_SCHEMA (( 'AUTOMOTIVE_DESIGN' ));
ENDSEC;

DATA;
#1 = VECTOR ( 'NONE', #182, 39.37007874015748100 ) ;
#2 = AXIS2_PLACEMENT_3D ( 'NONE', #98, #151, #152 ) ;
#3 = LINE ( 'NONE', #218, #4 ) ;
#4 = VECTOR ( 'NONE', #173, 39.37007874015748100 ) ;
#5 = CARTESIAN_POINT ( 'NONE',  ( 0.0000000000000000000, 1.770000000000000000, 0.0000000000000000000 ) ) ;
#6 = CARTESIAN_POINT ( 'NONE',  ( 0.0000000000000000000, 1.770000000000000000, 0.0000000000000000000 ) ) ;
#7 = CARTESIAN_POINT ( 'NONE',  ( 0.0000000000000000000, 1.770000000000000000, 0.0000000000000000000 ) ) ;
#8 = DIRECTION ( 'NONE',  ( -0.0000000000000000000, -1.000000000000000000, -0.0000000000000000000 ) ) ;
#9 = AXIS2_PLACEMENT_3D ( 'NONE', #180, #177, #179 ) ;
#10 = AXIS2_PLACEMENT_3D ( 'NONE', #7, #100, #129 ) ;
#11 = SHAPE_DEFINITION_REPRESENTATION ( #93, #14 ) ;
#12 = AXIS2_PLACEMENT_3D ( 'NONE', #6, #147, #200 ) ;
#13 = COLOUR_RGB ( '',0.7960784313725489700, 0.8235294117647058400, 0.9372549019607843100 ) ;
#14 = ADVANCED_BREP_SHAPE_REPRESENTATION ( '96000031', ( #42, #112 ), #70 ) ;
#15 = AXIS2_PLACEMENT_3D ( 'NONE', #220, #219, #217 ) ;
#16 = SURFACE_STYLE_FILL_AREA ( #202 ) ;
#17 = PRESENTATION_STYLE_ASSIGNMENT (( #169 ) ) ;
#18 = AXIS2_PLACEMENT_3D ( 'NONE', #216, #194, #188 ) ;
#19 = STYLED_ITEM ( 'NONE', ( #17 ), #14 ) ;
#20 = PRODUCT_DEFINITION_CONTEXT ( 'detailed design', #161, 'design' ) ;
#21 = LENGTH_MEASURE_WITH_UNIT ( LENGTH_MEASURE( 0.02539999999999999900 ), #168 );
#22 = AXIS2_PLACEMENT_3D ( 'NONE', #187, #184, #185 ) ;
#23 = CARTESIAN_POINT ( 'NONE',  ( 0.0000000000000000000, 1.770000000000000000, -0.4350000000000000000 ) ) ;
#24 = VERTEX_POINT ( 'NONE', #195 ) ;
#25 = VERTEX_POINT ( 'NONE', #186 ) ;
#26 = CLOSED_SHELL ( 'NONE', ( #29, #33, #44, #43, #39, #30 ) ) ;
#27 = AXIS2_PLACEMENT_3D ( 'NONE', #136, #134, #135 ) ;
#28 = AXIS2_PLACEMENT_3D ( 'NONE', #193, #192, #126 ) ;
#29 = ADVANCED_FACE ( 'NONE', ( #50 ), #46, .F. ) ;
#30 = ADVANCED_FACE ( 'NONE', ( #167 ), #178, .F. ) ;
#31 = DIMENSIONAL_EXPONENTS ( 1.000000000000000000, 0.0000000000000000000, 0.0000000000000000000, 0.0000000000000000000, 0.0000000000000000000, 0.0000000000000000000, 0.0000000000000000000 ) ;
#32 = LENGTH_MEASURE_WITH_UNIT ( LENGTH_MEASURE( 0.02539999999999999900 ), #171 );
#33 = ADVANCED_FACE ( 'NONE', ( #48 ), #198, .T. ) ;
#34 = PRODUCT ( '96000031', '96000031', '', ( #160 ) ) ;
#35 = DIMENSIONAL_EXPONENTS ( 1.000000000000000000, 0.0000000000000000000, 0.0000000000000000000, 0.0000000000000000000, 0.0000000000000000000, 0.0000000000000000000, 0.0000000000000000000 ) ;
#36 = EDGE_CURVE ( 'NONE', #24, #65, #49, .T. ) ;
#37 = DIMENSIONAL_EXPONENTS ( 1.000000000000000000, 0.0000000000000000000, 0.0000000000000000000, 0.0000000000000000000, 0.0000000000000000000, 0.0000000000000000000, 0.0000000000000000000 ) ;
#38 = AXIS2_PLACEMENT_3D ( 'NONE', #5, #138, #110 ) ;
#39 = ADVANCED_FACE ( 'NONE', ( #45 ), #213, .T. ) ;
#40 = EDGE_CURVE ( 'NONE', #67, #24, #209, .T. ) ;
#41 = EDGE_CURVE ( 'NONE', #24, #67, #208, .T. ) ;
#42 = MANIFOLD_SOLID_BREP ( 'Boss-Extrude1', #26 ) ;
#43 = ADVANCED_FACE ( 'NONE', ( #197, #196 ), #146, .F. ) ;
#44 = ADVANCED_FACE ( 'NONE', ( #76, #99 ), #145, .T. ) ;
#45 = FACE_OUTER_BOUND ( 'NONE', #58, .T. ) ;
#46 = CYLINDRICAL_SURFACE ( 'NONE', #28, 0.4350000000000000000 ) ;
#47 = AXIS2_PLACEMENT_3D ( 'NONE', #102, #8, #101 ) ;
#48 = FACE_OUTER_BOUND ( 'NONE', #84, .T. ) ;
#49 = LINE ( 'NONE', #114, #51 ) ;
#50 = FACE_OUTER_BOUND ( 'NONE', #63, .T. ) ;
#51 = VECTOR ( 'NONE', #204, 39.37007874015748100 ) ;
#52 = EDGE_LOOP ( 'NONE', ( #141, #124 ) ) ;
#53 = DIRECTION ( 'NONE',  ( 0.0000000000000000000, 1.000000000000000000, 0.0000000000000000000 ) ) ;
#54 = ORIENTED_EDGE ( 'NONE', *, *, #59, .F. ) ;
#55 = ORIENTED_EDGE ( 'NONE', *, *, #156, .T. ) ;
#56 = MECHANICAL_DESIGN_GEOMETRIC_PRESENTATION_REPRESENTATION (  '', ( #68 ), #57 ) ;
#57 =( GEOMETRIC_REPRESENTATION_CONTEXT ( 3 ) GLOBAL_UNCERTAINTY_ASSIGNED_CONTEXT ( ( #150 ) ) GLOBAL_UNIT_ASSIGNED_CONTEXT ( ( #103, #86, #89 ) ) REPRESENTATION_CONTEXT ( 'NONE', 'WORKASPACE' ) );
#58 = EDGE_LOOP ( 'NONE', ( #72, #54, #55, #111 ) ) ;
#59 = EDGE_CURVE ( 'NONE', #61, #25, #75, .T. ) ;
#60 = VERTEX_POINT ( 'NONE', #139 ) ;
#61 = VERTEX_POINT ( 'NONE', #153 ) ;
#62 = EDGE_LOOP ( 'NONE', ( #118, #109, #105, #104 ) ) ;
#63 = EDGE_LOOP ( 'NONE', ( #92, #96, #95, #158 ) ) ;
#64 = EDGE_LOOP ( 'NONE', ( #74, #71 ) ) ;
#65 = VERTEX_POINT ( 'NONE', #140 ) ;
#66 = LINE ( 'NONE', #120, #189 ) ;
#67 = VERTEX_POINT ( 'NONE', #23 ) ;
#68 = STYLED_ITEM ( 'NONE', ( #107 ), #42 ) ;
#69 = PRODUCT_RELATED_PRODUCT_CATEGORY ( 'part', '', ( #34 ) ) ;
#70 =( GEOMETRIC_REPRESENTATION_CONTEXT ( 3 ) GLOBAL_UNCERTAINTY_ASSIGNED_CONTEXT ( ( #212 ) ) GLOBAL_UNIT_ASSIGNED_CONTEXT ( ( #172, #221, #211 ) ) REPRESENTATION_CONTEXT ( 'NONE', 'WORKASPACE' ) );
#71 = ORIENTED_EDGE ( 'NONE', *, *, #117, .T. ) ;
#72 = ORIENTED_EDGE ( 'NONE', *, *, #83, .F. ) ;
#73 = ORIENTED_EDGE ( 'NONE', *, *, #137, .F. ) ;
#74 = ORIENTED_EDGE ( 'NONE', *, *, #85, .T. ) ;
#75 = CIRCLE ( 'NONE', #10, 0.4899999999999999900 ) ;
#76 = FACE_OUTER_BOUND ( 'NONE', #82, .T. ) ;
#77 = PRODUCT_DEFINITION ( 'UNKNOWN', '', #80, #20 ) ;
#78 = PRESENTATION_LAYER_ASSIGNMENT (  '', '', ( #68 ) ) ;
#79 = EDGE_LOOP ( 'NONE', ( #125, #73 ) ) ;
#80 = PRODUCT_DEFINITION_FORMATION_WITH_SPECIFIED_SOURCE ( 'ANY', '', #34, .NOT_KNOWN. ) ;
#81 = CIRCLE ( 'NONE', #215, 0.4350000000000000000 ) ;
#82 = EDGE_LOOP ( 'NONE', ( #148, #132 ) ) ;
#83 = EDGE_CURVE ( 'NONE', #25, #149, #66, .T. ) ;
#84 = EDGE_LOOP ( 'NONE', ( #91, #155, #157, #143 ) ) ;
#85 = EDGE_CURVE ( 'NONE', #106, #65, #81, .T. ) ;
#86 =( NAMED_UNIT ( * ) PLANE_ANGLE_UNIT ( ) SI_UNIT ( $, .RADIAN. ) );
#87 = EDGE_CURVE ( 'NONE', #25, #61, #115, .T. ) ;
#88 = DIRECTION ( 'NONE',  ( -0.0000000000000000000, -1.000000000000000000, -0.0000000000000000000 ) ) ;
#89 =( NAMED_UNIT ( * ) SI_UNIT ( $, .STERADIAN. ) SOLID_ANGLE_UNIT ( ) );
#90 = DIRECTION ( 'NONE',  ( -0.0000000000000000000, -1.000000000000000000, -0.0000000000000000000 ) ) ;
#91 = ORIENTED_EDGE ( 'NONE', *, *, #87, .F. ) ;
#92 = ORIENTED_EDGE ( 'NONE', *, *, #40, .T. ) ;
#93 = PRODUCT_DEFINITION_SHAPE ( 'NONE', 'NONE',  #77 ) ;
#94 = CARTESIAN_POINT ( 'NONE',  ( 0.0000000000000000000, 1.770000000000000000, 0.0000000000000000000 ) ) ;
#95 = ORIENTED_EDGE ( 'NONE', *, *, #85, .F. ) ;
#96 = ORIENTED_EDGE ( 'NONE', *, *, #36, .T. ) ;
#97 = UNCERTAINTY_MEASURE_WITH_UNIT (LENGTH_MEASURE( 1.000000000000000100E-005 ), #165, 'distance_accuracy_value', 'NONE');
#98 = CARTESIAN_POINT ( 'NONE',  ( 0.0000000000000000000, 0.0000000000000000000, 0.0000000000000000000 ) ) ;
#99 = FACE_BOUND ( 'NONE', #52, .T. ) ;
#100 = DIRECTION ( 'NONE',  ( 0.0000000000000000000, 1.000000000000000000, 0.0000000000000000000 ) ) ;
#101 = DIRECTION ( 'NONE',  ( 0.0000000000000000000, 0.0000000000000000000, -1.000000000000000000 ) ) ;
#102 = CARTESIAN_POINT ( 'NONE',  ( 0.0000000000000000000, 1.770000000000000000, 0.0000000000000000000 ) ) ;
#103 =( CONVERSION_BASED_UNIT ( 'INCH', #133 ) LENGTH_UNIT ( ) NAMED_UNIT ( #35 ) );
#104 = ORIENTED_EDGE ( 'NONE', *, *, #117, .F. ) ;
#105 = ORIENTED_EDGE ( 'NONE', *, *, #144, .T. ) ;
#106 = VERTEX_POINT ( 'NONE', #223 ) ;
#107 = PRESENTATION_STYLE_ASSIGNMENT (( #123 ) ) ;
#108 = DIRECTION ( 'NONE',  ( 0.0000000000000000000, 0.0000000000000000000, -1.000000000000000000 ) ) ;
#109 = ORIENTED_EDGE ( 'NONE', *, *, #41, .T. ) ;
#110 = DIRECTION ( 'NONE',  ( 0.0000000000000000000, 0.0000000000000000000, 1.000000000000000000 ) ) ;
#111 = ORIENTED_EDGE ( 'NONE', *, *, #121, .T. ) ;
#112 = AXIS2_PLACEMENT_3D ( 'NONE', #175, #162, #166 ) ;
#113 = LINE ( 'NONE', #181, #1 ) ;
#114 = CARTESIAN_POINT ( 'NONE',  ( 5.327213576290986400E-017, 1.770000000000000000, 0.4350000000000000000 ) ) ;
#115 = CIRCLE ( 'NONE', #15, 0.4899999999999999900 ) ;
#116 =( LENGTH_UNIT ( ) NAMED_UNIT ( * ) SI_UNIT ( $, .METRE. ) );
#117 = EDGE_CURVE ( 'NONE', #65, #106, #154, .T. ) ;
#118 = ORIENTED_EDGE ( 'NONE', *, *, #36, .F. ) ;
#119 = SURFACE_SIDE_STYLE ('',( #207 ) ) ;
#120 = CARTESIAN_POINT ( 'NONE',  ( 6.000769315822029800E-017, 1.770000000000000000, 0.4899999999999999900 ) ) ;
#121 = EDGE_CURVE ( 'NONE', #60, #149, #122, .T. ) ;
#122 = CIRCLE ( 'NONE', #22, 0.4899999999999999900 ) ;
#123 = SURFACE_STYLE_USAGE ( .BOTH. , #119 ) ;
#124 = ORIENTED_EDGE ( 'NONE', *, *, #41, .F. ) ;
#125 = ORIENTED_EDGE ( 'NONE', *, *, #121, .F. ) ;
#126 = DIRECTION ( 'NONE',  ( 0.0000000000000000000, 0.0000000000000000000, -1.000000000000000000 ) ) ;
#127 = CARTESIAN_POINT ( 'NONE',  ( 0.0000000000000000000, 1.770000000000000000, 0.0000000000000000000 ) ) ;
#128 = DIRECTION ( 'NONE',  ( -0.0000000000000000000, -1.000000000000000000, -0.0000000000000000000 ) ) ;
#129 = DIRECTION ( 'NONE',  ( 0.0000000000000000000, 0.0000000000000000000, 1.000000000000000000 ) ) ;
#130 = FILL_AREA_STYLE ('',( #170 ) ) ;
#131 = CIRCLE ( 'NONE', #9, 0.4899999999999999900 ) ;
#132 = ORIENTED_EDGE ( 'NONE', *, *, #87, .T. ) ;
#133 = LENGTH_MEASURE_WITH_UNIT ( LENGTH_MEASURE( 0.02539999999999999900 ), #116 );
#134 = DIRECTION ( 'NONE',  ( 0.0000000000000000000, 1.000000000000000000, 0.0000000000000000000 ) ) ;
#135 = DIRECTION ( 'NONE',  ( 0.0000000000000000000, 0.0000000000000000000, 1.000000000000000000 ) ) ;
#136 = CARTESIAN_POINT ( 'NONE',  ( 0.0000000000000000000, 1.770000000000000000, 0.0000000000000000000 ) ) ;
#137 = EDGE_CURVE ( 'NONE', #149, #60, #131, .T. ) ;
#138 = DIRECTION ( 'NONE',  ( 0.0000000000000000000, 1.000000000000000000, 0.0000000000000000000 ) ) ;
#139 = CARTESIAN_POINT ( 'NONE',  ( 0.0000000000000000000, 0.0000000000000000000, -0.4899999999999999900 ) ) ;
#140 = CARTESIAN_POINT ( 'NONE',  ( 5.327213576290986400E-017, 0.0000000000000000000, 0.4350000000000000000 ) ) ;
#141 = ORIENTED_EDGE ( 'NONE', *, *, #40, .F. ) ;
#142 =( GEOMETRIC_REPRESENTATION_CONTEXT ( 3 ) GLOBAL_UNCERTAINTY_ASSIGNED_CONTEXT ( ( #97 ) ) GLOBAL_UNIT_ASSIGNED_CONTEXT ( ( #165, #164, #163 ) ) REPRESENTATION_CONTEXT ( 'NONE', 'WORKASPACE' ) );
#143 = ORIENTED_EDGE ( 'NONE', *, *, #156, .F. ) ;
#144 = EDGE_CURVE ( 'NONE', #67, #106, #113, .T. ) ;
#145 = PLANE ( 'NONE',  #12 ) ;
#146 = PLANE ( 'NONE',  #2 ) ;
#147 = DIRECTION ( 'NONE',  ( 0.0000000000000000000, 1.000000000000000000, 0.0000000000000000000 ) ) ;
#148 = ORIENTED_EDGE ( 'NONE', *, *, #59, .T. ) ;
#149 = VERTEX_POINT ( 'NONE', #176 ) ;
#150 = UNCERTAINTY_MEASURE_WITH_UNIT (LENGTH_MEASURE( 1.000000000000000100E-005 ), #103, 'distance_accuracy_value', 'NONE');
#151 = DIRECTION ( 'NONE',  ( 0.0000000000000000000, 1.000000000000000000, 0.0000000000000000000 ) ) ;
#152 = DIRECTION ( 'NONE',  ( 0.0000000000000000000, -0.0000000000000000000, 1.000000000000000000 ) ) ;
#153 = CARTESIAN_POINT ( 'NONE',  ( 0.0000000000000000000, 1.770000000000000000, -0.4899999999999999900 ) ) ;
#154 = CIRCLE ( 'NONE', #18, 0.4350000000000000000 ) ;
#155 = ORIENTED_EDGE ( 'NONE', *, *, #83, .T. ) ;
#156 = EDGE_CURVE ( 'NONE', #61, #60, #3, .T. ) ;
#157 = ORIENTED_EDGE ( 'NONE', *, *, #137, .T. ) ;
#158 = ORIENTED_EDGE ( 'NONE', *, *, #144, .F. ) ;
#159 = APPLICATION_PROTOCOL_DEFINITION ( 'draft international standard', 'automotive_design', 1998, #161 ) ;
#160 = PRODUCT_CONTEXT ( 'NONE', #203, 'mechanical' ) ;
#161 = APPLICATION_CONTEXT ( 'automotive_design' ) ;
#162 = DIRECTION ( 'NONE',  ( 0.0000000000000000000, 0.0000000000000000000, 1.000000000000000000 ) ) ;
#163 =( NAMED_UNIT ( * ) SI_UNIT ( $, .STERADIAN. ) SOLID_ANGLE_UNIT ( ) );
#164 =( NAMED_UNIT ( * ) PLANE_ANGLE_UNIT ( ) SI_UNIT ( $, .RADIAN. ) );
#165 =( CONVERSION_BASED_UNIT ( 'INCH', #21 ) LENGTH_UNIT ( ) NAMED_UNIT ( #37 ) );
#166 = DIRECTION ( 'NONE',  ( 1.000000000000000000, 0.0000000000000000000, 0.0000000000000000000 ) ) ;
#167 = FACE_OUTER_BOUND ( 'NONE', #62, .T. ) ;
#168 =( LENGTH_UNIT ( ) NAMED_UNIT ( * ) SI_UNIT ( $, .METRE. ) );
#169 = SURFACE_STYLE_USAGE ( .BOTH. , #199 ) ;
#170 = FILL_AREA_STYLE_COLOUR ( '', #191 ) ;
#171 =( LENGTH_UNIT ( ) NAMED_UNIT ( * ) SI_UNIT ( $, .METRE. ) );
#172 =( CONVERSION_BASED_UNIT ( 'INCH', #32 ) LENGTH_UNIT ( ) NAMED_UNIT ( #31 ) );
#173 = DIRECTION ( 'NONE',  ( -0.0000000000000000000, -1.000000000000000000, -0.0000000000000000000 ) ) ;
#174 = FILL_AREA_STYLE_COLOUR ( '', #13 ) ;
#175 = CARTESIAN_POINT ( 'NONE',  ( 0.0000000000000000000, 0.0000000000000000000, 0.0000000000000000000 ) ) ;
#176 = CARTESIAN_POINT ( 'NONE',  ( 6.000769315822029800E-017, 0.0000000000000000000, 0.4899999999999999900 ) ) ;
#177 = DIRECTION ( 'NONE',  ( 0.0000000000000000000, 1.000000000000000000, 0.0000000000000000000 ) ) ;
#178 = CYLINDRICAL_SURFACE ( 'NONE', #183, 0.4350000000000000000 ) ;
#179 = DIRECTION ( 'NONE',  ( 0.0000000000000000000, 0.0000000000000000000, 1.000000000000000000 ) ) ;
#180 = CARTESIAN_POINT ( 'NONE',  ( 0.0000000000000000000, 0.0000000000000000000, 0.0000000000000000000 ) ) ;
#181 = CARTESIAN_POINT ( 'NONE',  ( 0.0000000000000000000, 1.770000000000000000, -0.4350000000000000000 ) ) ;
#182 = DIRECTION ( 'NONE',  ( -0.0000000000000000000, -1.000000000000000000, -0.0000000000000000000 ) ) ;
#183 = AXIS2_PLACEMENT_3D ( 'NONE', #127, #128, #210 ) ;
#184 = DIRECTION ( 'NONE',  ( 0.0000000000000000000, 1.000000000000000000, 0.0000000000000000000 ) ) ;
#185 = DIRECTION ( 'NONE',  ( 0.0000000000000000000, 0.0000000000000000000, 1.000000000000000000 ) ) ;
#186 = CARTESIAN_POINT ( 'NONE',  ( 6.000769315822029800E-017, 1.770000000000000000, 0.4899999999999999900 ) ) ;
#187 = CARTESIAN_POINT ( 'NONE',  ( 0.0000000000000000000, 0.0000000000000000000, 0.0000000000000000000 ) ) ;
#188 = DIRECTION ( 'NONE',  ( 0.0000000000000000000, 0.0000000000000000000, 1.000000000000000000 ) ) ;
#189 = VECTOR ( 'NONE', #88, 39.37007874015748100 ) ;
#190 = AXIS2_PLACEMENT_3D ( 'NONE', #94, #90, #108 ) ;
#191 = COLOUR_RGB ( '',0.7960784313725489700, 0.8235294117647058400, 0.9372549019607843100 ) ;
#192 = DIRECTION ( 'NONE',  ( -0.0000000000000000000, -1.000000000000000000, -0.0000000000000000000 ) ) ;
#193 = CARTESIAN_POINT ( 'NONE',  ( 0.0000000000000000000, 1.770000000000000000, 0.0000000000000000000 ) ) ;
#194 = DIRECTION ( 'NONE',  ( 0.0000000000000000000, 1.000000000000000000, 0.0000000000000000000 ) ) ;
#195 = CARTESIAN_POINT ( 'NONE',  ( 5.327213576290986400E-017, 1.770000000000000000, 0.4350000000000000000 ) ) ;
#196 = FACE_BOUND ( 'NONE', #64, .T. ) ;
#197 = FACE_OUTER_BOUND ( 'NONE', #79, .T. ) ;
#198 = CYLINDRICAL_SURFACE ( 'NONE', #190, 0.4899999999999999900 ) ;
#199 = SURFACE_SIDE_STYLE ('',( #16 ) ) ;
#200 = DIRECTION ( 'NONE',  ( 0.0000000000000000000, -0.0000000000000000000, 1.000000000000000000 ) ) ;
#201 = MECHANICAL_DESIGN_GEOMETRIC_PRESENTATION_REPRESENTATION (  '', ( #19 ), #142 ) ;
#202 = FILL_AREA_STYLE ('',( #174 ) ) ;
#203 = APPLICATION_CONTEXT ( 'automotive_design' ) ;
#204 = DIRECTION ( 'NONE',  ( -0.0000000000000000000, -1.000000000000000000, -0.0000000000000000000 ) ) ;
#205 = CARTESIAN_POINT ( 'NONE',  ( 0.0000000000000000000, 0.0000000000000000000, 0.0000000000000000000 ) ) ;
#206 = APPLICATION_PROTOCOL_DEFINITION ( 'draft international standard', 'automotive_design', 1998, #203 ) ;
#207 = SURFACE_STYLE_FILL_AREA ( #130 ) ;
#208 = CIRCLE ( 'NONE', #27, 0.4350000000000000000 ) ;
#209 = CIRCLE ( 'NONE', #38, 0.4350000000000000000 ) ;
#210 = DIRECTION ( 'NONE',  ( 0.0000000000000000000, 0.0000000000000000000, -1.000000000000000000 ) ) ;
#211 =( NAMED_UNIT ( * ) SI_UNIT ( $, .STERADIAN. ) SOLID_ANGLE_UNIT ( ) );
#212 = UNCERTAINTY_MEASURE_WITH_UNIT (LENGTH_MEASURE( 1.000000000000000100E-005 ), #172, 'distance_accuracy_value', 'NONE');
#213 = CYLINDRICAL_SURFACE ( 'NONE', #47, 0.4899999999999999900 ) ;
#214 = PRESENTATION_LAYER_ASSIGNMENT (  '', '', ( #19 ) ) ;
#215 = AXIS2_PLACEMENT_3D ( 'NONE', #205, #53, #222 ) ;
#216 = CARTESIAN_POINT ( 'NONE',  ( 0.0000000000000000000, 0.0000000000000000000, 0.0000000000000000000 ) ) ;
#217 = DIRECTION ( 'NONE',  ( 0.0000000000000000000, 0.0000000000000000000, 1.000000000000000000 ) ) ;
#218 = CARTESIAN_POINT ( 'NONE',  ( 0.0000000000000000000, 1.770000000000000000, -0.4899999999999999900 ) ) ;
#219 = DIRECTION ( 'NONE',  ( 0.0000000000000000000, 1.000000000000000000, 0.0000000000000000000 ) ) ;
#220 = CARTESIAN_POINT ( 'NONE',  ( 0.0000000000000000000, 1.770000000000000000, 0.0000000000000000000 ) ) ;
#221 =( NAMED_UNIT ( * ) PLANE_ANGLE_UNIT ( ) SI_UNIT ( $, .RADIAN. ) );
#222 = DIRECTION ( 'NONE',  ( 0.0000000000000000000, 0.0000000000000000000, 1.000000000000000000 ) ) ;
#223 = CARTESIAN_POINT ( 'NONE',  ( 0.0000000000000000000, 0.0000000000000000000, -0.4350000000000000000 ) ) ;
ENDSEC;
END-ISO-10303-21;
