ISO-10303-21;
HEADER;
FILE_DESCRIPTION (( 'STEP AP214' ),
    '1' );
FILE_NAME ('97584040.step',
    '2016-03-14T14:23:49',
    ( '' ),
    ( '' ),
    'SwSTEP 2.0',
    'SolidWorks 2015',
    '' );
FILE_SCHEMA (( 'AUTOMOTIVE_DESIGN' ));
ENDSEC;

DATA;
#1 = EDGE_CURVE ( 'NONE', #139, #66, #159, .T. ) ;
#2 = MECHANICAL_DESIGN_GEOMETRIC_PRESENTATION_REPRESENTATION (  '', ( #142 ), #154 ) ;
#3 = SURFACE_STYLE_FILL_AREA ( #175 ) ;
#4 = AXIS2_PLACEMENT_3D ( 'NONE', #287, #289, #284 ) ;
#5 = EDGE_CURVE ( 'NONE', #83, #253, #38, .T. ) ;
#6 = LENGTH_MEASURE_WITH_UNIT ( LENGTH_MEASURE( 0.02539999999999999900 ), #157 );
#7 =( GEOMETRIC_REPRESENTATION_CONTEXT ( 3 ) GLOBAL_UNCERTAINTY_ASSIGNED_CONTEXT ( ( #303 ) ) GLOBAL_UNIT_ASSIGNED_CONTEXT ( ( #315, #317, #318 ) ) REPRESENTATION_CONTEXT ( 'NONE', 'WORKASPACE' ) );
#8 = MECHANICAL_DESIGN_GEOMETRIC_PRESENTATION_REPRESENTATION (  '', ( #208 ), #120 ) ;
#9 = EDGE_CURVE ( 'NONE', #11, #74, #104, .T. ) ;
#10 = MANIFOLD_SOLID_BREP ( 'Boss-Extrude1', #112 ) ;
#11 = VERTEX_POINT ( 'NONE', #251 ) ;
#12 = FACE_BOUND ( 'NONE', #301, .T. ) ;
#13 = DIMENSIONAL_EXPONENTS ( 1.000000000000000000, 0.0000000000000000000, 0.0000000000000000000, 0.0000000000000000000, 0.0000000000000000000, 0.0000000000000000000, 0.0000000000000000000 ) ;
#14 = PRESENTATION_LAYER_ASSIGNMENT (  '', '', ( #32 ) ) ;
#15 = FACE_OUTER_BOUND ( 'NONE', #270, .T. ) ;
#16 = PRESENTATION_LAYER_ASSIGNMENT (  '', '', ( #204 ) ) ;
#17 = MECHANICAL_DESIGN_GEOMETRIC_PRESENTATION_REPRESENTATION (  '', ( #32 ), #53 ) ;
#18 = CIRCLE ( 'NONE', #4, 0.4899999999999999900 ) ;
#19 = ORIENTED_EDGE ( 'NONE', *, *, #111, .F. ) ;
#20 = EDGE_LOOP ( 'NONE', ( #122, #69, #240, #109 ) ) ;
#21 = ORIENTED_EDGE ( 'NONE', *, *, #113, .F. ) ;
#22 = ADVANCED_FACE ( 'NONE', ( #181 ), #201, .T. ) ;
#23 = ORIENTED_EDGE ( 'NONE', *, *, #61, .T. ) ;
#24 = ADVANCED_BREP_SHAPE_REPRESENTATION ( '97584040', ( #10, #43 ), #320 ) ;
#25 = ORIENTED_EDGE ( 'NONE', *, *, #1, .T. ) ;
#26 = EDGE_CURVE ( 'NONE', #85, #169, #76, .T. ) ;
#27 = AXIS2_PLACEMENT_3D ( 'NONE', #295, #299, #296 ) ;
#28 = AXIS2_PLACEMENT_3D ( 'NONE', #220, #245, #331 ) ;
#29 = FILL_AREA_STYLE_COLOUR ( '', #102 ) ;
#30 = SURFACE_STYLE_USAGE ( .BOTH. , #47 ) ;
#31 = ORIENTED_EDGE ( 'NONE', *, *, #54, .F. ) ;
#32 = STYLED_ITEM ( 'NONE', ( #105 ), #24 ) ;
#33 = ADVANCED_FACE ( 'NONE', ( #89, #12 ), #124, .T. ) ;
#34 = ORIENTED_EDGE ( 'NONE', *, *, #111, .T. ) ;
#35 =( NAMED_UNIT ( * ) PLANE_ANGLE_UNIT ( ) SI_UNIT ( $, .RADIAN. ) );
#36 = AXIS2_PLACEMENT_3D ( 'NONE', #327, #174, #155 ) ;
#37 = FILL_AREA_STYLE ('',( #191 ) ) ;
#38 = LINE ( 'NONE', #190, #135 ) ;
#39 = PRODUCT ( '97584040', '97584040', '', ( #262 ) ) ;
#40 = AXIS2_PLACEMENT_3D ( 'NONE', #203, #218, #221 ) ;
#41 = EDGE_LOOP ( 'NONE', ( #125, #31 ) ) ;
#42 = CIRCLE ( 'NONE', #166, 0.3750000000000000600 ) ;
#43 = AXIS2_PLACEMENT_3D ( 'NONE', #268, #266, #267 ) ;
#44 =( NAMED_UNIT ( * ) PLANE_ANGLE_UNIT ( ) SI_UNIT ( $, .RADIAN. ) );
#45 = PRODUCT_RELATED_PRODUCT_CATEGORY ( 'part', '', ( #39 ) ) ;
#46 = CIRCLE ( 'NONE', #27, 0.3750000000000000600 ) ;
#47 = SURFACE_SIDE_STYLE ('',( #271 ) ) ;
#48 =( CONVERSION_BASED_UNIT ( 'INCH', #329 ) LENGTH_UNIT ( ) NAMED_UNIT ( #80 ) );
#49 = CYLINDRICAL_SURFACE ( 'NONE', #59, 0.3750000000000000600 ) ;
#50 = EDGE_CURVE ( 'NONE', #66, #74, #172, .T. ) ;
#51 = CARTESIAN_POINT ( 'NONE',  ( 0.4899999999999999900, 6.000769315822029800E-017, 7.870000000000000100 ) ) ;
#52 = PRESENTATION_LAYER_ASSIGNMENT (  '', '', ( #142 ) ) ;
#53 =( GEOMETRIC_REPRESENTATION_CONTEXT ( 3 ) GLOBAL_UNCERTAINTY_ASSIGNED_CONTEXT ( ( #148 ) ) GLOBAL_UNIT_ASSIGNED_CONTEXT ( ( #276, #273, #274 ) ) REPRESENTATION_CONTEXT ( 'NONE', 'WORKASPACE' ) );
#54 = EDGE_CURVE ( 'NONE', #169, #253, #171, .T. ) ;
#55 = AXIS2_PLACEMENT_3D ( 'NONE', #176, #238, #70 ) ;
#56 = CIRCLE ( 'NONE', #88, 0.4899999999999999900 ) ;
#57 = UNCERTAINTY_MEASURE_WITH_UNIT (LENGTH_MEASURE( 1.000000000000000100E-005 ), #283, 'distance_accuracy_value', 'NONE');
#58 = STYLED_ITEM ( 'NONE', ( #118 ), #98 ) ;
#59 = AXIS2_PLACEMENT_3D ( 'NONE', #330, #321, #316 ) ;
#60 = LENGTH_MEASURE_WITH_UNIT ( LENGTH_MEASURE( 0.02539999999999999900 ), #319 );
#61 = EDGE_CURVE ( 'NONE', #85, #83, #168, .T. ) ;
#62 = SHAPE_DEFINITION_REPRESENTATION ( #92, #24 ) ;
#63 = STYLED_ITEM ( 'NONE', ( #214 ), #10 ) ;
#64 = DIRECTION ( 'NONE',  ( -0.0000000000000000000, -0.0000000000000000000, -1.000000000000000000 ) ) ;
#65 = AXIS2_PLACEMENT_3D ( 'NONE', #307, #300, #306 ) ;
#66 = VERTEX_POINT ( 'NONE', #126 ) ;
#67 = SURFACE_SIDE_STYLE ('',( #197 ) ) ;
#68 = PRODUCT_DEFINITION_FORMATION_WITH_SPECIFIED_SOURCE ( 'ANY', '', #39, .NOT_KNOWN. ) ;
#69 = ORIENTED_EDGE ( 'NONE', *, *, #114, .F. ) ;
#70 = DIRECTION ( 'NONE',  ( 1.000000000000000000, 0.0000000000000000000, -0.0000000000000000000 ) ) ;
#71 = CARTESIAN_POINT ( 'NONE',  ( 0.3750000000000000600, 4.592425496802575500E-017, -7.870000000000000100 ) ) ;
#72 =( NAMED_UNIT ( * ) SI_UNIT ( $, .STERADIAN. ) SOLID_ANGLE_UNIT ( ) );
#73 = EDGE_LOOP ( 'NONE', ( #147, #141, #165, #149 ) ) ;
#74 = VERTEX_POINT ( 'NONE', #71 ) ;
#75 = VECTOR ( 'NONE', #263, 39.37007874015748100 ) ;
#76 = LINE ( 'NONE', #261, #75 ) ;
#77 =( GEOMETRIC_REPRESENTATION_CONTEXT ( 3 ) GLOBAL_UNCERTAINTY_ASSIGNED_CONTEXT ( ( #119 ) ) GLOBAL_UNIT_ASSIGNED_CONTEXT ( ( #145, #242, #72 ) ) REPRESENTATION_CONTEXT ( 'NONE', 'WORKASPACE' ) );
#78 = AXIS2_PLACEMENT_3D ( 'NONE', #231, #152, #188 ) ;
#79 =( LENGTH_UNIT ( ) NAMED_UNIT ( * ) SI_UNIT ( $, .METRE. ) );
#80 = DIMENSIONAL_EXPONENTS ( 1.000000000000000000, 0.0000000000000000000, 0.0000000000000000000, 0.0000000000000000000, 0.0000000000000000000, 0.0000000000000000000, 0.0000000000000000000 ) ;
#81 = CARTESIAN_POINT ( 'NONE',  ( 0.0000000000000000000, 0.0000000000000000000, 7.870000000000000100 ) ) ;
#82 = DIMENSIONAL_EXPONENTS ( 1.000000000000000000, 0.0000000000000000000, 0.0000000000000000000, 0.0000000000000000000, 0.0000000000000000000, 0.0000000000000000000, 0.0000000000000000000 ) ;
#83 = VERTEX_POINT ( 'NONE', #314 ) ;
#84 = EDGE_LOOP ( 'NONE', ( #258, #34, #25, #100 ) ) ;
#85 = VERTEX_POINT ( 'NONE', #51 ) ;
#86 = DIMENSIONAL_EXPONENTS ( 1.000000000000000000, 0.0000000000000000000, 0.0000000000000000000, 0.0000000000000000000, 0.0000000000000000000, 0.0000000000000000000, 0.0000000000000000000 ) ;
#87 = DIMENSIONAL_EXPONENTS ( 1.000000000000000000, 0.0000000000000000000, 0.0000000000000000000, 0.0000000000000000000, 0.0000000000000000000, 0.0000000000000000000, 0.0000000000000000000 ) ;
#88 = AXIS2_PLACEMENT_3D ( 'NONE', #297, #292, #294 ) ;
#89 = FACE_OUTER_BOUND ( 'NONE', #232, .T. ) ;
#90 = ORIENTED_EDGE ( 'NONE', *, *, #9, .T. ) ;
#91 = DIMENSIONAL_EXPONENTS ( 1.000000000000000000, 0.0000000000000000000, 0.0000000000000000000, 0.0000000000000000000, 0.0000000000000000000, 0.0000000000000000000, 0.0000000000000000000 ) ;
#92 = PRODUCT_DEFINITION_SHAPE ( 'NONE', 'NONE',  #199 ) ;
#93 = DIMENSIONAL_EXPONENTS ( 1.000000000000000000, 0.0000000000000000000, 0.0000000000000000000, 0.0000000000000000000, 0.0000000000000000000, 0.0000000000000000000, 0.0000000000000000000 ) ;
#94 = DIMENSIONAL_EXPONENTS ( 1.000000000000000000, 0.0000000000000000000, 0.0000000000000000000, 0.0000000000000000000, 0.0000000000000000000, 0.0000000000000000000, 0.0000000000000000000 ) ;
#95 = ADVANCED_FACE ( 'NONE', ( #189, #173 ), #246, .F. ) ;
#96 = ADVANCED_FACE ( 'NONE', ( #217 ), #272, .F. ) ;
#97 = ADVANCED_FACE ( 'NONE', ( #260 ), #254, .T. ) ;
#98 = ADVANCED_FACE ( 'NONE', ( #15 ), #49, .F. ) ;
#99 = ORIENTED_EDGE ( 'NONE', *, *, #50, .F. ) ;
#100 = ORIENTED_EDGE ( 'NONE', *, *, #101, .F. ) ;
#101 = EDGE_CURVE ( 'NONE', #74, #66, #42, .T. ) ;
#102 = COLOUR_RGB ( '',0.5019607843137254800, 0.5019607843137254800, 0.5019607843137254800 ) ;
#103 =( CONVERSION_BASED_UNIT ( 'INCH', #133 ) LENGTH_UNIT ( ) NAMED_UNIT ( #91 ) );
#104 = LINE ( 'NONE', #137, #194 ) ;
#105 = PRESENTATION_STYLE_ASSIGNMENT (( #278 ) ) ;
#106 = ORIENTED_EDGE ( 'NONE', *, *, #101, .T. ) ;
#107 = AXIS2_PLACEMENT_3D ( 'NONE', #81, #183, #211 ) ;
#108 = ORIENTED_EDGE ( 'NONE', *, *, #50, .T. ) ;
#109 = ORIENTED_EDGE ( 'NONE', *, *, #226, .T. ) ;
#110 = AXIS2_PLACEMENT_3D ( 'NONE', #216, #229, #150 ) ;
#111 = EDGE_CURVE ( 'NONE', #11, #139, #161, .T. ) ;
#112 = CLOSED_SHELL ( 'NONE', ( #98, #22, #33, #95, #97, #96 ) ) ;
#113 = EDGE_CURVE ( 'NONE', #139, #11, #46, .T. ) ;
#114 = EDGE_CURVE ( 'NONE', #83, #85, #56, .T. ) ;
#115 = SURFACE_SIDE_STYLE ('',( #177 ) ) ;
#116 = PRESENTATION_STYLE_ASSIGNMENT (( #234 ) ) ;
#117 = MECHANICAL_DESIGN_GEOMETRIC_PRESENTATION_REPRESENTATION (  '', ( #204 ), #77 ) ;
#118 = PRESENTATION_STYLE_ASSIGNMENT (( #326 ) ) ;
#119 = UNCERTAINTY_MEASURE_WITH_UNIT (LENGTH_MEASURE( 1.000000000000000100E-005 ), #145, 'distance_accuracy_value', 'NONE');
#120 =( GEOMETRIC_REPRESENTATION_CONTEXT ( 3 ) GLOBAL_UNCERTAINTY_ASSIGNED_CONTEXT ( ( #233 ) ) GLOBAL_UNIT_ASSIGNED_CONTEXT ( ( #48, #35, #325 ) ) REPRESENTATION_CONTEXT ( 'NONE', 'WORKASPACE' ) );
#121 = LENGTH_MEASURE_WITH_UNIT ( LENGTH_MEASURE( 0.02539999999999999900 ), #275 );
#122 = ORIENTED_EDGE ( 'NONE', *, *, #26, .F. ) ;
#123 =( GEOMETRIC_REPRESENTATION_CONTEXT ( 3 ) GLOBAL_UNCERTAINTY_ASSIGNED_CONTEXT ( ( #285 ) ) GLOBAL_UNIT_ASSIGNED_CONTEXT ( ( #103, #225, #215 ) ) REPRESENTATION_CONTEXT ( 'NONE', 'WORKASPACE' ) );
#124 = PLANE ( 'NONE',  #110 ) ;
#125 = ORIENTED_EDGE ( 'NONE', *, *, #226, .F. ) ;
#126 = CARTESIAN_POINT ( 'NONE',  ( -0.3750000000000000600, 0.0000000000000000000, -7.870000000000000100 ) ) ;
#127 = SURFACE_SIDE_STYLE ('',( #3 ) ) ;
#128 =( LENGTH_UNIT ( ) NAMED_UNIT ( * ) SI_UNIT ( $, .METRE. ) );
#129 = MECHANICAL_DESIGN_GEOMETRIC_PRESENTATION_REPRESENTATION (  '', ( #291 ), #123 ) ;
#130 = LENGTH_MEASURE_WITH_UNIT ( LENGTH_MEASURE( 0.02539999999999999900 ), #290 );
#131 = DIRECTION ( 'NONE',  ( -0.0000000000000000000, -0.0000000000000000000, -1.000000000000000000 ) ) ;
#132 = COLOUR_RGB ( '',0.7960784313725489700, 0.8235294117647058400, 0.9372549019607843100 ) ;
#133 = LENGTH_MEASURE_WITH_UNIT ( LENGTH_MEASURE( 0.02539999999999999900 ), #200 );
#134 =( GEOMETRIC_REPRESENTATION_CONTEXT ( 3 ) GLOBAL_UNCERTAINTY_ASSIGNED_CONTEXT ( ( #205 ) ) GLOBAL_UNIT_ASSIGNED_CONTEXT ( ( #170, #209, #213 ) ) REPRESENTATION_CONTEXT ( 'NONE', 'WORKASPACE' ) );
#135 = VECTOR ( 'NONE', #136, 39.37007874015748100 ) ;
#136 = DIRECTION ( 'NONE',  ( -0.0000000000000000000, -0.0000000000000000000, -1.000000000000000000 ) ) ;
#137 = CARTESIAN_POINT ( 'NONE',  ( 0.3750000000000000600, 4.592425496802575500E-017, 7.870000000000000100 ) ) ;
#138 =( LENGTH_UNIT ( ) NAMED_UNIT ( * ) SI_UNIT ( $, .METRE. ) );
#139 = VERTEX_POINT ( 'NONE', #302 ) ;
#140 = ORIENTED_EDGE ( 'NONE', *, *, #113, .T. ) ;
#141 = ORIENTED_EDGE ( 'NONE', *, *, #26, .T. ) ;
#142 = STYLED_ITEM ( 'NONE', ( #116 ), #33 ) ;
#143 = ORIENTED_EDGE ( 'NONE', *, *, #114, .T. ) ;
#144 = DIRECTION ( 'NONE',  ( -0.0000000000000000000, -0.0000000000000000000, -1.000000000000000000 ) ) ;
#145 =( CONVERSION_BASED_UNIT ( 'INCH', #196 ) LENGTH_UNIT ( ) NAMED_UNIT ( #86 ) );
#146 = MECHANICAL_DESIGN_GEOMETRIC_PRESENTATION_REPRESENTATION (  '', ( #58 ), #7 ) ;
#147 = ORIENTED_EDGE ( 'NONE', *, *, #61, .F. ) ;
#148 = UNCERTAINTY_MEASURE_WITH_UNIT (LENGTH_MEASURE( 1.000000000000000100E-005 ), #276, 'distance_accuracy_value', 'NONE');
#149 = ORIENTED_EDGE ( 'NONE', *, *, #5, .F. ) ;
#150 = DIRECTION ( 'NONE',  ( 1.000000000000000000, 0.0000000000000000000, -0.0000000000000000000 ) ) ;
#151 = FILL_AREA_STYLE ('',( #236 ) ) ;
#152 = DIRECTION ( 'NONE',  ( 0.0000000000000000000, 0.0000000000000000000, 1.000000000000000000 ) ) ;
#153 =( NAMED_UNIT ( * ) PLANE_ANGLE_UNIT ( ) SI_UNIT ( $, .RADIAN. ) );
#154 =( GEOMETRIC_REPRESENTATION_CONTEXT ( 3 ) GLOBAL_UNCERTAINTY_ASSIGNED_CONTEXT ( ( #250 ) ) GLOBAL_UNIT_ASSIGNED_CONTEXT ( ( #182, #44, #224 ) ) REPRESENTATION_CONTEXT ( 'NONE', 'WORKASPACE' ) );
#155 = DIRECTION ( 'NONE',  ( 1.000000000000000000, 0.0000000000000000000, 0.0000000000000000000 ) ) ;
#156 = SURFACE_STYLE_USAGE ( .BOTH. , #115 ) ;
#157 =( LENGTH_UNIT ( ) NAMED_UNIT ( * ) SI_UNIT ( $, .METRE. ) );
#158 = SURFACE_STYLE_USAGE ( .BOTH. , #67 ) ;
#159 = LINE ( 'NONE', #310, #210 ) ;
#160 = ORIENTED_EDGE ( 'NONE', *, *, #1, .F. ) ;
#161 = CIRCLE ( 'NONE', #65, 0.3750000000000000600 ) ;
#162 = STYLED_ITEM ( 'NONE', ( #222 ), #96 ) ;
#163 =( NAMED_UNIT ( * ) SI_UNIT ( $, .STERADIAN. ) SOLID_ANGLE_UNIT ( ) );
#164 = PRESENTATION_LAYER_ASSIGNMENT (  '', '', ( #58 ) ) ;
#165 = ORIENTED_EDGE ( 'NONE', *, *, #54, .T. ) ;
#166 = AXIS2_PLACEMENT_3D ( 'NONE', #311, #313, #309 ) ;
#167 = SURFACE_STYLE_FILL_AREA ( #280 ) ;
#168 = CIRCLE ( 'NONE', #107, 0.4899999999999999900 ) ;
#169 = VERTEX_POINT ( 'NONE', #293 ) ;
#170 =( CONVERSION_BASED_UNIT ( 'INCH', #241 ) LENGTH_UNIT ( ) NAMED_UNIT ( #13 ) );
#171 = CIRCLE ( 'NONE', #78, 0.4899999999999999900 ) ;
#172 = CIRCLE ( 'NONE', #36, 0.3750000000000000600 ) ;
#173 = FACE_BOUND ( 'NONE', #248, .T. ) ;
#174 = DIRECTION ( 'NONE',  ( 0.0000000000000000000, 0.0000000000000000000, 1.000000000000000000 ) ) ;
#175 = FILL_AREA_STYLE ('',( #255 ) ) ;
#176 = CARTESIAN_POINT ( 'NONE',  ( 0.0000000000000000000, 0.0000000000000000000, -7.870000000000000100 ) ) ;
#177 = SURFACE_STYLE_FILL_AREA ( #244 ) ;
#178 = DIMENSIONAL_EXPONENTS ( 1.000000000000000000, 0.0000000000000000000, 0.0000000000000000000, 0.0000000000000000000, 0.0000000000000000000, 0.0000000000000000000, 0.0000000000000000000 ) ;
#179 = PRESENTATION_STYLE_ASSIGNMENT (( #156 ) ) ;
#180 = COLOUR_RGB ( '',0.5019607843137254800, 0.5019607843137254800, 0.5019607843137254800 ) ;
#181 = FACE_OUTER_BOUND ( 'NONE', #73, .T. ) ;
#182 =( CONVERSION_BASED_UNIT ( 'INCH', #305 ) LENGTH_UNIT ( ) NAMED_UNIT ( #87 ) );
#183 = DIRECTION ( 'NONE',  ( 0.0000000000000000000, 0.0000000000000000000, 1.000000000000000000 ) ) ;
#184 =( GEOMETRIC_REPRESENTATION_CONTEXT ( 3 ) GLOBAL_UNCERTAINTY_ASSIGNED_CONTEXT ( ( #247 ) ) GLOBAL_UNIT_ASSIGNED_CONTEXT ( ( #249, #153, #163 ) ) REPRESENTATION_CONTEXT ( 'NONE', 'WORKASPACE' ) );
#185 = SURFACE_STYLE_USAGE ( .BOTH. , #127 ) ;
#186 = CARTESIAN_POINT ( 'NONE',  ( 0.0000000000000000000, 0.0000000000000000000, 7.870000000000000100 ) ) ;
#187 = COLOUR_RGB ( '',0.7960784313725489700, 0.8235294117647058400, 0.9372549019607843100 ) ;
#188 = DIRECTION ( 'NONE',  ( 1.000000000000000000, 0.0000000000000000000, 0.0000000000000000000 ) ) ;
#189 = FACE_OUTER_BOUND ( 'NONE', #41, .T. ) ;
#190 = CARTESIAN_POINT ( 'NONE',  ( -0.4899999999999999900, 0.0000000000000000000, 7.870000000000000100 ) ) ;
#191 = FILL_AREA_STYLE_COLOUR ( '', #187 ) ;
#192 = SURFACE_SIDE_STYLE ('',( #223 ) ) ;
#193 = FILL_AREA_STYLE ('',( #227 ) ) ;
#194 = VECTOR ( 'NONE', #144, 39.37007874015748100 ) ;
#195 = FILL_AREA_STYLE_COLOUR ( '', #257 ) ;
#196 = LENGTH_MEASURE_WITH_UNIT ( LENGTH_MEASURE( 0.02539999999999999900 ), #128 );
#197 = SURFACE_STYLE_FILL_AREA ( #37 ) ;
#198 = AXIS2_PLACEMENT_3D ( 'NONE', #186, #64, #264 ) ;
#199 = PRODUCT_DEFINITION ( 'UNKNOWN', '', #68, #252 ) ;
#200 =( LENGTH_UNIT ( ) NAMED_UNIT ( * ) SI_UNIT ( $, .METRE. ) );
#201 = CYLINDRICAL_SURFACE ( 'NONE', #198, 0.4899999999999999900 ) ;
#202 = PRESENTATION_LAYER_ASSIGNMENT (  '', '', ( #162 ) ) ;
#203 = CARTESIAN_POINT ( 'NONE',  ( 0.0000000000000000000, 0.0000000000000000000, 7.870000000000000100 ) ) ;
#204 = STYLED_ITEM ( 'NONE', ( #179 ), #95 ) ;
#205 = UNCERTAINTY_MEASURE_WITH_UNIT (LENGTH_MEASURE( 1.000000000000000100E-005 ), #170, 'distance_accuracy_value', 'NONE');
#206 =( LENGTH_UNIT ( ) NAMED_UNIT ( * ) SI_UNIT ( $, .METRE. ) );
#207 = SURFACE_STYLE_USAGE ( .BOTH. , #192 ) ;
#208 = STYLED_ITEM ( 'NONE', ( #269 ), #97 ) ;
#209 =( NAMED_UNIT ( * ) PLANE_ANGLE_UNIT ( ) SI_UNIT ( $, .RADIAN. ) );
#210 = VECTOR ( 'NONE', #131, 39.37007874015748100 ) ;
#211 = DIRECTION ( 'NONE',  ( 1.000000000000000000, 0.0000000000000000000, 0.0000000000000000000 ) ) ;
#212 = FILL_AREA_STYLE_COLOUR ( '', #180 ) ;
#213 =( NAMED_UNIT ( * ) SI_UNIT ( $, .STERADIAN. ) SOLID_ANGLE_UNIT ( ) );
#214 = PRESENTATION_STYLE_ASSIGNMENT (( #158 ) ) ;
#215 =( NAMED_UNIT ( * ) SI_UNIT ( $, .STERADIAN. ) SOLID_ANGLE_UNIT ( ) );
#216 = CARTESIAN_POINT ( 'NONE',  ( 0.0000000000000000000, 0.0000000000000000000, 7.870000000000000100 ) ) ;
#217 = FACE_OUTER_BOUND ( 'NONE', #84, .T. ) ;
#218 = DIRECTION ( 'NONE',  ( -0.0000000000000000000, -0.0000000000000000000, -1.000000000000000000 ) ) ;
#219 = SURFACE_STYLE_FILL_AREA ( #151 ) ;
#220 = CARTESIAN_POINT ( 'NONE',  ( 0.0000000000000000000, 0.0000000000000000000, 7.870000000000000100 ) ) ;
#221 = DIRECTION ( 'NONE',  ( -1.000000000000000000, 0.0000000000000000000, 0.0000000000000000000 ) ) ;
#222 = PRESENTATION_STYLE_ASSIGNMENT (( #207 ) ) ;
#223 = SURFACE_STYLE_FILL_AREA ( #193 ) ;
#224 =( NAMED_UNIT ( * ) SI_UNIT ( $, .STERADIAN. ) SOLID_ANGLE_UNIT ( ) );
#225 =( NAMED_UNIT ( * ) PLANE_ANGLE_UNIT ( ) SI_UNIT ( $, .RADIAN. ) );
#226 = EDGE_CURVE ( 'NONE', #253, #169, #18, .T. ) ;
#227 = FILL_AREA_STYLE_COLOUR ( '', #228 ) ;
#228 = COLOUR_RGB ( '',0.5019607843137254800, 0.5019607843137254800, 0.5019607843137254800 ) ;
#229 = DIRECTION ( 'NONE',  ( 0.0000000000000000000, 0.0000000000000000000, 1.000000000000000000 ) ) ;
#230 = COLOUR_RGB ( '',0.5019607843137254800, 0.5019607843137254800, 0.5019607843137254800 ) ;
#231 = CARTESIAN_POINT ( 'NONE',  ( 0.0000000000000000000, 0.0000000000000000000, -7.870000000000000100 ) ) ;
#232 = EDGE_LOOP ( 'NONE', ( #143, #23 ) ) ;
#233 = UNCERTAINTY_MEASURE_WITH_UNIT (LENGTH_MEASURE( 1.000000000000000100E-005 ), #48, 'distance_accuracy_value', 'NONE');
#234 = SURFACE_STYLE_USAGE ( .BOTH. , #312 ) ;
#235 = SURFACE_STYLE_FILL_AREA ( #324 ) ;
#236 = FILL_AREA_STYLE_COLOUR ( '', #328 ) ;
#237 = PRESENTATION_LAYER_ASSIGNMENT (  '', '', ( #291 ) ) ;
#238 = DIRECTION ( 'NONE',  ( 0.0000000000000000000, 0.0000000000000000000, 1.000000000000000000 ) ) ;
#239 = PRESENTATION_LAYER_ASSIGNMENT (  '', '', ( #208 ) ) ;
#240 = ORIENTED_EDGE ( 'NONE', *, *, #5, .T. ) ;
#241 = LENGTH_MEASURE_WITH_UNIT ( LENGTH_MEASURE( 0.02539999999999999900 ), #138 );
#242 =( NAMED_UNIT ( * ) PLANE_ANGLE_UNIT ( ) SI_UNIT ( $, .RADIAN. ) );
#243 = FILL_AREA_STYLE ('',( #195 ) ) ;
#244 = FILL_AREA_STYLE ('',( #212 ) ) ;
#245 = DIRECTION ( 'NONE',  ( -0.0000000000000000000, -0.0000000000000000000, -1.000000000000000000 ) ) ;
#246 = PLANE ( 'NONE',  #55 ) ;
#247 = UNCERTAINTY_MEASURE_WITH_UNIT (LENGTH_MEASURE( 1.000000000000000100E-005 ), #249, 'distance_accuracy_value', 'NONE');
#248 = EDGE_LOOP ( 'NONE', ( #108, #106 ) ) ;
#249 =( CONVERSION_BASED_UNIT ( 'INCH', #6 ) LENGTH_UNIT ( ) NAMED_UNIT ( #94 ) );
#250 = UNCERTAINTY_MEASURE_WITH_UNIT (LENGTH_MEASURE( 1.000000000000000100E-005 ), #182, 'distance_accuracy_value', 'NONE');
#251 = CARTESIAN_POINT ( 'NONE',  ( 0.3750000000000000600, 4.592425496802575500E-017, 7.870000000000000100 ) ) ;
#252 = PRODUCT_DEFINITION_CONTEXT ( 'detailed design', #265, 'design' ) ;
#253 = VERTEX_POINT ( 'NONE', #288 ) ;
#254 = CYLINDRICAL_SURFACE ( 'NONE', #28, 0.4899999999999999900 ) ;
#255 = FILL_AREA_STYLE_COLOUR ( '', #230 ) ;
#256 = PRESENTATION_STYLE_ASSIGNMENT (( #185 ) ) ;
#257 = COLOUR_RGB ( '',0.5019607843137254800, 0.5019607843137254800, 0.5019607843137254800 ) ;
#258 = ORIENTED_EDGE ( 'NONE', *, *, #9, .F. ) ;
#259 = APPLICATION_PROTOCOL_DEFINITION ( 'draft international standard', 'automotive_design', 1998, #265 ) ;
#260 = FACE_OUTER_BOUND ( 'NONE', #20, .T. ) ;
#261 = CARTESIAN_POINT ( 'NONE',  ( 0.4899999999999999900, 6.000769315822029800E-017, 7.870000000000000100 ) ) ;
#262 = PRODUCT_CONTEXT ( 'NONE', #279, 'mechanical' ) ;
#263 = DIRECTION ( 'NONE',  ( -0.0000000000000000000, -0.0000000000000000000, -1.000000000000000000 ) ) ;
#264 = DIRECTION ( 'NONE',  ( -1.000000000000000000, 0.0000000000000000000, 0.0000000000000000000 ) ) ;
#265 = APPLICATION_CONTEXT ( 'automotive_design' ) ;
#266 = DIRECTION ( 'NONE',  ( 0.0000000000000000000, 0.0000000000000000000, 1.000000000000000000 ) ) ;
#267 = DIRECTION ( 'NONE',  ( 1.000000000000000000, 0.0000000000000000000, 0.0000000000000000000 ) ) ;
#268 = CARTESIAN_POINT ( 'NONE',  ( 0.0000000000000000000, 0.0000000000000000000, 0.0000000000000000000 ) ) ;
#269 = PRESENTATION_STYLE_ASSIGNMENT (( #30 ) ) ;
#270 = EDGE_LOOP ( 'NONE', ( #140, #90, #99, #160 ) ) ;
#271 = SURFACE_STYLE_FILL_AREA ( #243 ) ;
#272 = CYLINDRICAL_SURFACE ( 'NONE', #40, 0.3750000000000000600 ) ;
#273 =( NAMED_UNIT ( * ) PLANE_ANGLE_UNIT ( ) SI_UNIT ( $, .RADIAN. ) );
#274 =( NAMED_UNIT ( * ) SI_UNIT ( $, .STERADIAN. ) SOLID_ANGLE_UNIT ( ) );
#275 =( LENGTH_UNIT ( ) NAMED_UNIT ( * ) SI_UNIT ( $, .METRE. ) );
#276 =( CONVERSION_BASED_UNIT ( 'INCH', #121 ) LENGTH_UNIT ( ) NAMED_UNIT ( #178 ) );
#277 = SURFACE_SIDE_STYLE ('',( #167 ) ) ;
#278 = SURFACE_STYLE_USAGE ( .BOTH. , #277 ) ;
#279 = APPLICATION_CONTEXT ( 'automotive_design' ) ;
#280 = FILL_AREA_STYLE ('',( #298 ) ) ;
#281 = APPLICATION_PROTOCOL_DEFINITION ( 'draft international standard', 'automotive_design', 1998, #279 ) ;
#282 =( NAMED_UNIT ( * ) SI_UNIT ( $, .STERADIAN. ) SOLID_ANGLE_UNIT ( ) );
#283 =( CONVERSION_BASED_UNIT ( 'INCH', #130 ) LENGTH_UNIT ( ) NAMED_UNIT ( #93 ) );
#284 = DIRECTION ( 'NONE',  ( 1.000000000000000000, 0.0000000000000000000, 0.0000000000000000000 ) ) ;
#285 = UNCERTAINTY_MEASURE_WITH_UNIT (LENGTH_MEASURE( 1.000000000000000100E-005 ), #103, 'distance_accuracy_value', 'NONE');
#286 =( NAMED_UNIT ( * ) PLANE_ANGLE_UNIT ( ) SI_UNIT ( $, .RADIAN. ) );
#287 = CARTESIAN_POINT ( 'NONE',  ( 0.0000000000000000000, 0.0000000000000000000, -7.870000000000000100 ) ) ;
#288 = CARTESIAN_POINT ( 'NONE',  ( -0.4899999999999999900, 0.0000000000000000000, -7.870000000000000100 ) ) ;
#289 = DIRECTION ( 'NONE',  ( 0.0000000000000000000, 0.0000000000000000000, 1.000000000000000000 ) ) ;
#290 =( LENGTH_UNIT ( ) NAMED_UNIT ( * ) SI_UNIT ( $, .METRE. ) );
#291 = STYLED_ITEM ( 'NONE', ( #256 ), #22 ) ;
#292 = DIRECTION ( 'NONE',  ( 0.0000000000000000000, 0.0000000000000000000, 1.000000000000000000 ) ) ;
#293 = CARTESIAN_POINT ( 'NONE',  ( 0.4899999999999999900, 6.000769315822029800E-017, -7.870000000000000100 ) ) ;
#294 = DIRECTION ( 'NONE',  ( 1.000000000000000000, 0.0000000000000000000, 0.0000000000000000000 ) ) ;
#295 = CARTESIAN_POINT ( 'NONE',  ( 0.0000000000000000000, 0.0000000000000000000, 7.870000000000000100 ) ) ;
#296 = DIRECTION ( 'NONE',  ( 1.000000000000000000, 0.0000000000000000000, 0.0000000000000000000 ) ) ;
#297 = CARTESIAN_POINT ( 'NONE',  ( 0.0000000000000000000, 0.0000000000000000000, 7.870000000000000100 ) ) ;
#298 = FILL_AREA_STYLE_COLOUR ( '', #132 ) ;
#299 = DIRECTION ( 'NONE',  ( 0.0000000000000000000, 0.0000000000000000000, 1.000000000000000000 ) ) ;
#300 = DIRECTION ( 'NONE',  ( 0.0000000000000000000, 0.0000000000000000000, 1.000000000000000000 ) ) ;
#301 = EDGE_LOOP ( 'NONE', ( #21, #19 ) ) ;
#302 = CARTESIAN_POINT ( 'NONE',  ( -0.3750000000000000600, 0.0000000000000000000, 7.870000000000000100 ) ) ;
#303 = UNCERTAINTY_MEASURE_WITH_UNIT (LENGTH_MEASURE( 1.000000000000000100E-005 ), #315, 'distance_accuracy_value', 'NONE');
#304 = MECHANICAL_DESIGN_GEOMETRIC_PRESENTATION_REPRESENTATION (  '', ( #63 ), #184 ) ;
#305 = LENGTH_MEASURE_WITH_UNIT ( LENGTH_MEASURE( 0.02539999999999999900 ), #79 );
#306 = DIRECTION ( 'NONE',  ( 1.000000000000000000, 0.0000000000000000000, 0.0000000000000000000 ) ) ;
#307 = CARTESIAN_POINT ( 'NONE',  ( 0.0000000000000000000, 0.0000000000000000000, 7.870000000000000100 ) ) ;
#308 = PRESENTATION_LAYER_ASSIGNMENT (  '', '', ( #63 ) ) ;
#309 = DIRECTION ( 'NONE',  ( 1.000000000000000000, 0.0000000000000000000, 0.0000000000000000000 ) ) ;
#310 = CARTESIAN_POINT ( 'NONE',  ( -0.3750000000000000600, 0.0000000000000000000, 7.870000000000000100 ) ) ;
#311 = CARTESIAN_POINT ( 'NONE',  ( 0.0000000000000000000, 0.0000000000000000000, -7.870000000000000100 ) ) ;
#312 = SURFACE_SIDE_STYLE ('',( #219 ) ) ;
#313 = DIRECTION ( 'NONE',  ( 0.0000000000000000000, 0.0000000000000000000, 1.000000000000000000 ) ) ;
#314 = CARTESIAN_POINT ( 'NONE',  ( -0.4899999999999999900, 0.0000000000000000000, 7.870000000000000100 ) ) ;
#315 =( CONVERSION_BASED_UNIT ( 'INCH', #60 ) LENGTH_UNIT ( ) NAMED_UNIT ( #82 ) );
#316 = DIRECTION ( 'NONE',  ( -1.000000000000000000, 0.0000000000000000000, 0.0000000000000000000 ) ) ;
#317 =( NAMED_UNIT ( * ) PLANE_ANGLE_UNIT ( ) SI_UNIT ( $, .RADIAN. ) );
#318 =( NAMED_UNIT ( * ) SI_UNIT ( $, .STERADIAN. ) SOLID_ANGLE_UNIT ( ) );
#319 =( LENGTH_UNIT ( ) NAMED_UNIT ( * ) SI_UNIT ( $, .METRE. ) );
#320 =( GEOMETRIC_REPRESENTATION_CONTEXT ( 3 ) GLOBAL_UNCERTAINTY_ASSIGNED_CONTEXT ( ( #57 ) ) GLOBAL_UNIT_ASSIGNED_CONTEXT ( ( #283, #286, #282 ) ) REPRESENTATION_CONTEXT ( 'NONE', 'WORKASPACE' ) );
#321 = DIRECTION ( 'NONE',  ( -0.0000000000000000000, -0.0000000000000000000, -1.000000000000000000 ) ) ;
#322 = SURFACE_SIDE_STYLE ('',( #235 ) ) ;
#323 = MECHANICAL_DESIGN_GEOMETRIC_PRESENTATION_REPRESENTATION (  '', ( #162 ), #134 ) ;
#324 = FILL_AREA_STYLE ('',( #29 ) ) ;
#325 =( NAMED_UNIT ( * ) SI_UNIT ( $, .STERADIAN. ) SOLID_ANGLE_UNIT ( ) );
#326 = SURFACE_STYLE_USAGE ( .BOTH. , #322 ) ;
#327 = CARTESIAN_POINT ( 'NONE',  ( 0.0000000000000000000, 0.0000000000000000000, -7.870000000000000100 ) ) ;
#328 = COLOUR_RGB ( '',0.5019607843137254800, 0.5019607843137254800, 0.5019607843137254800 ) ;
#329 = LENGTH_MEASURE_WITH_UNIT ( LENGTH_MEASURE( 0.02539999999999999900 ), #206 );
#330 = CARTESIAN_POINT ( 'NONE',  ( 0.0000000000000000000, 0.0000000000000000000, 7.870000000000000100 ) ) ;
#331 = DIRECTION ( 'NONE',  ( -1.000000000000000000, 0.0000000000000000000, 0.0000000000000000000 ) ) ;
ENDSEC;
END-ISO-10303-21;
