ISO-10303-21;
HEADER;
FILE_DESCRIPTION (( 'STEP AP214' ),
    '1' );
FILE_NAME ('A-AWI-04-1000.step',
    '2017-11-29T20:06:17',
    ( '' ),
    ( '' ),
    'SwSTEP 2.0',
    'SolidWorks 2017',
    '' );
FILE_SCHEMA (( 'AUTOMOTIVE_DESIGN' ));
ENDSEC;

DATA;
#1 = VECTOR ( 'NONE', #62, 39.37007874015748100 ) ;
#2 = VERTEX_POINT ( 'NONE', #54 ) ;
#3 = CARTESIAN_POINT ( 'NONE',  ( 0.1250000000000000000, 1.530808498934191500E-017, 0.0000000000000000000 ) ) ;
#4 = DIRECTION ( 'NONE',  ( 0.0000000000000000000, 0.0000000000000000000, 1.000000000000000000 ) ) ;
#5 = DIRECTION ( 'NONE',  ( 0.0000000000000000000, 0.0000000000000000000, 1.000000000000000000 ) ) ;
#6 = CIRCLE ( 'NONE', #58, 0.1250000000000000000 ) ;
#7 = DIRECTION ( 'NONE',  ( 0.0000000000000000000, 0.0000000000000000000, -1.000000000000000000 ) ) ;
#8 = LENGTH_MEASURE_WITH_UNIT ( LENGTH_MEASURE( 0.02539999999999999900 ), #143 );
#9 =( NAMED_UNIT ( * ) PLANE_ANGLE_UNIT ( ) SI_UNIT ( $, .RADIAN. ) );
#10 =( NAMED_UNIT ( * ) SI_UNIT ( $, .STERADIAN. ) SOLID_ANGLE_UNIT ( ) );
#11 = PRODUCT_DEFINITION_SHAPE ( 'NONE', 'NONE',  #52 ) ;
#12 = LINE ( 'NONE', #3, #1 ) ;
#13 = PRESENTATION_LAYER_ASSIGNMENT (  '', '', ( #35 ) ) ;
#14 = EDGE_CURVE ( 'NONE', #29, #37, #6, .T. ) ;
#15 = FACE_OUTER_BOUND ( 'NONE', #47, .T. ) ;
#16 = VERTEX_POINT ( 'NONE', #44 ) ;
#17 = EDGE_CURVE ( 'NONE', #37, #29, #27, .T. ) ;
#18 = DIRECTION ( 'NONE',  ( -1.000000000000000000, 0.0000000000000000000, 0.0000000000000000000 ) ) ;
#19 = CARTESIAN_POINT ( 'NONE',  ( -1.274800128156015700E-017, 2.868081883112086200E-018, -39.37007874015748100 ) ) ;
#20 =( NAMED_UNIT ( * ) PLANE_ANGLE_UNIT ( ) SI_UNIT ( $, .RADIAN. ) );
#21 = PRODUCT ( 'A-AWI-04-1000', 'A-AWI-04-1000', '', ( #41 ) ) ;
#22 = DIMENSIONAL_EXPONENTS ( 1.000000000000000000, 0.0000000000000000000, 0.0000000000000000000, 0.0000000000000000000, 0.0000000000000000000, 0.0000000000000000000, 0.0000000000000000000 ) ;
#23 = FILL_AREA_STYLE_COLOUR ( '', #141 ) ;
#24 = CARTESIAN_POINT ( 'NONE',  ( -0.1250000000000000000, 0.0000000000000000000, 0.0000000000000000000 ) ) ;
#25 = ORIENTED_EDGE ( 'NONE', *, *, #79, .F. ) ;
#26 = EDGE_CURVE ( 'NONE', #16, #2, #49, .T. ) ;
#27 = CIRCLE ( 'NONE', #108, 0.1250000000000000000 ) ;
#28 = AXIS2_PLACEMENT_3D ( 'NONE', #19, #4, #116 ) ;
#29 = VERTEX_POINT ( 'NONE', #34 ) ;
#30 = AXIS2_PLACEMENT_3D ( 'NONE', #145, #129, #51 ) ;
#31 = CARTESIAN_POINT ( 'NONE',  ( 0.0000000000000000000, 0.0000000000000000000, -39.37007874015748100 ) ) ;
#32 = AXIS2_PLACEMENT_3D ( 'NONE', #31, #90, #18 ) ;
#33 = DIRECTION ( 'NONE',  ( 1.000000000000000000, 0.0000000000000000000, 0.0000000000000000000 ) ) ;
#34 = CARTESIAN_POINT ( 'NONE',  ( 0.1250000000000000000, 1.530808498934191500E-017, 0.0000000000000000000 ) ) ;
#35 = STYLED_ITEM ( 'NONE', ( #115 ), #36 ) ;
#36 = ADVANCED_BREP_SHAPE_REPRESENTATION ( 'A-AWI-04-1000', ( #40, #71 ), #73 ) ;
#37 = VERTEX_POINT ( 'NONE', #81 ) ;
#38 = ORIENTED_EDGE ( 'NONE', *, *, #26, .F. ) ;
#39 = ORIENTED_EDGE ( 'NONE', *, *, #26, .T. ) ;
#40 = MANIFOLD_SOLID_BREP ( 'Solid1', #119 ) ;
#41 = PRODUCT_CONTEXT ( 'NONE', #65, 'mechanical' ) ;
#42 = FACE_OUTER_BOUND ( 'NONE', #56, .T. ) ;
#43 = APPLICATION_PROTOCOL_DEFINITION ( 'draft international standard', 'automotive_design', 1998, #135 ) ;
#44 = CARTESIAN_POINT ( 'NONE',  ( 0.1250000000000000000, 1.530808498934191500E-017, -39.37007874015748100 ) ) ;
#45 = ORIENTED_EDGE ( 'NONE', *, *, #14, .F. ) ;
#46 = VECTOR ( 'NONE', #107, 39.37007874015748100 ) ;
#47 = EDGE_LOOP ( 'NONE', ( #82, #45 ) ) ;
#48 = AXIS2_PLACEMENT_3D ( 'NONE', #66, #7, #105 ) ;
#49 = CIRCLE ( 'NONE', #30, 0.1250000000000000000 ) ;
#50 = ADVANCED_FACE ( 'NONE', ( #113 ), #117, .F. ) ;
#51 = DIRECTION ( 'NONE',  ( -1.000000000000000000, 0.0000000000000000000, 0.0000000000000000000 ) ) ;
#52 = PRODUCT_DEFINITION ( 'UNKNOWN', '', #60, #110 ) ;
#53 = CARTESIAN_POINT ( 'NONE',  ( -1.274800128156015700E-017, 2.868081883112086200E-018, 0.0000000000000000000 ) ) ;
#54 = CARTESIAN_POINT ( 'NONE',  ( -0.1250000000000000000, 0.0000000000000000000, -39.37007874015748100 ) ) ;
#55 =( NAMED_UNIT ( * ) SI_UNIT ( $, .STERADIAN. ) SOLID_ANGLE_UNIT ( ) );
#56 = EDGE_LOOP ( 'NONE', ( #128, #148, #83, #125 ) ) ;
#57 =( CONVERSION_BASED_UNIT ( 'INCH', #100 ) LENGTH_UNIT ( ) NAMED_UNIT ( #22 ) );
#58 = AXIS2_PLACEMENT_3D ( 'NONE', #67, #94, #146 ) ;
#59 = AXIS2_PLACEMENT_3D ( 'NONE', #53, #63, #92 ) ;
#60 = PRODUCT_DEFINITION_FORMATION_WITH_SPECIFIED_SOURCE ( 'ANY', '', #21, .NOT_KNOWN. ) ;
#61 = EDGE_LOOP ( 'NONE', ( #88, #72, #39, #25 ) ) ;
#62 = DIRECTION ( 'NONE',  ( 0.0000000000000000000, 0.0000000000000000000, -1.000000000000000000 ) ) ;
#63 = DIRECTION ( 'NONE',  ( 0.0000000000000000000, 0.0000000000000000000, 1.000000000000000000 ) ) ;
#64 = CARTESIAN_POINT ( 'NONE',  ( 0.0000000000000000000, 0.0000000000000000000, 0.0000000000000000000 ) ) ;
#65 = APPLICATION_CONTEXT ( 'automotive_design' ) ;
#66 = CARTESIAN_POINT ( 'NONE',  ( 0.0000000000000000000, 0.0000000000000000000, 0.0000000000000000000 ) ) ;
#67 = CARTESIAN_POINT ( 'NONE',  ( 0.0000000000000000000, 0.0000000000000000000, 0.0000000000000000000 ) ) ;
#68 =( NAMED_UNIT ( * ) PLANE_ANGLE_UNIT ( ) SI_UNIT ( $, .RADIAN. ) );
#69 = MECHANICAL_DESIGN_GEOMETRIC_PRESENTATION_REPRESENTATION (  '', ( #87 ), #103 ) ;
#70 = PRODUCT_RELATED_PRODUCT_CATEGORY ( 'part', '', ( #21 ) ) ;
#71 = AXIS2_PLACEMENT_3D ( 'NONE', #80, #5, #33 ) ;
#72 = ORIENTED_EDGE ( 'NONE', *, *, #149, .T. ) ;
#73 =( GEOMETRIC_REPRESENTATION_CONTEXT ( 3 ) GLOBAL_UNCERTAINTY_ASSIGNED_CONTEXT ( ( #98 ) ) GLOBAL_UNIT_ASSIGNED_CONTEXT ( ( #57, #20, #131 ) ) REPRESENTATION_CONTEXT ( 'NONE', 'WORKASPACE' ) );
#74 =( CONVERSION_BASED_UNIT ( 'INCH', #8 ) LENGTH_UNIT ( ) NAMED_UNIT ( #142 ) );
#75 = ADVANCED_FACE ( 'NONE', ( #42 ), #124, .T. ) ;
#76 = DIRECTION ( 'NONE',  ( 0.0000000000000000000, 0.0000000000000000000, -1.000000000000000000 ) ) ;
#77 = SURFACE_STYLE_USAGE ( .BOTH. , #137 ) ;
#78 = DIRECTION ( 'NONE',  ( -1.000000000000000000, 0.0000000000000000000, 0.0000000000000000000 ) ) ;
#79 = EDGE_CURVE ( 'NONE', #37, #2, #121, .T. ) ;
#80 = CARTESIAN_POINT ( 'NONE',  ( 0.0000000000000000000, 0.0000000000000000000, 0.0000000000000000000 ) ) ;
#81 = CARTESIAN_POINT ( 'NONE',  ( -0.1250000000000000000, 0.0000000000000000000, 0.0000000000000000000 ) ) ;
#82 = ORIENTED_EDGE ( 'NONE', *, *, #17, .F. ) ;
#83 = ORIENTED_EDGE ( 'NONE', *, *, #79, .T. ) ;
#84 = EDGE_CURVE ( 'NONE', #2, #16, #86, .T. ) ;
#85 = SURFACE_STYLE_FILL_AREA ( #118 ) ;
#86 = CIRCLE ( 'NONE', #32, 0.1250000000000000000 ) ;
#87 = STYLED_ITEM ( 'NONE', ( #130 ), #40 ) ;
#88 = ORIENTED_EDGE ( 'NONE', *, *, #17, .T. ) ;
#89 = MECHANICAL_DESIGN_GEOMETRIC_PRESENTATION_REPRESENTATION (  '', ( #35 ), #99 ) ;
#90 = DIRECTION ( 'NONE',  ( -0.0000000000000000000, -0.0000000000000000000, 1.000000000000000000 ) ) ;
#91 = DIRECTION ( 'NONE',  ( 0.0000000000000000000, 0.0000000000000000000, -1.000000000000000000 ) ) ;
#92 = DIRECTION ( 'NONE',  ( 1.000000000000000000, 0.0000000000000000000, -0.0000000000000000000 ) ) ;
#93 = DIMENSIONAL_EXPONENTS ( 1.000000000000000000, 0.0000000000000000000, 0.0000000000000000000, 0.0000000000000000000, 0.0000000000000000000, 0.0000000000000000000, 0.0000000000000000000 ) ;
#94 = DIRECTION ( 'NONE',  ( 0.0000000000000000000, 0.0000000000000000000, -1.000000000000000000 ) ) ;
#95 =( LENGTH_UNIT ( ) NAMED_UNIT ( * ) SI_UNIT ( $, .METRE. ) );
#96 = ADVANCED_FACE ( 'NONE', ( #111 ), #102, .T. ) ;
#97 = ORIENTED_EDGE ( 'NONE', *, *, #84, .F. ) ;
#98 = UNCERTAINTY_MEASURE_WITH_UNIT (LENGTH_MEASURE( 1.000000000000000100E-005 ), #57, 'distance_accuracy_value', 'NONE');
#99 =( GEOMETRIC_REPRESENTATION_CONTEXT ( 3 ) GLOBAL_UNCERTAINTY_ASSIGNED_CONTEXT ( ( #139 ) ) GLOBAL_UNIT_ASSIGNED_CONTEXT ( ( #74, #68, #10 ) ) REPRESENTATION_CONTEXT ( 'NONE', 'WORKASPACE' ) );
#100 = LENGTH_MEASURE_WITH_UNIT ( LENGTH_MEASURE( 0.02539999999999999900 ), #95 );
#101 = LENGTH_MEASURE_WITH_UNIT ( LENGTH_MEASURE( 0.02539999999999999900 ), #120 );
#102 = CYLINDRICAL_SURFACE ( 'NONE', #48, 0.1250000000000000000 ) ;
#103 =( GEOMETRIC_REPRESENTATION_CONTEXT ( 3 ) GLOBAL_UNCERTAINTY_ASSIGNED_CONTEXT ( ( #109 ) ) GLOBAL_UNIT_ASSIGNED_CONTEXT ( ( #126, #9, #55 ) ) REPRESENTATION_CONTEXT ( 'NONE', 'WORKASPACE' ) );
#104 = ADVANCED_FACE ( 'NONE', ( #15 ), #127, .T. ) ;
#105 = DIRECTION ( 'NONE',  ( -1.000000000000000000, 0.0000000000000000000, 0.0000000000000000000 ) ) ;
#106 = DIRECTION ( 'NONE',  ( -1.000000000000000000, 0.0000000000000000000, 0.0000000000000000000 ) ) ;
#107 = DIRECTION ( 'NONE',  ( 0.0000000000000000000, 0.0000000000000000000, -1.000000000000000000 ) ) ;
#108 = AXIS2_PLACEMENT_3D ( 'NONE', #132, #76, #78 ) ;
#109 = UNCERTAINTY_MEASURE_WITH_UNIT (LENGTH_MEASURE( 1.000000000000000100E-005 ), #126, 'distance_accuracy_value', 'NONE');
#110 = PRODUCT_DEFINITION_CONTEXT ( 'detailed design', #135, 'design' ) ;
#111 = FACE_OUTER_BOUND ( 'NONE', #61, .T. ) ;
#112 = COLOUR_RGB ( '',0.7450980392156862900, 0.7450980392156862900, 0.7450980392156862900 ) ;
#113 = FACE_OUTER_BOUND ( 'NONE', #123, .T. ) ;
#114 = APPLICATION_PROTOCOL_DEFINITION ( 'draft international standard', 'automotive_design', 1998, #65 ) ;
#115 = PRESENTATION_STYLE_ASSIGNMENT (( #77 ) ) ;
#116 = DIRECTION ( 'NONE',  ( 1.000000000000000000, 0.0000000000000000000, -0.0000000000000000000 ) ) ;
#117 = PLANE ( 'NONE',  #28 ) ;
#118 = FILL_AREA_STYLE ('',( #147 ) ) ;
#119 = CLOSED_SHELL ( 'NONE', ( #96, #75, #104, #50 ) ) ;
#120 =( LENGTH_UNIT ( ) NAMED_UNIT ( * ) SI_UNIT ( $, .METRE. ) );
#121 = LINE ( 'NONE', #24, #46 ) ;
#122 = PRESENTATION_LAYER_ASSIGNMENT (  '', '', ( #87 ) ) ;
#123 = EDGE_LOOP ( 'NONE', ( #97, #38 ) ) ;
#124 = CYLINDRICAL_SURFACE ( 'NONE', #133, 0.1250000000000000000 ) ;
#125 = ORIENTED_EDGE ( 'NONE', *, *, #84, .T. ) ;
#126 =( CONVERSION_BASED_UNIT ( 'INCH', #101 ) LENGTH_UNIT ( ) NAMED_UNIT ( #93 ) );
#127 = PLANE ( 'NONE',  #59 ) ;
#128 = ORIENTED_EDGE ( 'NONE', *, *, #149, .F. ) ;
#129 = DIRECTION ( 'NONE',  ( -0.0000000000000000000, -0.0000000000000000000, 1.000000000000000000 ) ) ;
#130 = PRESENTATION_STYLE_ASSIGNMENT (( #138 ) ) ;
#131 =( NAMED_UNIT ( * ) SI_UNIT ( $, .STERADIAN. ) SOLID_ANGLE_UNIT ( ) );
#132 = CARTESIAN_POINT ( 'NONE',  ( 0.0000000000000000000, 0.0000000000000000000, 0.0000000000000000000 ) ) ;
#133 = AXIS2_PLACEMENT_3D ( 'NONE', #64, #91, #106 ) ;
#134 = SURFACE_STYLE_FILL_AREA ( #136 ) ;
#135 = APPLICATION_CONTEXT ( 'automotive_design' ) ;
#136 = FILL_AREA_STYLE ('',( #23 ) ) ;
#137 = SURFACE_SIDE_STYLE ('',( #85 ) ) ;
#138 = SURFACE_STYLE_USAGE ( .BOTH. , #144 ) ;
#139 = UNCERTAINTY_MEASURE_WITH_UNIT (LENGTH_MEASURE( 1.000000000000000100E-005 ), #74, 'distance_accuracy_value', 'NONE');
#140 = SHAPE_DEFINITION_REPRESENTATION ( #11, #36 ) ;
#141 = COLOUR_RGB ( '',0.7450980392156862900, 0.7450980392156862900, 0.7450980392156862900 ) ;
#142 = DIMENSIONAL_EXPONENTS ( 1.000000000000000000, 0.0000000000000000000, 0.0000000000000000000, 0.0000000000000000000, 0.0000000000000000000, 0.0000000000000000000, 0.0000000000000000000 ) ;
#143 =( LENGTH_UNIT ( ) NAMED_UNIT ( * ) SI_UNIT ( $, .METRE. ) );
#144 = SURFACE_SIDE_STYLE ('',( #134 ) ) ;
#145 = CARTESIAN_POINT ( 'NONE',  ( 0.0000000000000000000, 0.0000000000000000000, -39.37007874015748100 ) ) ;
#146 = DIRECTION ( 'NONE',  ( -1.000000000000000000, 0.0000000000000000000, 0.0000000000000000000 ) ) ;
#147 = FILL_AREA_STYLE_COLOUR ( '', #112 ) ;
#148 = ORIENTED_EDGE ( 'NONE', *, *, #14, .T. ) ;
#149 = EDGE_CURVE ( 'NONE', #29, #16, #12, .T. ) ;
ENDSEC;
END-ISO-10303-21;
