ISO-10303-21;
HEADER;
FILE_DESCRIPTION (( 'STEP AP214' ),
    '1' );
FILE_NAME ('A-AWI-04-500.step',
    '2017-11-29T20:06:02',
    ( '' ),
    ( '' ),
    'SwSTEP 2.0',
    'SolidWorks 2017',
    '' );
FILE_SCHEMA (( 'AUTOMOTIVE_DESIGN' ));
ENDSEC;

DATA;
#1 = CIRCLE ( 'NONE', #149, 0.1250000000000000000 ) ;
#2 = CIRCLE ( 'NONE', #139, 0.1250000000000000000 ) ;
#3 =( NAMED_UNIT ( * ) SI_UNIT ( $, .STERADIAN. ) SOLID_ANGLE_UNIT ( ) );
#4 = CARTESIAN_POINT ( 'NONE',  ( 0.1250000000000000000, 1.530808498934191500E-017, 0.0000000000000000000 ) ) ;
#5 = DIRECTION ( 'NONE',  ( 0.0000000000000000000, 0.0000000000000000000, 1.000000000000000000 ) ) ;
#6 = CYLINDRICAL_SURFACE ( 'NONE', #93, 0.1250000000000000000 ) ;
#7 = MANIFOLD_SOLID_BREP ( 'Solid1', #69 ) ;
#8 = CIRCLE ( 'NONE', #142, 0.1250000000000000000 ) ;
#9 = ORIENTED_EDGE ( 'NONE', *, *, #122, .F. ) ;
#10 = PRESENTATION_STYLE_ASSIGNMENT (( #23 ) ) ;
#11 = EDGE_CURVE ( 'NONE', #12, #132, #77, .T. ) ;
#12 = VERTEX_POINT ( 'NONE', #114 ) ;
#13 = DIRECTION ( 'NONE',  ( -1.000000000000000000, 0.0000000000000000000, 0.0000000000000000000 ) ) ;
#14 = EDGE_LOOP ( 'NONE', ( #20, #9 ) ) ;
#15 = PRODUCT_CONTEXT ( 'NONE', #83, 'mechanical' ) ;
#16 = AXIS2_PLACEMENT_3D ( 'NONE', #143, #127, #46 ) ;
#17 = DIRECTION ( 'NONE',  ( 0.0000000000000000000, 0.0000000000000000000, -1.000000000000000000 ) ) ;
#18 = PRESENTATION_STYLE_ASSIGNMENT (( #68 ) ) ;
#19 = ADVANCED_BREP_SHAPE_REPRESENTATION ( 'A-AWI-04-500', ( #7, #133 ), #108 ) ;
#20 = ORIENTED_EDGE ( 'NONE', *, *, #62, .F. ) ;
#21 = SHAPE_DEFINITION_REPRESENTATION ( #25, #19 ) ;
#22 = VERTEX_POINT ( 'NONE', #45 ) ;
#23 = SURFACE_STYLE_USAGE ( .BOTH. , #79 ) ;
#24 = DIRECTION ( 'NONE',  ( -1.000000000000000000, 0.0000000000000000000, 0.0000000000000000000 ) ) ;
#25 = PRODUCT_DEFINITION_SHAPE ( 'NONE', 'NONE',  #88 ) ;
#26 =( CONVERSION_BASED_UNIT ( 'INCH', #111 ) LENGTH_UNIT ( ) NAMED_UNIT ( #140 ) );
#27 = CARTESIAN_POINT ( 'NONE',  ( 0.0000000000000000000, 0.0000000000000000000, 0.0000000000000000000 ) ) ;
#28 = CARTESIAN_POINT ( 'NONE',  ( 0.0000000000000000000, 0.0000000000000000000, -19.68503937007874100 ) ) ;
#29 = ORIENTED_EDGE ( 'NONE', *, *, #128, .F. ) ;
#30 = APPLICATION_PROTOCOL_DEFINITION ( 'draft international standard', 'automotive_design', 1998, #36 ) ;
#31 = CIRCLE ( 'NONE', #96, 0.1250000000000000000 ) ;
#32 = ORIENTED_EDGE ( 'NONE', *, *, #122, .T. ) ;
#33 = VERTEX_POINT ( 'NONE', #101 ) ;
#34 = DIRECTION ( 'NONE',  ( 1.000000000000000000, 0.0000000000000000000, -0.0000000000000000000 ) ) ;
#35 = STYLED_ITEM ( 'NONE', ( #18 ), #19 ) ;
#36 = APPLICATION_CONTEXT ( 'automotive_design' ) ;
#37 = CARTESIAN_POINT ( 'NONE',  ( 0.0000000000000000000, 0.0000000000000000000, 0.0000000000000000000 ) ) ;
#38 = FACE_OUTER_BOUND ( 'NONE', #103, .T. ) ;
#39 = ORIENTED_EDGE ( 'NONE', *, *, #11, .F. ) ;
#40 = UNCERTAINTY_MEASURE_WITH_UNIT (LENGTH_MEASURE( 1.000000000000000100E-005 ), #112, 'distance_accuracy_value', 'NONE');
#41 = LENGTH_MEASURE_WITH_UNIT ( LENGTH_MEASURE( 0.02539999999999999900 ), #144 );
#42 = PRODUCT_RELATED_PRODUCT_CATEGORY ( 'part', '', ( #121 ) ) ;
#43 = VECTOR ( 'NONE', #58, 39.37007874015748100 ) ;
#44 = UNCERTAINTY_MEASURE_WITH_UNIT (LENGTH_MEASURE( 1.000000000000000100E-005 ), #81, 'distance_accuracy_value', 'NONE');
#45 = CARTESIAN_POINT ( 'NONE',  ( 0.1250000000000000000, 1.530808498934191500E-017, -19.68503937007874100 ) ) ;
#46 = DIRECTION ( 'NONE',  ( 1.000000000000000000, 0.0000000000000000000, -0.0000000000000000000 ) ) ;
#47 = EDGE_LOOP ( 'NONE', ( #63, #29 ) ) ;
#48 = DIRECTION ( 'NONE',  ( 1.000000000000000000, 0.0000000000000000000, 0.0000000000000000000 ) ) ;
#49 = FILL_AREA_STYLE_COLOUR ( '', #120 ) ;
#50 = DIRECTION ( 'NONE',  ( -1.000000000000000000, 0.0000000000000000000, 0.0000000000000000000 ) ) ;
#51 = DIRECTION ( 'NONE',  ( -1.000000000000000000, 0.0000000000000000000, 0.0000000000000000000 ) ) ;
#52 = ADVANCED_FACE ( 'NONE', ( #94 ), #115, .F. ) ;
#53 =( NAMED_UNIT ( * ) SI_UNIT ( $, .STERADIAN. ) SOLID_ANGLE_UNIT ( ) );
#54 =( LENGTH_UNIT ( ) NAMED_UNIT ( * ) SI_UNIT ( $, .METRE. ) );
#55 = FILL_AREA_STYLE ('',( #76 ) ) ;
#56 = DIRECTION ( 'NONE',  ( -0.0000000000000000000, -0.0000000000000000000, 1.000000000000000000 ) ) ;
#57 = APPLICATION_PROTOCOL_DEFINITION ( 'draft international standard', 'automotive_design', 1998, #83 ) ;
#58 = DIRECTION ( 'NONE',  ( 0.0000000000000000000, 0.0000000000000000000, -1.000000000000000000 ) ) ;
#59 = FACE_OUTER_BOUND ( 'NONE', #47, .T. ) ;
#60 = DIRECTION ( 'NONE',  ( -1.000000000000000000, 0.0000000000000000000, 0.0000000000000000000 ) ) ;
#61 = CYLINDRICAL_SURFACE ( 'NONE', #100, 0.1250000000000000000 ) ;
#62 = EDGE_CURVE ( 'NONE', #132, #22, #31, .T. ) ;
#63 = ORIENTED_EDGE ( 'NONE', *, *, #134, .F. ) ;
#64 = ADVANCED_FACE ( 'NONE', ( #38 ), #6, .T. ) ;
#65 = PRESENTATION_LAYER_ASSIGNMENT (  '', '', ( #35 ) ) ;
#66 = CARTESIAN_POINT ( 'NONE',  ( -0.1250000000000000000, 0.0000000000000000000, 0.0000000000000000000 ) ) ;
#67 =( GEOMETRIC_REPRESENTATION_CONTEXT ( 3 ) GLOBAL_UNCERTAINTY_ASSIGNED_CONTEXT ( ( #110 ) ) GLOBAL_UNIT_ASSIGNED_CONTEXT ( ( #26, #102, #117 ) ) REPRESENTATION_CONTEXT ( 'NONE', 'WORKASPACE' ) );
#68 = SURFACE_STYLE_USAGE ( .BOTH. , #70 ) ;
#69 = CLOSED_SHELL ( 'NONE', ( #138, #64, #87, #52 ) ) ;
#70 = SURFACE_SIDE_STYLE ('',( #82 ) ) ;
#71 = VECTOR ( 'NONE', #89, 39.37007874015748100 ) ;
#72 = EDGE_LOOP ( 'NONE', ( #99, #113, #32, #39 ) ) ;
#73 = ORIENTED_EDGE ( 'NONE', *, *, #116, .F. ) ;
#74 = PRODUCT_DEFINITION_CONTEXT ( 'detailed design', #36, 'design' ) ;
#75 = DIMENSIONAL_EXPONENTS ( 1.000000000000000000, 0.0000000000000000000, 0.0000000000000000000, 0.0000000000000000000, 0.0000000000000000000, 0.0000000000000000000, 0.0000000000000000000 ) ;
#76 = FILL_AREA_STYLE_COLOUR ( '', #125 ) ;
#77 = LINE ( 'NONE', #66, #71 ) ;
#78 = DIRECTION ( 'NONE',  ( 0.0000000000000000000, 0.0000000000000000000, -1.000000000000000000 ) ) ;
#79 = SURFACE_SIDE_STYLE ('',( #135 ) ) ;
#80 = CARTESIAN_POINT ( 'NONE',  ( 0.0000000000000000000, 0.0000000000000000000, 0.0000000000000000000 ) ) ;
#81 =( CONVERSION_BASED_UNIT ( 'INCH', #41 ) LENGTH_UNIT ( ) NAMED_UNIT ( #98 ) );
#82 = SURFACE_STYLE_FILL_AREA ( #90 ) ;
#83 = APPLICATION_CONTEXT ( 'automotive_design' ) ;
#84 = PRESENTATION_LAYER_ASSIGNMENT (  '', '', ( #124 ) ) ;
#85 = LINE ( 'NONE', #4, #43 ) ;
#86 = MECHANICAL_DESIGN_GEOMETRIC_PRESENTATION_REPRESENTATION (  '', ( #124 ), #146 ) ;
#87 = ADVANCED_FACE ( 'NONE', ( #59 ), #148, .T. ) ;
#88 = PRODUCT_DEFINITION ( 'UNKNOWN', '', #95, #74 ) ;
#89 = DIRECTION ( 'NONE',  ( 0.0000000000000000000, 0.0000000000000000000, -1.000000000000000000 ) ) ;
#90 = FILL_AREA_STYLE ('',( #49 ) ) ;
#91 = CARTESIAN_POINT ( 'NONE',  ( 0.0000000000000000000, 0.0000000000000000000, -19.68503937007874100 ) ) ;
#92 = DIRECTION ( 'NONE',  ( 0.0000000000000000000, 0.0000000000000000000, -1.000000000000000000 ) ) ;
#93 = AXIS2_PLACEMENT_3D ( 'NONE', #80, #78, #24 ) ;
#94 = FACE_OUTER_BOUND ( 'NONE', #14, .T. ) ;
#95 = PRODUCT_DEFINITION_FORMATION_WITH_SPECIFIED_SOURCE ( 'ANY', '', #121, .NOT_KNOWN. ) ;
#96 = AXIS2_PLACEMENT_3D ( 'NONE', #28, #104, #60 ) ;
#97 = LENGTH_MEASURE_WITH_UNIT ( LENGTH_MEASURE( 0.02539999999999999900 ), #54 );
#98 = DIMENSIONAL_EXPONENTS ( 1.000000000000000000, 0.0000000000000000000, 0.0000000000000000000, 0.0000000000000000000, 0.0000000000000000000, 0.0000000000000000000, 0.0000000000000000000 ) ;
#99 = ORIENTED_EDGE ( 'NONE', *, *, #134, .T. ) ;
#100 = AXIS2_PLACEMENT_3D ( 'NONE', #37, #118, #50 ) ;
#101 = CARTESIAN_POINT ( 'NONE',  ( 0.1250000000000000000, 1.530808498934191500E-017, 0.0000000000000000000 ) ) ;
#102 =( NAMED_UNIT ( * ) PLANE_ANGLE_UNIT ( ) SI_UNIT ( $, .RADIAN. ) );
#103 = EDGE_LOOP ( 'NONE', ( #73, #107, #141, #137 ) ) ;
#104 = DIRECTION ( 'NONE',  ( -0.0000000000000000000, -0.0000000000000000000, 1.000000000000000000 ) ) ;
#105 =( LENGTH_UNIT ( ) NAMED_UNIT ( * ) SI_UNIT ( $, .METRE. ) );
#106 = CARTESIAN_POINT ( 'NONE',  ( -1.274800128156015700E-017, 2.868081883112086200E-018, 0.0000000000000000000 ) ) ;
#107 = ORIENTED_EDGE ( 'NONE', *, *, #128, .T. ) ;
#108 =( GEOMETRIC_REPRESENTATION_CONTEXT ( 3 ) GLOBAL_UNCERTAINTY_ASSIGNED_CONTEXT ( ( #44 ) ) GLOBAL_UNIT_ASSIGNED_CONTEXT ( ( #81, #119, #3 ) ) REPRESENTATION_CONTEXT ( 'NONE', 'WORKASPACE' ) );
#109 = MECHANICAL_DESIGN_GEOMETRIC_PRESENTATION_REPRESENTATION (  '', ( #35 ), #67 ) ;
#110 = UNCERTAINTY_MEASURE_WITH_UNIT (LENGTH_MEASURE( 1.000000000000000100E-005 ), #26, 'distance_accuracy_value', 'NONE');
#111 = LENGTH_MEASURE_WITH_UNIT ( LENGTH_MEASURE( 0.02539999999999999900 ), #105 );
#112 =( CONVERSION_BASED_UNIT ( 'INCH', #97 ) LENGTH_UNIT ( ) NAMED_UNIT ( #75 ) );
#113 = ORIENTED_EDGE ( 'NONE', *, *, #116, .T. ) ;
#114 = CARTESIAN_POINT ( 'NONE',  ( -0.1250000000000000000, 0.0000000000000000000, 0.0000000000000000000 ) ) ;
#115 = PLANE ( 'NONE',  #16 ) ;
#116 = EDGE_CURVE ( 'NONE', #33, #22, #85, .T. ) ;
#117 =( NAMED_UNIT ( * ) SI_UNIT ( $, .STERADIAN. ) SOLID_ANGLE_UNIT ( ) );
#118 = DIRECTION ( 'NONE',  ( 0.0000000000000000000, 0.0000000000000000000, -1.000000000000000000 ) ) ;
#119 =( NAMED_UNIT ( * ) PLANE_ANGLE_UNIT ( ) SI_UNIT ( $, .RADIAN. ) );
#120 = COLOUR_RGB ( '',0.7450980392156862900, 0.7450980392156862900, 0.7450980392156862900 ) ;
#121 = PRODUCT ( 'A-AWI-04-500', 'A-AWI-04-500', '', ( #15 ) ) ;
#122 = EDGE_CURVE ( 'NONE', #22, #132, #2, .T. ) ;
#123 = FACE_OUTER_BOUND ( 'NONE', #72, .T. ) ;
#124 = STYLED_ITEM ( 'NONE', ( #10 ), #7 ) ;
#125 = COLOUR_RGB ( '',0.7450980392156862900, 0.7450980392156862900, 0.7450980392156862900 ) ;
#126 =( NAMED_UNIT ( * ) PLANE_ANGLE_UNIT ( ) SI_UNIT ( $, .RADIAN. ) );
#127 = DIRECTION ( 'NONE',  ( 0.0000000000000000000, 0.0000000000000000000, 1.000000000000000000 ) ) ;
#128 = EDGE_CURVE ( 'NONE', #33, #12, #8, .T. ) ;
#129 = DIRECTION ( 'NONE',  ( -1.000000000000000000, 0.0000000000000000000, 0.0000000000000000000 ) ) ;
#130 = CARTESIAN_POINT ( 'NONE',  ( 0.0000000000000000000, 0.0000000000000000000, 0.0000000000000000000 ) ) ;
#131 = CARTESIAN_POINT ( 'NONE',  ( 0.0000000000000000000, 0.0000000000000000000, 0.0000000000000000000 ) ) ;
#132 = VERTEX_POINT ( 'NONE', #145 ) ;
#133 = AXIS2_PLACEMENT_3D ( 'NONE', #27, #147, #48 ) ;
#134 = EDGE_CURVE ( 'NONE', #12, #33, #1, .T. ) ;
#135 = SURFACE_STYLE_FILL_AREA ( #55 ) ;
#136 = AXIS2_PLACEMENT_3D ( 'NONE', #106, #5, #34 ) ;
#137 = ORIENTED_EDGE ( 'NONE', *, *, #62, .T. ) ;
#138 = ADVANCED_FACE ( 'NONE', ( #123 ), #61, .T. ) ;
#139 = AXIS2_PLACEMENT_3D ( 'NONE', #91, #56, #51 ) ;
#140 = DIMENSIONAL_EXPONENTS ( 1.000000000000000000, 0.0000000000000000000, 0.0000000000000000000, 0.0000000000000000000, 0.0000000000000000000, 0.0000000000000000000, 0.0000000000000000000 ) ;
#141 = ORIENTED_EDGE ( 'NONE', *, *, #11, .T. ) ;
#142 = AXIS2_PLACEMENT_3D ( 'NONE', #131, #17, #129 ) ;
#143 = CARTESIAN_POINT ( 'NONE',  ( -1.274800128156015700E-017, 2.868081883112086200E-018, -19.68503937007874100 ) ) ;
#144 =( LENGTH_UNIT ( ) NAMED_UNIT ( * ) SI_UNIT ( $, .METRE. ) );
#145 = CARTESIAN_POINT ( 'NONE',  ( -0.1250000000000000000, 0.0000000000000000000, -19.68503937007874100 ) ) ;
#146 =( GEOMETRIC_REPRESENTATION_CONTEXT ( 3 ) GLOBAL_UNCERTAINTY_ASSIGNED_CONTEXT ( ( #40 ) ) GLOBAL_UNIT_ASSIGNED_CONTEXT ( ( #112, #126, #53 ) ) REPRESENTATION_CONTEXT ( 'NONE', 'WORKASPACE' ) );
#147 = DIRECTION ( 'NONE',  ( 0.0000000000000000000, 0.0000000000000000000, 1.000000000000000000 ) ) ;
#148 = PLANE ( 'NONE',  #136 ) ;
#149 = AXIS2_PLACEMENT_3D ( 'NONE', #130, #92, #13 ) ;
ENDSEC;
END-ISO-10303-21;
