ISO-10303-21;
HEADER;
FILE_DESCRIPTION (( 'STEP AP214' ),
    '1' );
FILE_NAME ('A-AWI-08-1000.step',
    '2017-11-29T20:06:57',
    ( '' ),
    ( '' ),
    'SwSTEP 2.0',
    'SolidWorks 2017',
    '' );
FILE_SCHEMA (( 'AUTOMOTIVE_DESIGN' ));
ENDSEC;

DATA;
#1 = ORIENTED_EDGE ( 'NONE', *, *, #24, .F. ) ;
#2 = UNCERTAINTY_MEASURE_WITH_UNIT (LENGTH_MEASURE( 1.000000000000000100E-005 ), #20, 'distance_accuracy_value', 'NONE');
#3 = CARTESIAN_POINT ( 'NONE',  ( 0.2500000000000000000, 3.061616997868383000E-017, 0.0000000000000000000 ) ) ;
#4 = DIRECTION ( 'NONE',  ( -1.000000000000000000, 0.0000000000000000000, 0.0000000000000000000 ) ) ;
#5 = DIMENSIONAL_EXPONENTS ( 1.000000000000000000, 0.0000000000000000000, 0.0000000000000000000, 0.0000000000000000000, 0.0000000000000000000, 0.0000000000000000000, 0.0000000000000000000 ) ;
#6 =( GEOMETRIC_REPRESENTATION_CONTEXT ( 3 ) GLOBAL_UNCERTAINTY_ASSIGNED_CONTEXT ( ( #57 ) ) GLOBAL_UNIT_ASSIGNED_CONTEXT ( ( #77, #68, #148 ) ) REPRESENTATION_CONTEXT ( 'NONE', 'WORKASPACE' ) );
#7 = DIRECTION ( 'NONE',  ( 0.0000000000000000000, 0.0000000000000000000, 1.000000000000000000 ) ) ;
#8 =( NAMED_UNIT ( * ) PLANE_ANGLE_UNIT ( ) SI_UNIT ( $, .RADIAN. ) );
#9 = CARTESIAN_POINT ( 'NONE',  ( 0.0000000000000000000, 0.0000000000000000000, 0.0000000000000000000 ) ) ;
#10 = ORIENTED_EDGE ( 'NONE', *, *, #107, .T. ) ;
#11 =( NAMED_UNIT ( * ) PLANE_ANGLE_UNIT ( ) SI_UNIT ( $, .RADIAN. ) );
#12 = MECHANICAL_DESIGN_GEOMETRIC_PRESENTATION_REPRESENTATION (  '', ( #79 ), #16 ) ;
#13 = DIRECTION ( 'NONE',  ( 0.0000000000000000000, 0.0000000000000000000, 1.000000000000000000 ) ) ;
#14 = PRODUCT_DEFINITION ( 'UNKNOWN', '', #51, #34 ) ;
#15 = DIRECTION ( 'NONE',  ( -1.000000000000000000, 0.0000000000000000000, 0.0000000000000000000 ) ) ;
#16 =( GEOMETRIC_REPRESENTATION_CONTEXT ( 3 ) GLOBAL_UNCERTAINTY_ASSIGNED_CONTEXT ( ( #2 ) ) GLOBAL_UNIT_ASSIGNED_CONTEXT ( ( #20, #11, #21 ) ) REPRESENTATION_CONTEXT ( 'NONE', 'WORKASPACE' ) );
#17 = DIRECTION ( 'NONE',  ( -1.000000000000000000, 0.0000000000000000000, 0.0000000000000000000 ) ) ;
#18 = DIRECTION ( 'NONE',  ( 0.0000000000000000000, 0.0000000000000000000, -1.000000000000000000 ) ) ;
#19 = DIRECTION ( 'NONE',  ( 0.0000000000000000000, 0.0000000000000000000, -1.000000000000000000 ) ) ;
#20 =( CONVERSION_BASED_UNIT ( 'INCH', #138 ) LENGTH_UNIT ( ) NAMED_UNIT ( #5 ) );
#21 =( NAMED_UNIT ( * ) SI_UNIT ( $, .STERADIAN. ) SOLID_ANGLE_UNIT ( ) );
#22 = APPLICATION_PROTOCOL_DEFINITION ( 'draft international standard', 'automotive_design', 1998, #44 ) ;
#23 = PRESENTATION_LAYER_ASSIGNMENT (  '', '', ( #91 ) ) ;
#24 = EDGE_CURVE ( 'NONE', #104, #50, #75, .T. ) ;
#25 = ORIENTED_EDGE ( 'NONE', *, *, #70, .F. ) ;
#26 = SURFACE_STYLE_FILL_AREA ( #99 ) ;
#27 = AXIS2_PLACEMENT_3D ( 'NONE', #49, #127, #97 ) ;
#28 = COLOUR_RGB ( '',0.7450980392156862900, 0.7450980392156862900, 0.7450980392156862900 ) ;
#29 = ADVANCED_BREP_SHAPE_REPRESENTATION ( 'A-AWI-08-1000', ( #43, #61 ), #6 ) ;
#30 = DIRECTION ( 'NONE',  ( -1.000000000000000000, 0.0000000000000000000, 0.0000000000000000000 ) ) ;
#31 = DIRECTION ( 'NONE',  ( -0.0000000000000000000, -0.0000000000000000000, 1.000000000000000000 ) ) ;
#32 = DIMENSIONAL_EXPONENTS ( 1.000000000000000000, 0.0000000000000000000, 0.0000000000000000000, 0.0000000000000000000, 0.0000000000000000000, 0.0000000000000000000, 0.0000000000000000000 ) ;
#33 = CLOSED_SHELL ( 'NONE', ( #131, #96, #145, #65 ) ) ;
#34 = PRODUCT_DEFINITION_CONTEXT ( 'detailed design', #42, 'design' ) ;
#35 = FACE_OUTER_BOUND ( 'NONE', #36, .T. ) ;
#36 = EDGE_LOOP ( 'NONE', ( #71, #118, #113, #10 ) ) ;
#37 = CYLINDRICAL_SURFACE ( 'NONE', #105, 0.2500000000000000000 ) ;
#38 = CARTESIAN_POINT ( 'NONE',  ( 0.2500000000000000000, 3.061616997868383000E-017, -39.37007874015748100 ) ) ;
#39 = CARTESIAN_POINT ( 'NONE',  ( -2.549600256312035400E-017, 5.736163766224172500E-018, 0.0000000000000000000 ) ) ;
#40 =( LENGTH_UNIT ( ) NAMED_UNIT ( * ) SI_UNIT ( $, .METRE. ) );
#41 = DIRECTION ( 'NONE',  ( -1.000000000000000000, 0.0000000000000000000, 0.0000000000000000000 ) ) ;
#42 = APPLICATION_CONTEXT ( 'automotive_design' ) ;
#43 = MANIFOLD_SOLID_BREP ( 'Solid1', #33 ) ;
#44 = APPLICATION_CONTEXT ( 'automotive_design' ) ;
#45 = EDGE_LOOP ( 'NONE', ( #124, #1 ) ) ;
#46 = PRESENTATION_LAYER_ASSIGNMENT (  '', '', ( #79 ) ) ;
#47 = DIMENSIONAL_EXPONENTS ( 1.000000000000000000, 0.0000000000000000000, 0.0000000000000000000, 0.0000000000000000000, 0.0000000000000000000, 0.0000000000000000000, 0.0000000000000000000 ) ;
#48 = DIRECTION ( 'NONE',  ( 0.0000000000000000000, 0.0000000000000000000, -1.000000000000000000 ) ) ;
#49 = CARTESIAN_POINT ( 'NONE',  ( 0.0000000000000000000, 0.0000000000000000000, 0.0000000000000000000 ) ) ;
#50 = VERTEX_POINT ( 'NONE', #63 ) ;
#51 = PRODUCT_DEFINITION_FORMATION_WITH_SPECIFIED_SOURCE ( 'ANY', '', #56, .NOT_KNOWN. ) ;
#52 = CARTESIAN_POINT ( 'NONE',  ( 0.0000000000000000000, 0.0000000000000000000, 0.0000000000000000000 ) ) ;
#53 = LENGTH_MEASURE_WITH_UNIT ( LENGTH_MEASURE( 0.02539999999999999900 ), #40 );
#54 = EDGE_CURVE ( 'NONE', #104, #149, #78, .T. ) ;
#55 = APPLICATION_PROTOCOL_DEFINITION ( 'draft international standard', 'automotive_design', 1998, #42 ) ;
#56 = PRODUCT ( 'A-AWI-08-1000', 'A-AWI-08-1000', '', ( #112 ) ) ;
#57 = UNCERTAINTY_MEASURE_WITH_UNIT (LENGTH_MEASURE( 1.000000000000000100E-005 ), #77, 'distance_accuracy_value', 'NONE');
#58 = CIRCLE ( 'NONE', #59, 0.2500000000000000000 ) ;
#59 = AXIS2_PLACEMENT_3D ( 'NONE', #84, #31, #15 ) ;
#60 = CIRCLE ( 'NONE', #85, 0.2500000000000000000 ) ;
#61 = AXIS2_PLACEMENT_3D ( 'NONE', #9, #13, #89 ) ;
#62 = DIRECTION ( 'NONE',  ( 0.0000000000000000000, 0.0000000000000000000, 1.000000000000000000 ) ) ;
#63 = CARTESIAN_POINT ( 'NONE',  ( -0.2500000000000000000, 0.0000000000000000000, 0.0000000000000000000 ) ) ;
#64 = ORIENTED_EDGE ( 'NONE', *, *, #83, .F. ) ;
#65 = ADVANCED_FACE ( 'NONE', ( #76 ), #119, .F. ) ;
#66 =( LENGTH_UNIT ( ) NAMED_UNIT ( * ) SI_UNIT ( $, .METRE. ) );
#67 = ORIENTED_EDGE ( 'NONE', *, *, #54, .T. ) ;
#68 =( NAMED_UNIT ( * ) PLANE_ANGLE_UNIT ( ) SI_UNIT ( $, .RADIAN. ) );
#69 = VECTOR ( 'NONE', #19, 39.37007874015748100 ) ;
#70 = EDGE_CURVE ( 'NONE', #50, #136, #103, .T. ) ;
#71 = ORIENTED_EDGE ( 'NONE', *, *, #54, .F. ) ;
#72 = DIRECTION ( 'NONE',  ( 0.0000000000000000000, 0.0000000000000000000, -1.000000000000000000 ) ) ;
#73 = DIRECTION ( 'NONE',  ( -0.0000000000000000000, -0.0000000000000000000, 1.000000000000000000 ) ) ;
#74 = SURFACE_SIDE_STYLE ('',( #26 ) ) ;
#75 = CIRCLE ( 'NONE', #129, 0.2500000000000000000 ) ;
#76 = FACE_OUTER_BOUND ( 'NONE', #94, .T. ) ;
#77 =( CONVERSION_BASED_UNIT ( 'INCH', #126 ) LENGTH_UNIT ( ) NAMED_UNIT ( #47 ) );
#78 = LINE ( 'NONE', #141, #69 ) ;
#79 = STYLED_ITEM ( 'NONE', ( #110 ), #29 ) ;
#80 = SHAPE_DEFINITION_REPRESENTATION ( #92, #29 ) ;
#81 = UNCERTAINTY_MEASURE_WITH_UNIT (LENGTH_MEASURE( 1.000000000000000100E-005 ), #117, 'distance_accuracy_value', 'NONE');
#82 = CIRCLE ( 'NONE', #100, 0.2500000000000000000 ) ;
#83 = EDGE_CURVE ( 'NONE', #149, #136, #58, .T. ) ;
#84 = CARTESIAN_POINT ( 'NONE',  ( 0.0000000000000000000, 0.0000000000000000000, -39.37007874015748100 ) ) ;
#85 = AXIS2_PLACEMENT_3D ( 'NONE', #139, #73, #17 ) ;
#86 = PLANE ( 'NONE',  #93 ) ;
#87 = FILL_AREA_STYLE_COLOUR ( '', #28 ) ;
#88 = DIRECTION ( 'NONE',  ( 1.000000000000000000, 0.0000000000000000000, -0.0000000000000000000 ) ) ;
#89 = DIRECTION ( 'NONE',  ( 1.000000000000000000, 0.0000000000000000000, 0.0000000000000000000 ) ) ;
#90 = SURFACE_STYLE_FILL_AREA ( #102 ) ;
#91 = STYLED_ITEM ( 'NONE', ( #114 ), #43 ) ;
#92 = PRODUCT_DEFINITION_SHAPE ( 'NONE', 'NONE',  #14 ) ;
#93 = AXIS2_PLACEMENT_3D ( 'NONE', #39, #7, #88 ) ;
#94 = EDGE_LOOP ( 'NONE', ( #121, #64 ) ) ;
#95 = SURFACE_STYLE_USAGE ( .BOTH. , #74 ) ;
#96 = ADVANCED_FACE ( 'NONE', ( #35 ), #37, .T. ) ;
#97 = DIRECTION ( 'NONE',  ( -1.000000000000000000, 0.0000000000000000000, 0.0000000000000000000 ) ) ;
#98 = CARTESIAN_POINT ( 'NONE',  ( 0.0000000000000000000, 0.0000000000000000000, 0.0000000000000000000 ) ) ;
#99 = FILL_AREA_STYLE ('',( #87 ) ) ;
#100 = AXIS2_PLACEMENT_3D ( 'NONE', #98, #109, #30 ) ;
#101 = ORIENTED_EDGE ( 'NONE', *, *, #83, .T. ) ;
#102 = FILL_AREA_STYLE ('',( #134 ) ) ;
#103 = LINE ( 'NONE', #130, #146 ) ;
#104 = VERTEX_POINT ( 'NONE', #3 ) ;
#105 = AXIS2_PLACEMENT_3D ( 'NONE', #111, #48, #41 ) ;
#106 = CYLINDRICAL_SURFACE ( 'NONE', #27, 0.2500000000000000000 ) ;
#107 = EDGE_CURVE ( 'NONE', #136, #149, #60, .T. ) ;
#108 = CARTESIAN_POINT ( 'NONE',  ( -2.549600256312035400E-017, 5.736163766224172500E-018, -39.37007874015748100 ) ) ;
#109 = DIRECTION ( 'NONE',  ( 0.0000000000000000000, 0.0000000000000000000, -1.000000000000000000 ) ) ;
#110 = PRESENTATION_STYLE_ASSIGNMENT (( #147 ) ) ;
#111 = CARTESIAN_POINT ( 'NONE',  ( 0.0000000000000000000, 0.0000000000000000000, 0.0000000000000000000 ) ) ;
#112 = PRODUCT_CONTEXT ( 'NONE', #44, 'mechanical' ) ;
#113 = ORIENTED_EDGE ( 'NONE', *, *, #70, .T. ) ;
#114 = PRESENTATION_STYLE_ASSIGNMENT (( #95 ) ) ;
#115 = MECHANICAL_DESIGN_GEOMETRIC_PRESENTATION_REPRESENTATION (  '', ( #91 ), #144 ) ;
#116 = FACE_OUTER_BOUND ( 'NONE', #45, .T. ) ;
#117 =( CONVERSION_BASED_UNIT ( 'INCH', #53 ) LENGTH_UNIT ( ) NAMED_UNIT ( #32 ) );
#118 = ORIENTED_EDGE ( 'NONE', *, *, #24, .T. ) ;
#119 = PLANE ( 'NONE',  #123 ) ;
#120 = DIRECTION ( 'NONE',  ( 1.000000000000000000, 0.0000000000000000000, -0.0000000000000000000 ) ) ;
#121 = ORIENTED_EDGE ( 'NONE', *, *, #107, .F. ) ;
#122 = PRODUCT_RELATED_PRODUCT_CATEGORY ( 'part', '', ( #56 ) ) ;
#123 = AXIS2_PLACEMENT_3D ( 'NONE', #108, #62, #120 ) ;
#124 = ORIENTED_EDGE ( 'NONE', *, *, #132, .F. ) ;
#125 = EDGE_LOOP ( 'NONE', ( #140, #67, #101, #25 ) ) ;
#126 = LENGTH_MEASURE_WITH_UNIT ( LENGTH_MEASURE( 0.02539999999999999900 ), #133 );
#127 = DIRECTION ( 'NONE',  ( 0.0000000000000000000, 0.0000000000000000000, -1.000000000000000000 ) ) ;
#128 =( NAMED_UNIT ( * ) SI_UNIT ( $, .STERADIAN. ) SOLID_ANGLE_UNIT ( ) );
#129 = AXIS2_PLACEMENT_3D ( 'NONE', #52, #18, #4 ) ;
#130 = CARTESIAN_POINT ( 'NONE',  ( -0.2500000000000000000, 0.0000000000000000000, 0.0000000000000000000 ) ) ;
#131 = ADVANCED_FACE ( 'NONE', ( #137 ), #106, .T. ) ;
#132 = EDGE_CURVE ( 'NONE', #50, #104, #82, .T. ) ;
#133 =( LENGTH_UNIT ( ) NAMED_UNIT ( * ) SI_UNIT ( $, .METRE. ) );
#134 = FILL_AREA_STYLE_COLOUR ( '', #142 ) ;
#135 = SURFACE_SIDE_STYLE ('',( #90 ) ) ;
#136 = VERTEX_POINT ( 'NONE', #143 ) ;
#137 = FACE_OUTER_BOUND ( 'NONE', #125, .T. ) ;
#138 = LENGTH_MEASURE_WITH_UNIT ( LENGTH_MEASURE( 0.02539999999999999900 ), #66 );
#139 = CARTESIAN_POINT ( 'NONE',  ( 0.0000000000000000000, 0.0000000000000000000, -39.37007874015748100 ) ) ;
#140 = ORIENTED_EDGE ( 'NONE', *, *, #132, .T. ) ;
#141 = CARTESIAN_POINT ( 'NONE',  ( 0.2500000000000000000, 3.061616997868383000E-017, 0.0000000000000000000 ) ) ;
#142 = COLOUR_RGB ( '',0.7450980392156862900, 0.7450980392156862900, 0.7450980392156862900 ) ;
#143 = CARTESIAN_POINT ( 'NONE',  ( -0.2500000000000000000, 0.0000000000000000000, -39.37007874015748100 ) ) ;
#144 =( GEOMETRIC_REPRESENTATION_CONTEXT ( 3 ) GLOBAL_UNCERTAINTY_ASSIGNED_CONTEXT ( ( #81 ) ) GLOBAL_UNIT_ASSIGNED_CONTEXT ( ( #117, #8, #128 ) ) REPRESENTATION_CONTEXT ( 'NONE', 'WORKASPACE' ) );
#145 = ADVANCED_FACE ( 'NONE', ( #116 ), #86, .T. ) ;
#146 = VECTOR ( 'NONE', #72, 39.37007874015748100 ) ;
#147 = SURFACE_STYLE_USAGE ( .BOTH. , #135 ) ;
#148 =( NAMED_UNIT ( * ) SI_UNIT ( $, .STERADIAN. ) SOLID_ANGLE_UNIT ( ) );
#149 = VERTEX_POINT ( 'NONE', #38 ) ;
ENDSEC;
END-ISO-10303-21;
