ISO-10303-21;
HEADER;
FILE_DESCRIPTION (( 'STEP AP214' ),
    '1' );
FILE_NAME ('A-AWI-08-250.step',
    '2017-11-29T20:06:30',
    ( '' ),
    ( '' ),
    'SwSTEP 2.0',
    'SolidWorks 2017',
    '' );
FILE_SCHEMA (( 'AUTOMOTIVE_DESIGN' ));
ENDSEC;

DATA;
#1 = UNCERTAINTY_MEASURE_WITH_UNIT (LENGTH_MEASURE( 1.000000000000000100E-005 ), #29, 'distance_accuracy_value', 'NONE');
#2 = VECTOR ( 'NONE', #40, 39.37007874015748100 ) ;
#3 = ADVANCED_FACE ( 'NONE', ( #143 ), #119, .T. ) ;
#4 = CIRCLE ( 'NONE', #71, 0.2500000000000000000 ) ;
#5 = EDGE_CURVE ( 'NONE', #69, #117, #55, .T. ) ;
#6 = AXIS2_PLACEMENT_3D ( 'NONE', #116, #114, #144 ) ;
#7 = DIRECTION ( 'NONE',  ( 0.0000000000000000000, 0.0000000000000000000, 1.000000000000000000 ) ) ;
#8 = CARTESIAN_POINT ( 'NONE',  ( 0.0000000000000000000, 0.0000000000000000000, 0.0000000000000000000 ) ) ;
#9 = CARTESIAN_POINT ( 'NONE',  ( -2.549600256312035400E-017, 5.736163766224172500E-018, -9.842519685039370400 ) ) ;
#10 = MECHANICAL_DESIGN_GEOMETRIC_PRESENTATION_REPRESENTATION (  '', ( #109 ), #110 ) ;
#11 = DIRECTION ( 'NONE',  ( -0.0000000000000000000, -0.0000000000000000000, 1.000000000000000000 ) ) ;
#12 = PRESENTATION_STYLE_ASSIGNMENT (( #127 ) ) ;
#13 = ADVANCED_FACE ( 'NONE', ( #43 ), #130, .T. ) ;
#14 = ADVANCED_FACE ( 'NONE', ( #94 ), #50, .F. ) ;
#15 = ORIENTED_EDGE ( 'NONE', *, *, #74, .T. ) ;
#16 = ORIENTED_EDGE ( 'NONE', *, *, #23, .F. ) ;
#17 = LENGTH_MEASURE_WITH_UNIT ( LENGTH_MEASURE( 0.02539999999999999900 ), #57 );
#18 = APPLICATION_PROTOCOL_DEFINITION ( 'draft international standard', 'automotive_design', 1998, #44 ) ;
#19 =( NAMED_UNIT ( * ) PLANE_ANGLE_UNIT ( ) SI_UNIT ( $, .RADIAN. ) );
#20 = DIRECTION ( 'NONE',  ( 0.0000000000000000000, 0.0000000000000000000, -1.000000000000000000 ) ) ;
#21 =( NAMED_UNIT ( * ) SI_UNIT ( $, .STERADIAN. ) SOLID_ANGLE_UNIT ( ) );
#22 = CARTESIAN_POINT ( 'NONE',  ( 0.0000000000000000000, 0.0000000000000000000, -9.842519685039370400 ) ) ;
#23 = EDGE_CURVE ( 'NONE', #28, #117, #32, .T. ) ;
#24 = LENGTH_MEASURE_WITH_UNIT ( LENGTH_MEASURE( 0.02539999999999999900 ), #41 );
#25 = ORIENTED_EDGE ( 'NONE', *, *, #85, .F. ) ;
#26 = APPLICATION_PROTOCOL_DEFINITION ( 'draft international standard', 'automotive_design', 1998, #90 ) ;
#27 = CARTESIAN_POINT ( 'NONE',  ( 0.0000000000000000000, 0.0000000000000000000, 0.0000000000000000000 ) ) ;
#28 = VERTEX_POINT ( 'NONE', #98 ) ;
#29 =( CONVERSION_BASED_UNIT ( 'INCH', #140 ) LENGTH_UNIT ( ) NAMED_UNIT ( #72 ) );
#30 =( CONVERSION_BASED_UNIT ( 'INCH', #24 ) LENGTH_UNIT ( ) NAMED_UNIT ( #58 ) );
#31 = FILL_AREA_STYLE_COLOUR ( '', #120 ) ;
#32 = LINE ( 'NONE', #128, #2 ) ;
#33 = AXIS2_PLACEMENT_3D ( 'NONE', #22, #39, #42 ) ;
#34 = ORIENTED_EDGE ( 'NONE', *, *, #5, .F. ) ;
#35 = FILL_AREA_STYLE_COLOUR ( '', #82 ) ;
#36 = FILL_AREA_STYLE ('',( #35 ) ) ;
#37 = ORIENTED_EDGE ( 'NONE', *, *, #56, .T. ) ;
#38 = CIRCLE ( 'NONE', #45, 0.2500000000000000000 ) ;
#39 = DIRECTION ( 'NONE',  ( -0.0000000000000000000, -0.0000000000000000000, 1.000000000000000000 ) ) ;
#40 = DIRECTION ( 'NONE',  ( 0.0000000000000000000, 0.0000000000000000000, -1.000000000000000000 ) ) ;
#41 =( LENGTH_UNIT ( ) NAMED_UNIT ( * ) SI_UNIT ( $, .METRE. ) );
#42 = DIRECTION ( 'NONE',  ( -1.000000000000000000, 0.0000000000000000000, 0.0000000000000000000 ) ) ;
#43 = FACE_OUTER_BOUND ( 'NONE', #54, .T. ) ;
#44 = APPLICATION_CONTEXT ( 'automotive_design' ) ;
#45 = AXIS2_PLACEMENT_3D ( 'NONE', #125, #118, #52 ) ;
#46 =( CONVERSION_BASED_UNIT ( 'INCH', #17 ) LENGTH_UNIT ( ) NAMED_UNIT ( #81 ) );
#47 = MANIFOLD_SOLID_BREP ( 'Solid1', #107 ) ;
#48 = ORIENTED_EDGE ( 'NONE', *, *, #74, .F. ) ;
#49 = EDGE_LOOP ( 'NONE', ( #34, #25 ) ) ;
#50 = PLANE ( 'NONE',  #84 ) ;
#51 =( GEOMETRIC_REPRESENTATION_CONTEXT ( 3 ) GLOBAL_UNCERTAINTY_ASSIGNED_CONTEXT ( ( #103 ) ) GLOBAL_UNIT_ASSIGNED_CONTEXT ( ( #46, #122, #21 ) ) REPRESENTATION_CONTEXT ( 'NONE', 'WORKASPACE' ) );
#52 = DIRECTION ( 'NONE',  ( -1.000000000000000000, 0.0000000000000000000, 0.0000000000000000000 ) ) ;
#53 =( LENGTH_UNIT ( ) NAMED_UNIT ( * ) SI_UNIT ( $, .METRE. ) );
#54 = EDGE_LOOP ( 'NONE', ( #89, #137, #83, #139 ) ) ;
#55 = CIRCLE ( 'NONE', #33, 0.2500000000000000000 ) ;
#56 = EDGE_CURVE ( 'NONE', #79, #69, #67, .T. ) ;
#57 =( LENGTH_UNIT ( ) NAMED_UNIT ( * ) SI_UNIT ( $, .METRE. ) );
#58 = DIMENSIONAL_EXPONENTS ( 1.000000000000000000, 0.0000000000000000000, 0.0000000000000000000, 0.0000000000000000000, 0.0000000000000000000, 0.0000000000000000000, 0.0000000000000000000 ) ;
#59 = SURFACE_STYLE_FILL_AREA ( #146 ) ;
#60 = PRESENTATION_STYLE_ASSIGNMENT (( #92 ) ) ;
#61 = AXIS2_PLACEMENT_3D ( 'NONE', #97, #138, #87 ) ;
#62 = ORIENTED_EDGE ( 'NONE', *, *, #80, .F. ) ;
#63 = DIRECTION ( 'NONE',  ( -1.000000000000000000, 0.0000000000000000000, 0.0000000000000000000 ) ) ;
#64 = PRODUCT_DEFINITION_SHAPE ( 'NONE', 'NONE',  #123 ) ;
#65 = UNCERTAINTY_MEASURE_WITH_UNIT (LENGTH_MEASURE( 1.000000000000000100E-005 ), #30, 'distance_accuracy_value', 'NONE');
#66 = AXIS2_PLACEMENT_3D ( 'NONE', #8, #73, #63 ) ;
#67 = LINE ( 'NONE', #68, #77 ) ;
#68 = CARTESIAN_POINT ( 'NONE',  ( -0.2500000000000000000, 0.0000000000000000000, 0.0000000000000000000 ) ) ;
#69 = VERTEX_POINT ( 'NONE', #129 ) ;
#70 = ADVANCED_BREP_SHAPE_REPRESENTATION ( 'A-AWI-08-250', ( #47, #61 ), #51 ) ;
#71 = AXIS2_PLACEMENT_3D ( 'NONE', #148, #11, #102 ) ;
#72 = DIMENSIONAL_EXPONENTS ( 1.000000000000000000, 0.0000000000000000000, 0.0000000000000000000, 0.0000000000000000000, 0.0000000000000000000, 0.0000000000000000000, 0.0000000000000000000 ) ;
#73 = DIRECTION ( 'NONE',  ( 0.0000000000000000000, 0.0000000000000000000, -1.000000000000000000 ) ) ;
#74 = EDGE_CURVE ( 'NONE', #28, #79, #111, .T. ) ;
#75 = CARTESIAN_POINT ( 'NONE',  ( -0.2500000000000000000, 0.0000000000000000000, 0.0000000000000000000 ) ) ;
#76 = DIRECTION ( 'NONE',  ( 1.000000000000000000, 0.0000000000000000000, -0.0000000000000000000 ) ) ;
#77 = VECTOR ( 'NONE', #100, 39.37007874015748100 ) ;
#78 = PRODUCT_DEFINITION_CONTEXT ( 'detailed design', #44, 'design' ) ;
#79 = VERTEX_POINT ( 'NONE', #75 ) ;
#80 = EDGE_CURVE ( 'NONE', #79, #28, #38, .T. ) ;
#81 = DIMENSIONAL_EXPONENTS ( 1.000000000000000000, 0.0000000000000000000, 0.0000000000000000000, 0.0000000000000000000, 0.0000000000000000000, 0.0000000000000000000, 0.0000000000000000000 ) ;
#82 = COLOUR_RGB ( '',0.7450980392156862900, 0.7450980392156862900, 0.7450980392156862900 ) ;
#83 = ORIENTED_EDGE ( 'NONE', *, *, #85, .T. ) ;
#84 = AXIS2_PLACEMENT_3D ( 'NONE', #9, #7, #76 ) ;
#85 = EDGE_CURVE ( 'NONE', #117, #69, #4, .T. ) ;
#86 = DIRECTION ( 'NONE',  ( -1.000000000000000000, 0.0000000000000000000, 0.0000000000000000000 ) ) ;
#87 = DIRECTION ( 'NONE',  ( 1.000000000000000000, 0.0000000000000000000, 0.0000000000000000000 ) ) ;
#88 =( NAMED_UNIT ( * ) SI_UNIT ( $, .STERADIAN. ) SOLID_ANGLE_UNIT ( ) );
#89 = ORIENTED_EDGE ( 'NONE', *, *, #80, .T. ) ;
#90 = APPLICATION_CONTEXT ( 'automotive_design' ) ;
#91 = AXIS2_PLACEMENT_3D ( 'NONE', #27, #20, #86 ) ;
#92 = SURFACE_STYLE_USAGE ( .BOTH. , #101 ) ;
#93 = FACE_OUTER_BOUND ( 'NONE', #142, .T. ) ;
#94 = FACE_OUTER_BOUND ( 'NONE', #49, .T. ) ;
#95 =( GEOMETRIC_REPRESENTATION_CONTEXT ( 3 ) GLOBAL_UNCERTAINTY_ASSIGNED_CONTEXT ( ( #1 ) ) GLOBAL_UNIT_ASSIGNED_CONTEXT ( ( #29, #149, #126 ) ) REPRESENTATION_CONTEXT ( 'NONE', 'WORKASPACE' ) );
#96 = AXIS2_PLACEMENT_3D ( 'NONE', #135, #136, #113 ) ;
#97 = CARTESIAN_POINT ( 'NONE',  ( 0.0000000000000000000, 0.0000000000000000000, 0.0000000000000000000 ) ) ;
#98 = CARTESIAN_POINT ( 'NONE',  ( 0.2500000000000000000, 3.061616997868383000E-017, 0.0000000000000000000 ) ) ;
#99 = PRESENTATION_LAYER_ASSIGNMENT (  '', '', ( #105 ) ) ;
#100 = DIRECTION ( 'NONE',  ( 0.0000000000000000000, 0.0000000000000000000, -1.000000000000000000 ) ) ;
#101 = SURFACE_SIDE_STYLE ('',( #59 ) ) ;
#102 = DIRECTION ( 'NONE',  ( -1.000000000000000000, 0.0000000000000000000, 0.0000000000000000000 ) ) ;
#103 = UNCERTAINTY_MEASURE_WITH_UNIT (LENGTH_MEASURE( 1.000000000000000100E-005 ), #46, 'distance_accuracy_value', 'NONE');
#104 = SURFACE_STYLE_FILL_AREA ( #36 ) ;
#105 = STYLED_ITEM ( 'NONE', ( #60 ), #47 ) ;
#106 = ADVANCED_FACE ( 'NONE', ( #93 ), #124, .T. ) ;
#107 = CLOSED_SHELL ( 'NONE', ( #13, #106, #3, #14 ) ) ;
#108 = EDGE_LOOP ( 'NONE', ( #62, #48 ) ) ;
#109 = STYLED_ITEM ( 'NONE', ( #12 ), #70 ) ;
#110 =( GEOMETRIC_REPRESENTATION_CONTEXT ( 3 ) GLOBAL_UNCERTAINTY_ASSIGNED_CONTEXT ( ( #65 ) ) GLOBAL_UNIT_ASSIGNED_CONTEXT ( ( #30, #19, #88 ) ) REPRESENTATION_CONTEXT ( 'NONE', 'WORKASPACE' ) );
#111 = CIRCLE ( 'NONE', #91, 0.2500000000000000000 ) ;
#112 = MECHANICAL_DESIGN_GEOMETRIC_PRESENTATION_REPRESENTATION (  '', ( #105 ), #95 ) ;
#113 = DIRECTION ( 'NONE',  ( -1.000000000000000000, 0.0000000000000000000, 0.0000000000000000000 ) ) ;
#114 = DIRECTION ( 'NONE',  ( 0.0000000000000000000, 0.0000000000000000000, 1.000000000000000000 ) ) ;
#115 = SURFACE_SIDE_STYLE ('',( #104 ) ) ;
#116 = CARTESIAN_POINT ( 'NONE',  ( -2.549600256312035400E-017, 5.736163766224172500E-018, 0.0000000000000000000 ) ) ;
#117 = VERTEX_POINT ( 'NONE', #134 ) ;
#118 = DIRECTION ( 'NONE',  ( 0.0000000000000000000, 0.0000000000000000000, -1.000000000000000000 ) ) ;
#119 = PLANE ( 'NONE',  #6 ) ;
#120 = COLOUR_RGB ( '',0.7450980392156862900, 0.7450980392156862900, 0.7450980392156862900 ) ;
#121 = PRODUCT_DEFINITION_FORMATION_WITH_SPECIFIED_SOURCE ( 'ANY', '', #132, .NOT_KNOWN. ) ;
#122 =( NAMED_UNIT ( * ) PLANE_ANGLE_UNIT ( ) SI_UNIT ( $, .RADIAN. ) );
#123 = PRODUCT_DEFINITION ( 'UNKNOWN', '', #121, #78 ) ;
#124 = CYLINDRICAL_SURFACE ( 'NONE', #96, 0.2500000000000000000 ) ;
#125 = CARTESIAN_POINT ( 'NONE',  ( 0.0000000000000000000, 0.0000000000000000000, 0.0000000000000000000 ) ) ;
#126 =( NAMED_UNIT ( * ) SI_UNIT ( $, .STERADIAN. ) SOLID_ANGLE_UNIT ( ) );
#127 = SURFACE_STYLE_USAGE ( .BOTH. , #115 ) ;
#128 = CARTESIAN_POINT ( 'NONE',  ( 0.2500000000000000000, 3.061616997868383000E-017, 0.0000000000000000000 ) ) ;
#129 = CARTESIAN_POINT ( 'NONE',  ( -0.2500000000000000000, 0.0000000000000000000, -9.842519685039370400 ) ) ;
#130 = CYLINDRICAL_SURFACE ( 'NONE', #66, 0.2500000000000000000 ) ;
#131 = SHAPE_DEFINITION_REPRESENTATION ( #64, #70 ) ;
#132 = PRODUCT ( 'A-AWI-08-250', 'A-AWI-08-250', '', ( #145 ) ) ;
#133 = ORIENTED_EDGE ( 'NONE', *, *, #5, .T. ) ;
#134 = CARTESIAN_POINT ( 'NONE',  ( 0.2500000000000000000, 3.061616997868383000E-017, -9.842519685039370400 ) ) ;
#135 = CARTESIAN_POINT ( 'NONE',  ( 0.0000000000000000000, 0.0000000000000000000, 0.0000000000000000000 ) ) ;
#136 = DIRECTION ( 'NONE',  ( 0.0000000000000000000, 0.0000000000000000000, -1.000000000000000000 ) ) ;
#137 = ORIENTED_EDGE ( 'NONE', *, *, #23, .T. ) ;
#138 = DIRECTION ( 'NONE',  ( 0.0000000000000000000, 0.0000000000000000000, 1.000000000000000000 ) ) ;
#139 = ORIENTED_EDGE ( 'NONE', *, *, #56, .F. ) ;
#140 = LENGTH_MEASURE_WITH_UNIT ( LENGTH_MEASURE( 0.02539999999999999900 ), #53 );
#141 = PRODUCT_RELATED_PRODUCT_CATEGORY ( 'part', '', ( #132 ) ) ;
#142 = EDGE_LOOP ( 'NONE', ( #16, #15, #37, #133 ) ) ;
#143 = FACE_OUTER_BOUND ( 'NONE', #108, .T. ) ;
#144 = DIRECTION ( 'NONE',  ( 1.000000000000000000, 0.0000000000000000000, -0.0000000000000000000 ) ) ;
#145 = PRODUCT_CONTEXT ( 'NONE', #90, 'mechanical' ) ;
#146 = FILL_AREA_STYLE ('',( #31 ) ) ;
#147 = PRESENTATION_LAYER_ASSIGNMENT (  '', '', ( #109 ) ) ;
#148 = CARTESIAN_POINT ( 'NONE',  ( 0.0000000000000000000, 0.0000000000000000000, -9.842519685039370400 ) ) ;
#149 =( NAMED_UNIT ( * ) PLANE_ANGLE_UNIT ( ) SI_UNIT ( $, .RADIAN. ) );
ENDSEC;
END-ISO-10303-21;
