ISO-10303-21;
HEADER;
FILE_DESCRIPTION (( 'STEP AP214' ),
    '1' );
FILE_NAME ('A-AWI-08-500.step',
    '2017-11-29T20:06:42',
    ( '' ),
    ( '' ),
    'SwSTEP 2.0',
    'SolidWorks 2017',
    '' );
FILE_SCHEMA (( 'AUTOMOTIVE_DESIGN' ));
ENDSEC;

DATA;
#1 = EDGE_LOOP ( 'NONE', ( #8, #129, #86, #124 ) ) ;
#2 = ORIENTED_EDGE ( 'NONE', *, *, #78, .T. ) ;
#3 = CARTESIAN_POINT ( 'NONE',  ( -0.2500000000000000000, 0.0000000000000000000, 0.0000000000000000000 ) ) ;
#4 = AXIS2_PLACEMENT_3D ( 'NONE', #41, #82, #149 ) ;
#5 =( LENGTH_UNIT ( ) NAMED_UNIT ( * ) SI_UNIT ( $, .METRE. ) );
#6 = DIRECTION ( 'NONE',  ( 0.0000000000000000000, 0.0000000000000000000, 1.000000000000000000 ) ) ;
#7 = CARTESIAN_POINT ( 'NONE',  ( 0.0000000000000000000, 0.0000000000000000000, 0.0000000000000000000 ) ) ;
#8 = ORIENTED_EDGE ( 'NONE', *, *, #78, .F. ) ;
#9 = ORIENTED_EDGE ( 'NONE', *, *, #42, .F. ) ;
#10 = AXIS2_PLACEMENT_3D ( 'NONE', #21, #93, #83 ) ;
#11 = CIRCLE ( 'NONE', #147, 0.2500000000000000000 ) ;
#12 = ADVANCED_FACE ( 'NONE', ( #16 ), #14, .T. ) ;
#13 = CARTESIAN_POINT ( 'NONE',  ( 0.0000000000000000000, 0.0000000000000000000, 0.0000000000000000000 ) ) ;
#14 = PLANE ( 'NONE',  #59 ) ;
#15 = CARTESIAN_POINT ( 'NONE',  ( 0.0000000000000000000, 0.0000000000000000000, 0.0000000000000000000 ) ) ;
#16 = FACE_OUTER_BOUND ( 'NONE', #57, .T. ) ;
#17 = FILL_AREA_STYLE_COLOUR ( '', #45 ) ;
#18 =( CONVERSION_BASED_UNIT ( 'INCH', #52 ) LENGTH_UNIT ( ) NAMED_UNIT ( #75 ) );
#19 = DIRECTION ( 'NONE',  ( -1.000000000000000000, 0.0000000000000000000, 0.0000000000000000000 ) ) ;
#20 = VERTEX_POINT ( 'NONE', #3 ) ;
#21 = CARTESIAN_POINT ( 'NONE',  ( 0.0000000000000000000, 0.0000000000000000000, -19.68503937007874100 ) ) ;
#22 = VECTOR ( 'NONE', #103, 39.37007874015748100 ) ;
#23 = AXIS2_PLACEMENT_3D ( 'NONE', #33, #6, #144 ) ;
#24 = LINE ( 'NONE', #105, #22 ) ;
#25 = CIRCLE ( 'NONE', #4, 0.2500000000000000000 ) ;
#26 = COLOUR_RGB ( '',0.7450980392156862900, 0.7450980392156862900, 0.7450980392156862900 ) ;
#27 = CARTESIAN_POINT ( 'NONE',  ( 0.2500000000000000000, 3.061616997868383000E-017, 0.0000000000000000000 ) ) ;
#28 = CARTESIAN_POINT ( 'NONE',  ( -2.549600256312035400E-017, 5.736163766224172500E-018, 0.0000000000000000000 ) ) ;
#29 = MECHANICAL_DESIGN_GEOMETRIC_PRESENTATION_REPRESENTATION (  '', ( #132 ), #141 ) ;
#30 = STYLED_ITEM ( 'NONE', ( #116 ), #34 ) ;
#31 = SURFACE_SIDE_STYLE ('',( #76 ) ) ;
#32 =( LENGTH_UNIT ( ) NAMED_UNIT ( * ) SI_UNIT ( $, .METRE. ) );
#33 = CARTESIAN_POINT ( 'NONE',  ( -2.549600256312035400E-017, 5.736163766224172500E-018, -19.68503937007874100 ) ) ;
#34 = ADVANCED_BREP_SHAPE_REPRESENTATION ( 'A-AWI-08-500', ( #106, #53 ), #64 ) ;
#35 = VERTEX_POINT ( 'NONE', #54 ) ;
#36 = DIRECTION ( 'NONE',  ( 0.0000000000000000000, 0.0000000000000000000, -1.000000000000000000 ) ) ;
#37 = DIRECTION ( 'NONE',  ( -1.000000000000000000, 0.0000000000000000000, 0.0000000000000000000 ) ) ;
#38 =( NAMED_UNIT ( * ) SI_UNIT ( $, .STERADIAN. ) SOLID_ANGLE_UNIT ( ) );
#39 = FILL_AREA_STYLE ('',( #107 ) ) ;
#40 = DIRECTION ( 'NONE',  ( 1.000000000000000000, 0.0000000000000000000, 0.0000000000000000000 ) ) ;
#41 = CARTESIAN_POINT ( 'NONE',  ( 0.0000000000000000000, 0.0000000000000000000, 0.0000000000000000000 ) ) ;
#42 = EDGE_CURVE ( 'NONE', #35, #101, #125, .T. ) ;
#43 = FACE_OUTER_BOUND ( 'NONE', #108, .T. ) ;
#44 = UNCERTAINTY_MEASURE_WITH_UNIT (LENGTH_MEASURE( 1.000000000000000100E-005 ), #51, 'distance_accuracy_value', 'NONE');
#45 = COLOUR_RGB ( '',0.7450980392156862900, 0.7450980392156862900, 0.7450980392156862900 ) ;
#46 = ADVANCED_FACE ( 'NONE', ( #47 ), #112, .T. ) ;
#47 = FACE_OUTER_BOUND ( 'NONE', #62, .T. ) ;
#48 = CARTESIAN_POINT ( 'NONE',  ( -0.2500000000000000000, 0.0000000000000000000, 0.0000000000000000000 ) ) ;
#49 = VERTEX_POINT ( 'NONE', #27 ) ;
#50 = APPLICATION_PROTOCOL_DEFINITION ( 'draft international standard', 'automotive_design', 1998, #119 ) ;
#51 =( CONVERSION_BASED_UNIT ( 'INCH', #88 ) LENGTH_UNIT ( ) NAMED_UNIT ( #130 ) );
#52 = LENGTH_MEASURE_WITH_UNIT ( LENGTH_MEASURE( 0.02539999999999999900 ), #5 );
#53 = AXIS2_PLACEMENT_3D ( 'NONE', #56, #135, #40 ) ;
#54 = CARTESIAN_POINT ( 'NONE',  ( -0.2500000000000000000, 0.0000000000000000000, -19.68503937007874100 ) ) ;
#55 =( NAMED_UNIT ( * ) PLANE_ANGLE_UNIT ( ) SI_UNIT ( $, .RADIAN. ) );
#56 = CARTESIAN_POINT ( 'NONE',  ( 0.0000000000000000000, 0.0000000000000000000, 0.0000000000000000000 ) ) ;
#57 = EDGE_LOOP ( 'NONE', ( #114, #94 ) ) ;
#58 = SHAPE_DEFINITION_REPRESENTATION ( #95, #34 ) ;
#59 = AXIS2_PLACEMENT_3D ( 'NONE', #28, #67, #131 ) ;
#60 = PRESENTATION_LAYER_ASSIGNMENT (  '', '', ( #30 ) ) ;
#61 = ORIENTED_EDGE ( 'NONE', *, *, #84, .F. ) ;
#62 = EDGE_LOOP ( 'NONE', ( #138, #2, #142, #61 ) ) ;
#63 = MECHANICAL_DESIGN_GEOMETRIC_PRESENTATION_REPRESENTATION (  '', ( #30 ), #98 ) ;
#64 =( GEOMETRIC_REPRESENTATION_CONTEXT ( 3 ) GLOBAL_UNCERTAINTY_ASSIGNED_CONTEXT ( ( #73 ) ) GLOBAL_UNIT_ASSIGNED_CONTEXT ( ( #68, #55, #38 ) ) REPRESENTATION_CONTEXT ( 'NONE', 'WORKASPACE' ) );
#65 = CLOSED_SHELL ( 'NONE', ( #46, #85, #12, #128 ) ) ;
#66 = FACE_OUTER_BOUND ( 'NONE', #1, .T. ) ;
#67 = DIRECTION ( 'NONE',  ( 0.0000000000000000000, 0.0000000000000000000, 1.000000000000000000 ) ) ;
#68 =( CONVERSION_BASED_UNIT ( 'INCH', #121 ) LENGTH_UNIT ( ) NAMED_UNIT ( #89 ) );
#69 = DIRECTION ( 'NONE',  ( -0.0000000000000000000, -0.0000000000000000000, 1.000000000000000000 ) ) ;
#70 =( LENGTH_UNIT ( ) NAMED_UNIT ( * ) SI_UNIT ( $, .METRE. ) );
#71 = FILL_AREA_STYLE ('',( #17 ) ) ;
#72 = PRESENTATION_STYLE_ASSIGNMENT (( #110 ) ) ;
#73 = UNCERTAINTY_MEASURE_WITH_UNIT (LENGTH_MEASURE( 1.000000000000000100E-005 ), #68, 'distance_accuracy_value', 'NONE');
#74 = CARTESIAN_POINT ( 'NONE',  ( 0.0000000000000000000, 0.0000000000000000000, -19.68503937007874100 ) ) ;
#75 = DIMENSIONAL_EXPONENTS ( 1.000000000000000000, 0.0000000000000000000, 0.0000000000000000000, 0.0000000000000000000, 0.0000000000000000000, 0.0000000000000000000, 0.0000000000000000000 ) ;
#76 = SURFACE_STYLE_FILL_AREA ( #71 ) ;
#77 = DIRECTION ( 'NONE',  ( -1.000000000000000000, 0.0000000000000000000, 0.0000000000000000000 ) ) ;
#78 = EDGE_CURVE ( 'NONE', #49, #101, #24, .T. ) ;
#79 = PRODUCT ( 'A-AWI-08-500', 'A-AWI-08-500', '', ( #148 ) ) ;
#80 = DIRECTION ( 'NONE',  ( 0.0000000000000000000, 0.0000000000000000000, -1.000000000000000000 ) ) ;
#81 = APPLICATION_CONTEXT ( 'automotive_design' ) ;
#82 = DIRECTION ( 'NONE',  ( 0.0000000000000000000, 0.0000000000000000000, -1.000000000000000000 ) ) ;
#83 = DIRECTION ( 'NONE',  ( -1.000000000000000000, 0.0000000000000000000, 0.0000000000000000000 ) ) ;
#84 = EDGE_CURVE ( 'NONE', #20, #35, #96, .T. ) ;
#85 = ADVANCED_FACE ( 'NONE', ( #66 ), #99, .T. ) ;
#86 = ORIENTED_EDGE ( 'NONE', *, *, #84, .T. ) ;
#87 = DIRECTION ( 'NONE',  ( -1.000000000000000000, 0.0000000000000000000, 0.0000000000000000000 ) ) ;
#88 = LENGTH_MEASURE_WITH_UNIT ( LENGTH_MEASURE( 0.02539999999999999900 ), #32 );
#89 = DIMENSIONAL_EXPONENTS ( 1.000000000000000000, 0.0000000000000000000, 0.0000000000000000000, 0.0000000000000000000, 0.0000000000000000000, 0.0000000000000000000, 0.0000000000000000000 ) ;
#90 = CARTESIAN_POINT ( 'NONE',  ( 0.2500000000000000000, 3.061616997868383000E-017, -19.68503937007874100 ) ) ;
#91 =( NAMED_UNIT ( * ) PLANE_ANGLE_UNIT ( ) SI_UNIT ( $, .RADIAN. ) );
#92 = DIRECTION ( 'NONE',  ( 0.0000000000000000000, 0.0000000000000000000, -1.000000000000000000 ) ) ;
#93 = DIRECTION ( 'NONE',  ( -0.0000000000000000000, -0.0000000000000000000, 1.000000000000000000 ) ) ;
#94 = ORIENTED_EDGE ( 'NONE', *, *, #113, .F. ) ;
#95 = PRODUCT_DEFINITION_SHAPE ( 'NONE', 'NONE',  #111 ) ;
#96 = LINE ( 'NONE', #48, #139 ) ;
#97 = PRODUCT_DEFINITION_CONTEXT ( 'detailed design', #81, 'design' ) ;
#98 =( GEOMETRIC_REPRESENTATION_CONTEXT ( 3 ) GLOBAL_UNCERTAINTY_ASSIGNED_CONTEXT ( ( #120 ) ) GLOBAL_UNIT_ASSIGNED_CONTEXT ( ( #18, #91, #109 ) ) REPRESENTATION_CONTEXT ( 'NONE', 'WORKASPACE' ) );
#99 = CYLINDRICAL_SURFACE ( 'NONE', #123, 0.2500000000000000000 ) ;
#100 = AXIS2_PLACEMENT_3D ( 'NONE', #74, #69, #87 ) ;
#101 = VERTEX_POINT ( 'NONE', #90 ) ;
#102 = SURFACE_STYLE_FILL_AREA ( #39 ) ;
#103 = DIRECTION ( 'NONE',  ( 0.0000000000000000000, 0.0000000000000000000, -1.000000000000000000 ) ) ;
#104 = PRODUCT_DEFINITION_FORMATION_WITH_SPECIFIED_SOURCE ( 'ANY', '', #79, .NOT_KNOWN. ) ;
#105 = CARTESIAN_POINT ( 'NONE',  ( 0.2500000000000000000, 3.061616997868383000E-017, 0.0000000000000000000 ) ) ;
#106 = MANIFOLD_SOLID_BREP ( 'Solid1', #65 ) ;
#107 = FILL_AREA_STYLE_COLOUR ( '', #26 ) ;
#108 = EDGE_LOOP ( 'NONE', ( #9, #127 ) ) ;
#109 =( NAMED_UNIT ( * ) SI_UNIT ( $, .STERADIAN. ) SOLID_ANGLE_UNIT ( ) );
#110 = SURFACE_STYLE_USAGE ( .BOTH. , #118 ) ;
#111 = PRODUCT_DEFINITION ( 'UNKNOWN', '', #104, #97 ) ;
#112 = CYLINDRICAL_SURFACE ( 'NONE', #126, 0.2500000000000000000 ) ;
#113 = EDGE_CURVE ( 'NONE', #49, #20, #25, .T. ) ;
#114 = ORIENTED_EDGE ( 'NONE', *, *, #115, .F. ) ;
#115 = EDGE_CURVE ( 'NONE', #20, #49, #11, .T. ) ;
#116 = PRESENTATION_STYLE_ASSIGNMENT (( #137 ) ) ;
#117 = EDGE_CURVE ( 'NONE', #101, #35, #143, .T. ) ;
#118 = SURFACE_SIDE_STYLE ('',( #102 ) ) ;
#119 = APPLICATION_CONTEXT ( 'automotive_design' ) ;
#120 = UNCERTAINTY_MEASURE_WITH_UNIT (LENGTH_MEASURE( 1.000000000000000100E-005 ), #18, 'distance_accuracy_value', 'NONE');
#121 = LENGTH_MEASURE_WITH_UNIT ( LENGTH_MEASURE( 0.02539999999999999900 ), #70 );
#122 = PRODUCT_RELATED_PRODUCT_CATEGORY ( 'part', '', ( #79 ) ) ;
#123 = AXIS2_PLACEMENT_3D ( 'NONE', #15, #80, #37 ) ;
#124 = ORIENTED_EDGE ( 'NONE', *, *, #42, .T. ) ;
#125 = CIRCLE ( 'NONE', #100, 0.2500000000000000000 ) ;
#126 = AXIS2_PLACEMENT_3D ( 'NONE', #13, #36, #77 ) ;
#127 = ORIENTED_EDGE ( 'NONE', *, *, #117, .F. ) ;
#128 = ADVANCED_FACE ( 'NONE', ( #43 ), #134, .F. ) ;
#129 = ORIENTED_EDGE ( 'NONE', *, *, #113, .T. ) ;
#130 = DIMENSIONAL_EXPONENTS ( 1.000000000000000000, 0.0000000000000000000, 0.0000000000000000000, 0.0000000000000000000, 0.0000000000000000000, 0.0000000000000000000, 0.0000000000000000000 ) ;
#131 = DIRECTION ( 'NONE',  ( 1.000000000000000000, 0.0000000000000000000, -0.0000000000000000000 ) ) ;
#132 = STYLED_ITEM ( 'NONE', ( #72 ), #106 ) ;
#133 = DIRECTION ( 'NONE',  ( 0.0000000000000000000, 0.0000000000000000000, -1.000000000000000000 ) ) ;
#134 = PLANE ( 'NONE',  #23 ) ;
#135 = DIRECTION ( 'NONE',  ( 0.0000000000000000000, 0.0000000000000000000, 1.000000000000000000 ) ) ;
#136 =( NAMED_UNIT ( * ) PLANE_ANGLE_UNIT ( ) SI_UNIT ( $, .RADIAN. ) );
#137 = SURFACE_STYLE_USAGE ( .BOTH. , #31 ) ;
#138 = ORIENTED_EDGE ( 'NONE', *, *, #115, .T. ) ;
#139 = VECTOR ( 'NONE', #133, 39.37007874015748100 ) ;
#140 = PRESENTATION_LAYER_ASSIGNMENT (  '', '', ( #132 ) ) ;
#141 =( GEOMETRIC_REPRESENTATION_CONTEXT ( 3 ) GLOBAL_UNCERTAINTY_ASSIGNED_CONTEXT ( ( #44 ) ) GLOBAL_UNIT_ASSIGNED_CONTEXT ( ( #51, #136, #146 ) ) REPRESENTATION_CONTEXT ( 'NONE', 'WORKASPACE' ) );
#142 = ORIENTED_EDGE ( 'NONE', *, *, #117, .T. ) ;
#143 = CIRCLE ( 'NONE', #10, 0.2500000000000000000 ) ;
#144 = DIRECTION ( 'NONE',  ( 1.000000000000000000, 0.0000000000000000000, -0.0000000000000000000 ) ) ;
#145 = APPLICATION_PROTOCOL_DEFINITION ( 'draft international standard', 'automotive_design', 1998, #81 ) ;
#146 =( NAMED_UNIT ( * ) SI_UNIT ( $, .STERADIAN. ) SOLID_ANGLE_UNIT ( ) );
#147 = AXIS2_PLACEMENT_3D ( 'NONE', #7, #92, #19 ) ;
#148 = PRODUCT_CONTEXT ( 'NONE', #119, 'mechanical' ) ;
#149 = DIRECTION ( 'NONE',  ( -1.000000000000000000, 0.0000000000000000000, 0.0000000000000000000 ) ) ;
ENDSEC;
END-ISO-10303-21;
