ISO-10303-21;
HEADER;
FILE_DESCRIPTION (( 'STEP AP214' ),
    '1' );
FILE_NAME ('A-AWI-12-250.step',
    '2017-11-29T20:07:11',
    ( '' ),
    ( '' ),
    'SwSTEP 2.0',
    'SolidWorks 2017',
    '' );
FILE_SCHEMA (( 'AUTOMOTIVE_DESIGN' ));
ENDSEC;

DATA;
#1 =( GEOMETRIC_REPRESENTATION_CONTEXT ( 3 ) GLOBAL_UNCERTAINTY_ASSIGNED_CONTEXT ( ( #149 ) ) GLOBAL_UNIT_ASSIGNED_CONTEXT ( ( #7, #79, #128 ) ) REPRESENTATION_CONTEXT ( 'NONE', 'WORKASPACE' ) );
#2 = AXIS2_PLACEMENT_3D ( 'NONE', #58, #108, #122 ) ;
#3 = FILL_AREA_STYLE ('',( #60 ) ) ;
#4 = APPLICATION_PROTOCOL_DEFINITION ( 'draft international standard', 'automotive_design', 1998, #26 ) ;
#5 = CARTESIAN_POINT ( 'NONE',  ( 0.3750000000000000600, 4.592425496802575500E-017, 0.0000000000000000000 ) ) ;
#6 = VERTEX_POINT ( 'NONE', #18 ) ;
#7 =( CONVERSION_BASED_UNIT ( 'INCH', #77 ) LENGTH_UNIT ( ) NAMED_UNIT ( #134 ) );
#8 = ORIENTED_EDGE ( 'NONE', *, *, #106, .F. ) ;
#9 = PRODUCT_DEFINITION ( 'UNKNOWN', '', #101, #133 ) ;
#10 = AXIS2_PLACEMENT_3D ( 'NONE', #48, #36, #50 ) ;
#11 = PRESENTATION_STYLE_ASSIGNMENT (( #113 ) ) ;
#12 = ORIENTED_EDGE ( 'NONE', *, *, #116, .F. ) ;
#13 = EDGE_LOOP ( 'NONE', ( #100, #114, #41, #131 ) ) ;
#14 = EDGE_CURVE ( 'NONE', #86, #6, #136, .T. ) ;
#15 = LENGTH_MEASURE_WITH_UNIT ( LENGTH_MEASURE( 0.02539999999999999900 ), #51 );
#16 = DIRECTION ( 'NONE',  ( -0.0000000000000000000, -0.0000000000000000000, 1.000000000000000000 ) ) ;
#17 = AXIS2_PLACEMENT_3D ( 'NONE', #33, #59, #82 ) ;
#18 = CARTESIAN_POINT ( 'NONE',  ( -0.3750000000000000600, 0.0000000000000000000, 0.0000000000000000000 ) ) ;
#19 = FILL_AREA_STYLE_COLOUR ( '', #39 ) ;
#20 = DIRECTION ( 'NONE',  ( 0.0000000000000000000, 0.0000000000000000000, -1.000000000000000000 ) ) ;
#21 = AXIS2_PLACEMENT_3D ( 'NONE', #139, #123, #111 ) ;
#22 = SURFACE_SIDE_STYLE ('',( #117 ) ) ;
#23 = FACE_OUTER_BOUND ( 'NONE', #13, .T. ) ;
#24 = DIRECTION ( 'NONE',  ( 0.0000000000000000000, 0.0000000000000000000, 1.000000000000000000 ) ) ;
#25 = APPLICATION_CONTEXT ( 'automotive_design' ) ;
#26 = APPLICATION_CONTEXT ( 'automotive_design' ) ;
#27 = PRODUCT_RELATED_PRODUCT_CATEGORY ( 'part', '', ( #125 ) ) ;
#28 = PRODUCT_CONTEXT ( 'NONE', #26, 'mechanical' ) ;
#29 = CIRCLE ( 'NONE', #64, 0.3750000000000000600 ) ;
#30 = FACE_OUTER_BOUND ( 'NONE', #92, .T. ) ;
#31 = EDGE_LOOP ( 'NONE', ( #8, #34, #107, #145 ) ) ;
#32 = ADVANCED_FACE ( 'NONE', ( #88 ), #144, .T. ) ;
#33 = CARTESIAN_POINT ( 'NONE',  ( 0.0000000000000000000, 0.0000000000000000000, 0.0000000000000000000 ) ) ;
#34 = ORIENTED_EDGE ( 'NONE', *, *, #14, .T. ) ;
#35 = DIRECTION ( 'NONE',  ( 0.0000000000000000000, 0.0000000000000000000, -1.000000000000000000 ) ) ;
#36 = DIRECTION ( 'NONE',  ( 0.0000000000000000000, 0.0000000000000000000, 1.000000000000000000 ) ) ;
#37 =( NAMED_UNIT ( * ) SI_UNIT ( $, .STERADIAN. ) SOLID_ANGLE_UNIT ( ) );
#38 = AXIS2_PLACEMENT_3D ( 'NONE', #140, #24, #44 ) ;
#39 = COLOUR_RGB ( '',0.7450980392156862900, 0.7450980392156862900, 0.7450980392156862900 ) ;
#40 = STYLED_ITEM ( 'NONE', ( #46 ), #42 ) ;
#41 = ORIENTED_EDGE ( 'NONE', *, *, #116, .T. ) ;
#42 = MANIFOLD_SOLID_BREP ( 'Solid1', #148 ) ;
#43 = PRESENTATION_LAYER_ASSIGNMENT (  '', '', ( #85 ) ) ;
#44 = DIRECTION ( 'NONE',  ( 1.000000000000000000, 0.0000000000000000000, -0.0000000000000000000 ) ) ;
#45 = SURFACE_STYLE_USAGE ( .BOTH. , #22 ) ;
#46 = PRESENTATION_STYLE_ASSIGNMENT (( #45 ) ) ;
#47 =( CONVERSION_BASED_UNIT ( 'INCH', #97 ) LENGTH_UNIT ( ) NAMED_UNIT ( #69 ) );
#48 = CARTESIAN_POINT ( 'NONE',  ( -3.441989466719775900E-017, -7.648218354965551500E-018, -9.842519685039370400 ) ) ;
#49 = CARTESIAN_POINT ( 'NONE',  ( -0.3750000000000000600, 0.0000000000000000000, 0.0000000000000000000 ) ) ;
#50 = DIRECTION ( 'NONE',  ( 1.000000000000000000, 0.0000000000000000000, -0.0000000000000000000 ) ) ;
#51 =( LENGTH_UNIT ( ) NAMED_UNIT ( * ) SI_UNIT ( $, .METRE. ) );
#52 = CIRCLE ( 'NONE', #21, 0.3750000000000000600 ) ;
#53 = ADVANCED_FACE ( 'NONE', ( #23 ), #130, .T. ) ;
#54 = ADVANCED_FACE ( 'NONE', ( #66 ), #115, .F. ) ;
#55 = VECTOR ( 'NONE', #83, 39.37007874015748100 ) ;
#56 = CARTESIAN_POINT ( 'NONE',  ( 0.0000000000000000000, 0.0000000000000000000, 0.0000000000000000000 ) ) ;
#57 = PRESENTATION_LAYER_ASSIGNMENT (  '', '', ( #40 ) ) ;
#58 = CARTESIAN_POINT ( 'NONE',  ( 0.0000000000000000000, 0.0000000000000000000, 0.0000000000000000000 ) ) ;
#59 = DIRECTION ( 'NONE',  ( 0.0000000000000000000, 0.0000000000000000000, 1.000000000000000000 ) ) ;
#60 = FILL_AREA_STYLE_COLOUR ( '', #103 ) ;
#61 = CARTESIAN_POINT ( 'NONE',  ( 0.3750000000000000600, 4.592425496802575500E-017, 0.0000000000000000000 ) ) ;
#62 = DIRECTION ( 'NONE',  ( -1.000000000000000000, 0.0000000000000000000, 0.0000000000000000000 ) ) ;
#63 = DIRECTION ( 'NONE',  ( -1.000000000000000000, 0.0000000000000000000, 0.0000000000000000000 ) ) ;
#64 = AXIS2_PLACEMENT_3D ( 'NONE', #73, #16, #142 ) ;
#65 =( LENGTH_UNIT ( ) NAMED_UNIT ( * ) SI_UNIT ( $, .METRE. ) );
#66 = FACE_OUTER_BOUND ( 'NONE', #95, .T. ) ;
#67 = CARTESIAN_POINT ( 'NONE',  ( 0.3750000000000000600, 4.592425496802575500E-017, -9.842519685039370400 ) ) ;
#68 = AXIS2_PLACEMENT_3D ( 'NONE', #110, #124, #62 ) ;
#69 = DIMENSIONAL_EXPONENTS ( 1.000000000000000000, 0.0000000000000000000, 0.0000000000000000000, 0.0000000000000000000, 0.0000000000000000000, 0.0000000000000000000, 0.0000000000000000000 ) ;
#70 = ORIENTED_EDGE ( 'NONE', *, *, #14, .F. ) ;
#71 = MECHANICAL_DESIGN_GEOMETRIC_PRESENTATION_REPRESENTATION (  '', ( #85 ), #132 ) ;
#72 = DIRECTION ( 'NONE',  ( -0.0000000000000000000, -0.0000000000000000000, 1.000000000000000000 ) ) ;
#73 = CARTESIAN_POINT ( 'NONE',  ( 0.0000000000000000000, 0.0000000000000000000, -9.842519685039370400 ) ) ;
#74 = AXIS2_PLACEMENT_3D ( 'NONE', #121, #72, #63 ) ;
#75 = ADVANCED_FACE ( 'NONE', ( #30 ), #98, .T. ) ;
#76 = ORIENTED_EDGE ( 'NONE', *, *, #135, .F. ) ;
#77 = LENGTH_MEASURE_WITH_UNIT ( LENGTH_MEASURE( 0.02539999999999999900 ), #65 );
#78 =( GEOMETRIC_REPRESENTATION_CONTEXT ( 3 ) GLOBAL_UNCERTAINTY_ASSIGNED_CONTEXT ( ( #147 ) ) GLOBAL_UNIT_ASSIGNED_CONTEXT ( ( #47, #112, #81 ) ) REPRESENTATION_CONTEXT ( 'NONE', 'WORKASPACE' ) );
#79 =( NAMED_UNIT ( * ) PLANE_ANGLE_UNIT ( ) SI_UNIT ( $, .RADIAN. ) );
#80 = APPLICATION_PROTOCOL_DEFINITION ( 'draft international standard', 'automotive_design', 1998, #25 ) ;
#81 =( NAMED_UNIT ( * ) SI_UNIT ( $, .STERADIAN. ) SOLID_ANGLE_UNIT ( ) );
#82 = DIRECTION ( 'NONE',  ( 1.000000000000000000, 0.0000000000000000000, 0.0000000000000000000 ) ) ;
#83 = DIRECTION ( 'NONE',  ( 0.0000000000000000000, 0.0000000000000000000, -1.000000000000000000 ) ) ;
#84 = VECTOR ( 'NONE', #20, 39.37007874015748100 ) ;
#85 = STYLED_ITEM ( 'NONE', ( #11 ), #118 ) ;
#86 = VERTEX_POINT ( 'NONE', #61 ) ;
#87 = EDGE_CURVE ( 'NONE', #6, #86, #52, .T. ) ;
#88 = FACE_OUTER_BOUND ( 'NONE', #31, .T. ) ;
#89 = DIRECTION ( 'NONE',  ( -1.000000000000000000, 0.0000000000000000000, 0.0000000000000000000 ) ) ;
#90 = SURFACE_STYLE_FILL_AREA ( #91 ) ;
#91 = FILL_AREA_STYLE ('',( #19 ) ) ;
#92 = EDGE_LOOP ( 'NONE', ( #120, #70 ) ) ;
#93 = UNCERTAINTY_MEASURE_WITH_UNIT (LENGTH_MEASURE( 1.000000000000000100E-005 ), #126, 'distance_accuracy_value', 'NONE');
#94 = MECHANICAL_DESIGN_GEOMETRIC_PRESENTATION_REPRESENTATION (  '', ( #40 ), #78 ) ;
#95 = EDGE_LOOP ( 'NONE', ( #76, #12 ) ) ;
#96 =( NAMED_UNIT ( * ) PLANE_ANGLE_UNIT ( ) SI_UNIT ( $, .RADIAN. ) );
#97 = LENGTH_MEASURE_WITH_UNIT ( LENGTH_MEASURE( 0.02539999999999999900 ), #138 );
#98 = PLANE ( 'NONE',  #38 ) ;
#99 = SURFACE_SIDE_STYLE ('',( #90 ) ) ;
#100 = ORIENTED_EDGE ( 'NONE', *, *, #87, .T. ) ;
#101 = PRODUCT_DEFINITION_FORMATION_WITH_SPECIFIED_SOURCE ( 'ANY', '', #125, .NOT_KNOWN. ) ;
#102 = CIRCLE ( 'NONE', #74, 0.3750000000000000600 ) ;
#103 = COLOUR_RGB ( '',0.7450980392156862900, 0.7450980392156862900, 0.7450980392156862900 ) ;
#104 = DIMENSIONAL_EXPONENTS ( 1.000000000000000000, 0.0000000000000000000, 0.0000000000000000000, 0.0000000000000000000, 0.0000000000000000000, 0.0000000000000000000, 0.0000000000000000000 ) ;
#105 = LINE ( 'NONE', #49, #84 ) ;
#106 = EDGE_CURVE ( 'NONE', #86, #119, #146, .T. ) ;
#107 = ORIENTED_EDGE ( 'NONE', *, *, #127, .T. ) ;
#108 = DIRECTION ( 'NONE',  ( 0.0000000000000000000, 0.0000000000000000000, -1.000000000000000000 ) ) ;
#109 = VERTEX_POINT ( 'NONE', #143 ) ;
#110 = CARTESIAN_POINT ( 'NONE',  ( 0.0000000000000000000, 0.0000000000000000000, 0.0000000000000000000 ) ) ;
#111 = DIRECTION ( 'NONE',  ( -1.000000000000000000, 0.0000000000000000000, 0.0000000000000000000 ) ) ;
#112 =( NAMED_UNIT ( * ) PLANE_ANGLE_UNIT ( ) SI_UNIT ( $, .RADIAN. ) );
#113 = SURFACE_STYLE_USAGE ( .BOTH. , #99 ) ;
#114 = ORIENTED_EDGE ( 'NONE', *, *, #106, .T. ) ;
#115 = PLANE ( 'NONE',  #10 ) ;
#116 = EDGE_CURVE ( 'NONE', #119, #109, #102, .T. ) ;
#117 = SURFACE_STYLE_FILL_AREA ( #3 ) ;
#118 = ADVANCED_BREP_SHAPE_REPRESENTATION ( 'A-AWI-12-250', ( #42, #17 ), #1 ) ;
#119 = VERTEX_POINT ( 'NONE', #67 ) ;
#120 = ORIENTED_EDGE ( 'NONE', *, *, #87, .F. ) ;
#121 = CARTESIAN_POINT ( 'NONE',  ( 0.0000000000000000000, 0.0000000000000000000, -9.842519685039370400 ) ) ;
#122 = DIRECTION ( 'NONE',  ( -1.000000000000000000, 0.0000000000000000000, 0.0000000000000000000 ) ) ;
#123 = DIRECTION ( 'NONE',  ( 0.0000000000000000000, 0.0000000000000000000, -1.000000000000000000 ) ) ;
#124 = DIRECTION ( 'NONE',  ( 0.0000000000000000000, 0.0000000000000000000, -1.000000000000000000 ) ) ;
#125 = PRODUCT ( 'A-AWI-12-250', 'A-AWI-12-250', '', ( #28 ) ) ;
#126 =( CONVERSION_BASED_UNIT ( 'INCH', #15 ) LENGTH_UNIT ( ) NAMED_UNIT ( #104 ) );
#127 = EDGE_CURVE ( 'NONE', #6, #109, #105, .T. ) ;
#128 =( NAMED_UNIT ( * ) SI_UNIT ( $, .STERADIAN. ) SOLID_ANGLE_UNIT ( ) );
#129 = SHAPE_DEFINITION_REPRESENTATION ( #141, #118 ) ;
#130 = CYLINDRICAL_SURFACE ( 'NONE', #2, 0.3750000000000000600 ) ;
#131 = ORIENTED_EDGE ( 'NONE', *, *, #127, .F. ) ;
#132 =( GEOMETRIC_REPRESENTATION_CONTEXT ( 3 ) GLOBAL_UNCERTAINTY_ASSIGNED_CONTEXT ( ( #93 ) ) GLOBAL_UNIT_ASSIGNED_CONTEXT ( ( #126, #96, #37 ) ) REPRESENTATION_CONTEXT ( 'NONE', 'WORKASPACE' ) );
#133 = PRODUCT_DEFINITION_CONTEXT ( 'detailed design', #25, 'design' ) ;
#134 = DIMENSIONAL_EXPONENTS ( 1.000000000000000000, 0.0000000000000000000, 0.0000000000000000000, 0.0000000000000000000, 0.0000000000000000000, 0.0000000000000000000, 0.0000000000000000000 ) ;
#135 = EDGE_CURVE ( 'NONE', #109, #119, #29, .T. ) ;
#136 = CIRCLE ( 'NONE', #137, 0.3750000000000000600 ) ;
#137 = AXIS2_PLACEMENT_3D ( 'NONE', #56, #35, #89 ) ;
#138 =( LENGTH_UNIT ( ) NAMED_UNIT ( * ) SI_UNIT ( $, .METRE. ) );
#139 = CARTESIAN_POINT ( 'NONE',  ( 0.0000000000000000000, 0.0000000000000000000, 0.0000000000000000000 ) ) ;
#140 = CARTESIAN_POINT ( 'NONE',  ( -3.441989466719775900E-017, -7.648218354965551500E-018, 0.0000000000000000000 ) ) ;
#141 = PRODUCT_DEFINITION_SHAPE ( 'NONE', 'NONE',  #9 ) ;
#142 = DIRECTION ( 'NONE',  ( -1.000000000000000000, 0.0000000000000000000, 0.0000000000000000000 ) ) ;
#143 = CARTESIAN_POINT ( 'NONE',  ( -0.3750000000000000600, 0.0000000000000000000, -9.842519685039370400 ) ) ;
#144 = CYLINDRICAL_SURFACE ( 'NONE', #68, 0.3750000000000000600 ) ;
#145 = ORIENTED_EDGE ( 'NONE', *, *, #135, .T. ) ;
#146 = LINE ( 'NONE', #5, #55 ) ;
#147 = UNCERTAINTY_MEASURE_WITH_UNIT (LENGTH_MEASURE( 1.000000000000000100E-005 ), #47, 'distance_accuracy_value', 'NONE');
#148 = CLOSED_SHELL ( 'NONE', ( #53, #32, #75, #54 ) ) ;
#149 = UNCERTAINTY_MEASURE_WITH_UNIT (LENGTH_MEASURE( 1.000000000000000100E-005 ), #7, 'distance_accuracy_value', 'NONE');
ENDSEC;
END-ISO-10303-21;
