ISO-10303-21;
HEADER;
FILE_DESCRIPTION (( 'STEP AP214' ),
    '1' );
FILE_NAME ('A-AWI-12-500.step',
    '2017-11-29T20:07:25',
    ( '' ),
    ( '' ),
    'SwSTEP 2.0',
    'SolidWorks 2017',
    '' );
FILE_SCHEMA (( 'AUTOMOTIVE_DESIGN' ));
ENDSEC;

DATA;
#1 = DIMENSIONAL_EXPONENTS ( 1.000000000000000000, 0.0000000000000000000, 0.0000000000000000000, 0.0000000000000000000, 0.0000000000000000000, 0.0000000000000000000, 0.0000000000000000000 ) ;
#2 = ORIENTED_EDGE ( 'NONE', *, *, #95, .T. ) ;
#3 = ORIENTED_EDGE ( 'NONE', *, *, #122, .F. ) ;
#4 =( NAMED_UNIT ( * ) PLANE_ANGLE_UNIT ( ) SI_UNIT ( $, .RADIAN. ) );
#5 = CARTESIAN_POINT ( 'NONE',  ( -0.3750000000000000600, 0.0000000000000000000, 0.0000000000000000000 ) ) ;
#6 = DIRECTION ( 'NONE',  ( -1.000000000000000000, 0.0000000000000000000, 0.0000000000000000000 ) ) ;
#7 = CARTESIAN_POINT ( 'NONE',  ( 0.0000000000000000000, 0.0000000000000000000, -19.68503937007874100 ) ) ;
#8 = ORIENTED_EDGE ( 'NONE', *, *, #95, .F. ) ;
#9 = SURFACE_STYLE_FILL_AREA ( #90 ) ;
#10 = UNCERTAINTY_MEASURE_WITH_UNIT (LENGTH_MEASURE( 1.000000000000000100E-005 ), #143, 'distance_accuracy_value', 'NONE');
#11 = ORIENTED_EDGE ( 'NONE', *, *, #98, .F. ) ;
#12 = APPLICATION_CONTEXT ( 'automotive_design' ) ;
#13 = DIRECTION ( 'NONE',  ( -0.0000000000000000000, -0.0000000000000000000, 1.000000000000000000 ) ) ;
#14 =( LENGTH_UNIT ( ) NAMED_UNIT ( * ) SI_UNIT ( $, .METRE. ) );
#15 = APPLICATION_CONTEXT ( 'automotive_design' ) ;
#16 = APPLICATION_PROTOCOL_DEFINITION ( 'draft international standard', 'automotive_design', 1998, #12 ) ;
#17 = AXIS2_PLACEMENT_3D ( 'NONE', #46, #101, #84 ) ;
#18 = LINE ( 'NONE', #5, #60 ) ;
#19 = STYLED_ITEM ( 'NONE', ( #108 ), #106 ) ;
#20 = EDGE_LOOP ( 'NONE', ( #11, #55, #2, #70 ) ) ;
#21 = EDGE_CURVE ( 'NONE', #43, #49, #32, .T. ) ;
#22 = SHAPE_DEFINITION_REPRESENTATION ( #38, #86 ) ;
#23 = DIRECTION ( 'NONE',  ( 0.0000000000000000000, 0.0000000000000000000, -1.000000000000000000 ) ) ;
#24 = AXIS2_PLACEMENT_3D ( 'NONE', #93, #25, #82 ) ;
#25 = DIRECTION ( 'NONE',  ( 0.0000000000000000000, 0.0000000000000000000, -1.000000000000000000 ) ) ;
#26 = ORIENTED_EDGE ( 'NONE', *, *, #146, .T. ) ;
#27 = CARTESIAN_POINT ( 'NONE',  ( 0.3750000000000000600, 4.592425496802575500E-017, 0.0000000000000000000 ) ) ;
#28 = CARTESIAN_POINT ( 'NONE',  ( 0.0000000000000000000, 0.0000000000000000000, 0.0000000000000000000 ) ) ;
#29 =( LENGTH_UNIT ( ) NAMED_UNIT ( * ) SI_UNIT ( $, .METRE. ) );
#30 = LENGTH_MEASURE_WITH_UNIT ( LENGTH_MEASURE( 0.02539999999999999900 ), #29 );
#31 = CYLINDRICAL_SURFACE ( 'NONE', #121, 0.3750000000000000600 ) ;
#32 = CIRCLE ( 'NONE', #40, 0.3750000000000000600 ) ;
#33 = LENGTH_MEASURE_WITH_UNIT ( LENGTH_MEASURE( 0.02539999999999999900 ), #129 );
#34 =( GEOMETRIC_REPRESENTATION_CONTEXT ( 3 ) GLOBAL_UNCERTAINTY_ASSIGNED_CONTEXT ( ( #138 ) ) GLOBAL_UNIT_ASSIGNED_CONTEXT ( ( #140, #100, #71 ) ) REPRESENTATION_CONTEXT ( 'NONE', 'WORKASPACE' ) );
#35 = CIRCLE ( 'NONE', #68, 0.3750000000000000600 ) ;
#36 = LENGTH_MEASURE_WITH_UNIT ( LENGTH_MEASURE( 0.02539999999999999900 ), #14 );
#37 =( NAMED_UNIT ( * ) SI_UNIT ( $, .STERADIAN. ) SOLID_ANGLE_UNIT ( ) );
#38 = PRODUCT_DEFINITION_SHAPE ( 'NONE', 'NONE',  #97 ) ;
#39 = DIRECTION ( 'NONE',  ( 1.000000000000000000, 0.0000000000000000000, -0.0000000000000000000 ) ) ;
#40 = AXIS2_PLACEMENT_3D ( 'NONE', #7, #144, #77 ) ;
#41 = CLOSED_SHELL ( 'NONE', ( #149, #80, #76, #69 ) ) ;
#42 = UNCERTAINTY_MEASURE_WITH_UNIT (LENGTH_MEASURE( 1.000000000000000100E-005 ), #61, 'distance_accuracy_value', 'NONE');
#43 = VERTEX_POINT ( 'NONE', #118 ) ;
#44 = FACE_OUTER_BOUND ( 'NONE', #111, .T. ) ;
#45 = DIRECTION ( 'NONE',  ( -1.000000000000000000, 0.0000000000000000000, 0.0000000000000000000 ) ) ;
#46 = CARTESIAN_POINT ( 'NONE',  ( 0.0000000000000000000, 0.0000000000000000000, 0.0000000000000000000 ) ) ;
#47 = DIRECTION ( 'NONE',  ( 0.0000000000000000000, 0.0000000000000000000, -1.000000000000000000 ) ) ;
#48 = FILL_AREA_STYLE_COLOUR ( '', #148 ) ;
#49 = VERTEX_POINT ( 'NONE', #132 ) ;
#50 = PLANE ( 'NONE',  #58 ) ;
#51 = AXIS2_PLACEMENT_3D ( 'NONE', #75, #131, #39 ) ;
#52 =( GEOMETRIC_REPRESENTATION_CONTEXT ( 3 ) GLOBAL_UNCERTAINTY_ASSIGNED_CONTEXT ( ( #10 ) ) GLOBAL_UNIT_ASSIGNED_CONTEXT ( ( #143, #102, #74 ) ) REPRESENTATION_CONTEXT ( 'NONE', 'WORKASPACE' ) );
#53 = AXIS2_PLACEMENT_3D ( 'NONE', #91, #13, #45 ) ;
#54 = PRESENTATION_LAYER_ASSIGNMENT (  '', '', ( #64 ) ) ;
#55 = ORIENTED_EDGE ( 'NONE', *, *, #119, .T. ) ;
#56 = PRODUCT ( 'A-AWI-12-500', 'A-AWI-12-500', '', ( #117 ) ) ;
#57 = FACE_OUTER_BOUND ( 'NONE', #104, .T. ) ;
#58 = AXIS2_PLACEMENT_3D ( 'NONE', #145, #94, #85 ) ;
#59 = APPLICATION_PROTOCOL_DEFINITION ( 'draft international standard', 'automotive_design', 1998, #15 ) ;
#60 = VECTOR ( 'NONE', #116, 39.37007874015748100 ) ;
#61 =( CONVERSION_BASED_UNIT ( 'INCH', #30 ) LENGTH_UNIT ( ) NAMED_UNIT ( #110 ) );
#62 = DIRECTION ( 'NONE',  ( -1.000000000000000000, 0.0000000000000000000, 0.0000000000000000000 ) ) ;
#63 = SURFACE_STYLE_USAGE ( .BOTH. , #113 ) ;
#64 = STYLED_ITEM ( 'NONE', ( #136 ), #86 ) ;
#65 = CYLINDRICAL_SURFACE ( 'NONE', #24, 0.3750000000000000600 ) ;
#66 = PRESENTATION_LAYER_ASSIGNMENT (  '', '', ( #19 ) ) ;
#67 = PRODUCT_DEFINITION_FORMATION_WITH_SPECIFIED_SOURCE ( 'ANY', '', #56, .NOT_KNOWN. ) ;
#68 = AXIS2_PLACEMENT_3D ( 'NONE', #115, #23, #72 ) ;
#69 = ADVANCED_FACE ( 'NONE', ( #114 ), #50, .F. ) ;
#70 = ORIENTED_EDGE ( 'NONE', *, *, #21, .T. ) ;
#71 =( NAMED_UNIT ( * ) SI_UNIT ( $, .STERADIAN. ) SOLID_ANGLE_UNIT ( ) );
#72 = DIRECTION ( 'NONE',  ( -1.000000000000000000, 0.0000000000000000000, 0.0000000000000000000 ) ) ;
#73 = SURFACE_SIDE_STYLE ('',( #120 ) ) ;
#74 =( NAMED_UNIT ( * ) SI_UNIT ( $, .STERADIAN. ) SOLID_ANGLE_UNIT ( ) );
#75 = CARTESIAN_POINT ( 'NONE',  ( -1.912345795726661300E-017, 0.0000000000000000000, 0.0000000000000000000 ) ) ;
#76 = ADVANCED_FACE ( 'NONE', ( #44 ), #105, .T. ) ;
#77 = DIRECTION ( 'NONE',  ( -1.000000000000000000, 0.0000000000000000000, 0.0000000000000000000 ) ) ;
#78 = FACE_OUTER_BOUND ( 'NONE', #20, .T. ) ;
#79 = ORIENTED_EDGE ( 'NONE', *, *, #122, .T. ) ;
#80 = ADVANCED_FACE ( 'NONE', ( #78 ), #65, .T. ) ;
#81 = ORIENTED_EDGE ( 'NONE', *, *, #146, .F. ) ;
#82 = DIRECTION ( 'NONE',  ( -1.000000000000000000, 0.0000000000000000000, 0.0000000000000000000 ) ) ;
#83 = CARTESIAN_POINT ( 'NONE',  ( 0.0000000000000000000, 0.0000000000000000000, 0.0000000000000000000 ) ) ;
#84 = DIRECTION ( 'NONE',  ( 1.000000000000000000, 0.0000000000000000000, 0.0000000000000000000 ) ) ;
#85 = DIRECTION ( 'NONE',  ( 1.000000000000000000, 0.0000000000000000000, -0.0000000000000000000 ) ) ;
#86 = ADVANCED_BREP_SHAPE_REPRESENTATION ( 'A-AWI-12-500', ( #106, #17 ), #34 ) ;
#87 = MECHANICAL_DESIGN_GEOMETRIC_PRESENTATION_REPRESENTATION (  '', ( #19 ), #107 ) ;
#88 = VERTEX_POINT ( 'NONE', #127 ) ;
#89 = CIRCLE ( 'NONE', #53, 0.3750000000000000600 ) ;
#90 = FILL_AREA_STYLE ('',( #48 ) ) ;
#91 = CARTESIAN_POINT ( 'NONE',  ( 0.0000000000000000000, 0.0000000000000000000, -19.68503937007874100 ) ) ;
#92 = CARTESIAN_POINT ( 'NONE',  ( 0.3750000000000000600, 4.592425496802575500E-017, 0.0000000000000000000 ) ) ;
#93 = CARTESIAN_POINT ( 'NONE',  ( 0.0000000000000000000, 0.0000000000000000000, 0.0000000000000000000 ) ) ;
#94 = DIRECTION ( 'NONE',  ( 0.0000000000000000000, 0.0000000000000000000, 1.000000000000000000 ) ) ;
#95 = EDGE_CURVE ( 'NONE', #88, #43, #18, .T. ) ;
#96 = ORIENTED_EDGE ( 'NONE', *, *, #119, .F. ) ;
#97 = PRODUCT_DEFINITION ( 'UNKNOWN', '', #67, #134 ) ;
#98 = EDGE_CURVE ( 'NONE', #135, #49, #137, .T. ) ;
#99 = VECTOR ( 'NONE', #112, 39.37007874015748100 ) ;
#100 =( NAMED_UNIT ( * ) PLANE_ANGLE_UNIT ( ) SI_UNIT ( $, .RADIAN. ) );
#101 = DIRECTION ( 'NONE',  ( 0.0000000000000000000, 0.0000000000000000000, 1.000000000000000000 ) ) ;
#102 =( NAMED_UNIT ( * ) PLANE_ANGLE_UNIT ( ) SI_UNIT ( $, .RADIAN. ) );
#103 = SURFACE_STYLE_USAGE ( .BOTH. , #73 ) ;
#104 = EDGE_LOOP ( 'NONE', ( #26, #147, #79, #8 ) ) ;
#105 = PLANE ( 'NONE',  #51 ) ;
#106 = MANIFOLD_SOLID_BREP ( 'Solid1', #41 ) ;
#107 =( GEOMETRIC_REPRESENTATION_CONTEXT ( 3 ) GLOBAL_UNCERTAINTY_ASSIGNED_CONTEXT ( ( #42 ) ) GLOBAL_UNIT_ASSIGNED_CONTEXT ( ( #61, #4, #37 ) ) REPRESENTATION_CONTEXT ( 'NONE', 'WORKASPACE' ) );
#108 = PRESENTATION_STYLE_ASSIGNMENT (( #103 ) ) ;
#109 = DIMENSIONAL_EXPONENTS ( 1.000000000000000000, 0.0000000000000000000, 0.0000000000000000000, 0.0000000000000000000, 0.0000000000000000000, 0.0000000000000000000, 0.0000000000000000000 ) ;
#110 = DIMENSIONAL_EXPONENTS ( 1.000000000000000000, 0.0000000000000000000, 0.0000000000000000000, 0.0000000000000000000, 0.0000000000000000000, 0.0000000000000000000, 0.0000000000000000000 ) ;
#111 = EDGE_LOOP ( 'NONE', ( #81, #96 ) ) ;
#112 = DIRECTION ( 'NONE',  ( 0.0000000000000000000, 0.0000000000000000000, -1.000000000000000000 ) ) ;
#113 = SURFACE_SIDE_STYLE ('',( #9 ) ) ;
#114 = FACE_OUTER_BOUND ( 'NONE', #142, .T. ) ;
#115 = CARTESIAN_POINT ( 'NONE',  ( 0.0000000000000000000, 0.0000000000000000000, 0.0000000000000000000 ) ) ;
#116 = DIRECTION ( 'NONE',  ( 0.0000000000000000000, 0.0000000000000000000, -1.000000000000000000 ) ) ;
#117 = PRODUCT_CONTEXT ( 'NONE', #15, 'mechanical' ) ;
#118 = CARTESIAN_POINT ( 'NONE',  ( -0.3750000000000000600, 0.0000000000000000000, -19.68503937007874100 ) ) ;
#119 = EDGE_CURVE ( 'NONE', #135, #88, #35, .T. ) ;
#120 = SURFACE_STYLE_FILL_AREA ( #128 ) ;
#121 = AXIS2_PLACEMENT_3D ( 'NONE', #83, #130, #6 ) ;
#122 = EDGE_CURVE ( 'NONE', #49, #43, #89, .T. ) ;
#123 = ORIENTED_EDGE ( 'NONE', *, *, #21, .F. ) ;
#124 = CIRCLE ( 'NONE', #133, 0.3750000000000000600 ) ;
#125 = MECHANICAL_DESIGN_GEOMETRIC_PRESENTATION_REPRESENTATION (  '', ( #64 ), #52 ) ;
#126 = PRODUCT_RELATED_PRODUCT_CATEGORY ( 'part', '', ( #56 ) ) ;
#127 = CARTESIAN_POINT ( 'NONE',  ( -0.3750000000000000600, 0.0000000000000000000, 0.0000000000000000000 ) ) ;
#128 = FILL_AREA_STYLE ('',( #139 ) ) ;
#129 =( LENGTH_UNIT ( ) NAMED_UNIT ( * ) SI_UNIT ( $, .METRE. ) );
#130 = DIRECTION ( 'NONE',  ( 0.0000000000000000000, 0.0000000000000000000, -1.000000000000000000 ) ) ;
#131 = DIRECTION ( 'NONE',  ( 0.0000000000000000000, 0.0000000000000000000, 1.000000000000000000 ) ) ;
#132 = CARTESIAN_POINT ( 'NONE',  ( 0.3750000000000000600, 4.592425496802575500E-017, -19.68503937007874100 ) ) ;
#133 = AXIS2_PLACEMENT_3D ( 'NONE', #28, #47, #62 ) ;
#134 = PRODUCT_DEFINITION_CONTEXT ( 'detailed design', #12, 'design' ) ;
#135 = VERTEX_POINT ( 'NONE', #92 ) ;
#136 = PRESENTATION_STYLE_ASSIGNMENT (( #63 ) ) ;
#137 = LINE ( 'NONE', #27, #99 ) ;
#138 = UNCERTAINTY_MEASURE_WITH_UNIT (LENGTH_MEASURE( 1.000000000000000100E-005 ), #140, 'distance_accuracy_value', 'NONE');
#139 = FILL_AREA_STYLE_COLOUR ( '', #141 ) ;
#140 =( CONVERSION_BASED_UNIT ( 'INCH', #33 ) LENGTH_UNIT ( ) NAMED_UNIT ( #109 ) );
#141 = COLOUR_RGB ( '',0.7450980392156862900, 0.7450980392156862900, 0.7450980392156862900 ) ;
#142 = EDGE_LOOP ( 'NONE', ( #123, #3 ) ) ;
#143 =( CONVERSION_BASED_UNIT ( 'INCH', #36 ) LENGTH_UNIT ( ) NAMED_UNIT ( #1 ) );
#144 = DIRECTION ( 'NONE',  ( -0.0000000000000000000, -0.0000000000000000000, 1.000000000000000000 ) ) ;
#145 = CARTESIAN_POINT ( 'NONE',  ( -1.912345795726661300E-017, 0.0000000000000000000, -19.68503937007874100 ) ) ;
#146 = EDGE_CURVE ( 'NONE', #88, #135, #124, .T. ) ;
#147 = ORIENTED_EDGE ( 'NONE', *, *, #98, .T. ) ;
#148 = COLOUR_RGB ( '',0.7450980392156862900, 0.7450980392156862900, 0.7450980392156862900 ) ;
#149 = ADVANCED_FACE ( 'NONE', ( #57 ), #31, .T. ) ;
ENDSEC;
END-ISO-10303-21;
