ISO-10303-21;
HEADER;
FILE_DESCRIPTION (( 'STEP AP214' ),
    '1' );
FILE_NAME ('A-AWI-16-1000.step',
    '2017-11-29T20:08:17',
    ( '' ),
    ( '' ),
    'SwSTEP 2.0',
    'SolidWorks 2017',
    '' );
FILE_SCHEMA (( 'AUTOMOTIVE_DESIGN' ));
ENDSEC;

DATA;
#1 = PLANE ( 'NONE',  #91 ) ;
#2 =( LENGTH_UNIT ( ) NAMED_UNIT ( * ) SI_UNIT ( $, .METRE. ) );
#3 = APPLICATION_PROTOCOL_DEFINITION ( 'draft international standard', 'automotive_design', 1998, #86 ) ;
#4 =( NAMED_UNIT ( * ) PLANE_ANGLE_UNIT ( ) SI_UNIT ( $, .RADIAN. ) );
#5 = CARTESIAN_POINT ( 'NONE',  ( 0.0000000000000000000, 0.0000000000000000000, 0.0000000000000000000 ) ) ;
#6 = VERTEX_POINT ( 'NONE', #118 ) ;
#7 = EDGE_CURVE ( 'NONE', #105, #47, #83, .T. ) ;
#8 = DIMENSIONAL_EXPONENTS ( 1.000000000000000000, 0.0000000000000000000, 0.0000000000000000000, 0.0000000000000000000, 0.0000000000000000000, 0.0000000000000000000, 0.0000000000000000000 ) ;
#9 = EDGE_LOOP ( 'NONE', ( #122, #106, #97, #125 ) ) ;
#10 = LENGTH_MEASURE_WITH_UNIT ( LENGTH_MEASURE( 0.02539999999999999900 ), #39 );
#11 = DIRECTION ( 'NONE',  ( -1.000000000000000000, 0.0000000000000000000, 0.0000000000000000000 ) ) ;
#12 = MANIFOLD_SOLID_BREP ( 'Solid1', #34 ) ;
#13 = DIRECTION ( 'NONE',  ( 0.0000000000000000000, 0.0000000000000000000, 1.000000000000000000 ) ) ;
#14 = CARTESIAN_POINT ( 'NONE',  ( 0.0000000000000000000, 0.0000000000000000000, 0.0000000000000000000 ) ) ;
#15 = DIRECTION ( 'NONE',  ( -1.000000000000000000, 0.0000000000000000000, 0.0000000000000000000 ) ) ;
#16 = EDGE_LOOP ( 'NONE', ( #21, #129 ) ) ;
#17 =( NAMED_UNIT ( * ) SI_UNIT ( $, .STERADIAN. ) SOLID_ANGLE_UNIT ( ) );
#18 = SURFACE_SIDE_STYLE ('',( #90 ) ) ;
#19 = UNCERTAINTY_MEASURE_WITH_UNIT (LENGTH_MEASURE( 1.000000000000000100E-005 ), #33, 'distance_accuracy_value', 'NONE');
#20 = AXIS2_PLACEMENT_3D ( 'NONE', #5, #121, #15 ) ;
#21 = ORIENTED_EDGE ( 'NONE', *, *, #137, .F. ) ;
#22 = MECHANICAL_DESIGN_GEOMETRIC_PRESENTATION_REPRESENTATION (  '', ( #54 ), #35 ) ;
#23 = CIRCLE ( 'NONE', #31, 0.5000000000000000000 ) ;
#24 = ORIENTED_EDGE ( 'NONE', *, *, #43, .F. ) ;
#25 = CARTESIAN_POINT ( 'NONE',  ( 0.0000000000000000000, 0.0000000000000000000, 0.0000000000000000000 ) ) ;
#26 = AXIS2_PLACEMENT_3D ( 'NONE', #55, #13, #66 ) ;
#27 = PRESENTATION_LAYER_ASSIGNMENT (  '', '', ( #54 ) ) ;
#28 = ADVANCED_BREP_SHAPE_REPRESENTATION ( 'A-AWI-16-1000', ( #12, #98 ), #45 ) ;
#29 = SURFACE_STYLE_FILL_AREA ( #148 ) ;
#30 = ADVANCED_FACE ( 'NONE', ( #74 ), #79, .F. ) ;
#31 = AXIS2_PLACEMENT_3D ( 'NONE', #62, #112, #41 ) ;
#32 = AXIS2_PLACEMENT_3D ( 'NONE', #14, #60, #131 ) ;
#33 =( CONVERSION_BASED_UNIT ( 'INCH', #10 ) LENGTH_UNIT ( ) NAMED_UNIT ( #126 ) );
#34 = CLOSED_SHELL ( 'NONE', ( #52, #144, #49, #30 ) ) ;
#35 =( GEOMETRIC_REPRESENTATION_CONTEXT ( 3 ) GLOBAL_UNCERTAINTY_ASSIGNED_CONTEXT ( ( #19 ) ) GLOBAL_UNIT_ASSIGNED_CONTEXT ( ( #33, #120, #93 ) ) REPRESENTATION_CONTEXT ( 'NONE', 'WORKASPACE' ) );
#36 = FILL_AREA_STYLE_COLOUR ( '', #64 ) ;
#37 = AXIS2_PLACEMENT_3D ( 'NONE', #25, #117, #11 ) ;
#38 = FACE_OUTER_BOUND ( 'NONE', #9, .T. ) ;
#39 =( LENGTH_UNIT ( ) NAMED_UNIT ( * ) SI_UNIT ( $, .METRE. ) );
#40 = LENGTH_MEASURE_WITH_UNIT ( LENGTH_MEASURE( 0.02539999999999999900 ), #2 );
#41 = DIRECTION ( 'NONE',  ( -1.000000000000000000, 0.0000000000000000000, 0.0000000000000000000 ) ) ;
#42 =( LENGTH_UNIT ( ) NAMED_UNIT ( * ) SI_UNIT ( $, .METRE. ) );
#43 = EDGE_CURVE ( 'NONE', #47, #105, #110, .T. ) ;
#44 = PRODUCT_CONTEXT ( 'NONE', #86, 'mechanical' ) ;
#45 =( GEOMETRIC_REPRESENTATION_CONTEXT ( 3 ) GLOBAL_UNCERTAINTY_ASSIGNED_CONTEXT ( ( #84 ) ) GLOBAL_UNIT_ASSIGNED_CONTEXT ( ( #58, #61, #87 ) ) REPRESENTATION_CONTEXT ( 'NONE', 'WORKASPACE' ) );
#46 = CYLINDRICAL_SURFACE ( 'NONE', #37, 0.5000000000000000000 ) ;
#47 = VERTEX_POINT ( 'NONE', #56 ) ;
#48 = LENGTH_MEASURE_WITH_UNIT ( LENGTH_MEASURE( 0.02539999999999999900 ), #42 );
#49 = ADVANCED_FACE ( 'NONE', ( #78 ), #1, .T. ) ;
#50 = COLOUR_RGB ( '',0.7450980392156862900, 0.7450980392156862900, 0.7450980392156862900 ) ;
#51 = VECTOR ( 'NONE', #69, 39.37007874015748100 ) ;
#52 = ADVANCED_FACE ( 'NONE', ( #38 ), #46, .T. ) ;
#53 = ORIENTED_EDGE ( 'NONE', *, *, #7, .F. ) ;
#54 = STYLED_ITEM ( 'NONE', ( #88 ), #12 ) ;
#55 = CARTESIAN_POINT ( 'NONE',  ( -5.099200512624054800E-017, 1.147232753244834500E-017, -39.37007874015748100 ) ) ;
#56 = CARTESIAN_POINT ( 'NONE',  ( 0.5000000000000000000, 6.123233995736766000E-017, -39.37007874015748100 ) ) ;
#57 = ORIENTED_EDGE ( 'NONE', *, *, #73, .T. ) ;
#58 =( CONVERSION_BASED_UNIT ( 'INCH', #40 ) LENGTH_UNIT ( ) NAMED_UNIT ( #145 ) );
#59 = STYLED_ITEM ( 'NONE', ( #92 ), #28 ) ;
#60 = DIRECTION ( 'NONE',  ( 0.0000000000000000000, 0.0000000000000000000, -1.000000000000000000 ) ) ;
#61 =( NAMED_UNIT ( * ) PLANE_ANGLE_UNIT ( ) SI_UNIT ( $, .RADIAN. ) );
#62 = CARTESIAN_POINT ( 'NONE',  ( 0.0000000000000000000, 0.0000000000000000000, 0.0000000000000000000 ) ) ;
#63 = EDGE_LOOP ( 'NONE', ( #53, #24 ) ) ;
#64 = COLOUR_RGB ( '',0.7450980392156862900, 0.7450980392156862900, 0.7450980392156862900 ) ;
#65 = ORIENTED_EDGE ( 'NONE', *, *, #7, .T. ) ;
#66 = DIRECTION ( 'NONE',  ( 1.000000000000000000, 0.0000000000000000000, -0.0000000000000000000 ) ) ;
#67 = EDGE_CURVE ( 'NONE', #94, #105, #76, .T. ) ;
#68 = DIRECTION ( 'NONE',  ( -1.000000000000000000, 0.0000000000000000000, 0.0000000000000000000 ) ) ;
#69 = DIRECTION ( 'NONE',  ( 0.0000000000000000000, 0.0000000000000000000, -1.000000000000000000 ) ) ;
#70 = CARTESIAN_POINT ( 'NONE',  ( -0.5000000000000000000, 0.0000000000000000000, -39.37007874015748100 ) ) ;
#71 =( CONVERSION_BASED_UNIT ( 'INCH', #48 ) LENGTH_UNIT ( ) NAMED_UNIT ( #8 ) );
#72 = AXIS2_PLACEMENT_3D ( 'NONE', #135, #136, #81 ) ;
#73 = EDGE_CURVE ( 'NONE', #6, #94, #23, .T. ) ;
#74 = FACE_OUTER_BOUND ( 'NONE', #63, .T. ) ;
#75 = CYLINDRICAL_SURFACE ( 'NONE', #32, 0.5000000000000000000 ) ;
#76 = LINE ( 'NONE', #85, #116 ) ;
#77 = AXIS2_PLACEMENT_3D ( 'NONE', #95, #147, #68 ) ;
#78 = FACE_OUTER_BOUND ( 'NONE', #16, .T. ) ;
#79 = PLANE ( 'NONE',  #26 ) ;
#80 = FACE_OUTER_BOUND ( 'NONE', #127, .T. ) ;
#81 = DIRECTION ( 'NONE',  ( -1.000000000000000000, 0.0000000000000000000, 0.0000000000000000000 ) ) ;
#82 = DIRECTION ( 'NONE',  ( 1.000000000000000000, 0.0000000000000000000, -0.0000000000000000000 ) ) ;
#83 = CIRCLE ( 'NONE', #72, 0.5000000000000000000 ) ;
#84 = UNCERTAINTY_MEASURE_WITH_UNIT (LENGTH_MEASURE( 1.000000000000000100E-005 ), #58, 'distance_accuracy_value', 'NONE');
#85 = CARTESIAN_POINT ( 'NONE',  ( -0.5000000000000000000, 0.0000000000000000000, 0.0000000000000000000 ) ) ;
#86 = APPLICATION_CONTEXT ( 'automotive_design' ) ;
#87 =( NAMED_UNIT ( * ) SI_UNIT ( $, .STERADIAN. ) SOLID_ANGLE_UNIT ( ) );
#88 = PRESENTATION_STYLE_ASSIGNMENT (( #99 ) ) ;
#89 = PRODUCT_DEFINITION ( 'UNKNOWN', '', #111, #138 ) ;
#90 = SURFACE_STYLE_FILL_AREA ( #124 ) ;
#91 = AXIS2_PLACEMENT_3D ( 'NONE', #119, #128, #82 ) ;
#92 = PRESENTATION_STYLE_ASSIGNMENT (( #140 ) ) ;
#93 =( NAMED_UNIT ( * ) SI_UNIT ( $, .STERADIAN. ) SOLID_ANGLE_UNIT ( ) );
#94 = VERTEX_POINT ( 'NONE', #123 ) ;
#95 = CARTESIAN_POINT ( 'NONE',  ( 0.0000000000000000000, 0.0000000000000000000, -39.37007874015748100 ) ) ;
#96 = FILL_AREA_STYLE_COLOUR ( '', #50 ) ;
#97 = ORIENTED_EDGE ( 'NONE', *, *, #43, .T. ) ;
#98 = AXIS2_PLACEMENT_3D ( 'NONE', #103, #102, #130 ) ;
#99 = SURFACE_STYLE_USAGE ( .BOTH. , #108 ) ;
#100 = UNCERTAINTY_MEASURE_WITH_UNIT (LENGTH_MEASURE( 1.000000000000000100E-005 ), #71, 'distance_accuracy_value', 'NONE');
#101 = APPLICATION_CONTEXT ( 'automotive_design' ) ;
#102 = DIRECTION ( 'NONE',  ( 0.0000000000000000000, 0.0000000000000000000, 1.000000000000000000 ) ) ;
#103 = CARTESIAN_POINT ( 'NONE',  ( 0.0000000000000000000, 0.0000000000000000000, 0.0000000000000000000 ) ) ;
#104 = PRESENTATION_LAYER_ASSIGNMENT (  '', '', ( #59 ) ) ;
#105 = VERTEX_POINT ( 'NONE', #70 ) ;
#106 = ORIENTED_EDGE ( 'NONE', *, *, #146, .T. ) ;
#107 = MECHANICAL_DESIGN_GEOMETRIC_PRESENTATION_REPRESENTATION (  '', ( #59 ), #142 ) ;
#108 = SURFACE_SIDE_STYLE ('',( #29 ) ) ;
#109 = APPLICATION_PROTOCOL_DEFINITION ( 'draft international standard', 'automotive_design', 1998, #101 ) ;
#110 = CIRCLE ( 'NONE', #77, 0.5000000000000000000 ) ;
#111 = PRODUCT_DEFINITION_FORMATION_WITH_SPECIFIED_SOURCE ( 'ANY', '', #133, .NOT_KNOWN. ) ;
#112 = DIRECTION ( 'NONE',  ( 0.0000000000000000000, 0.0000000000000000000, -1.000000000000000000 ) ) ;
#113 = SHAPE_DEFINITION_REPRESENTATION ( #115, #28 ) ;
#114 = CIRCLE ( 'NONE', #20, 0.5000000000000000000 ) ;
#115 = PRODUCT_DEFINITION_SHAPE ( 'NONE', 'NONE',  #89 ) ;
#116 = VECTOR ( 'NONE', #139, 39.37007874015748100 ) ;
#117 = DIRECTION ( 'NONE',  ( 0.0000000000000000000, 0.0000000000000000000, -1.000000000000000000 ) ) ;
#118 = CARTESIAN_POINT ( 'NONE',  ( 0.5000000000000000000, 6.123233995736766000E-017, 0.0000000000000000000 ) ) ;
#119 = CARTESIAN_POINT ( 'NONE',  ( -5.099200512624054800E-017, 1.147232753244834500E-017, 0.0000000000000000000 ) ) ;
#120 =( NAMED_UNIT ( * ) PLANE_ANGLE_UNIT ( ) SI_UNIT ( $, .RADIAN. ) );
#121 = DIRECTION ( 'NONE',  ( 0.0000000000000000000, 0.0000000000000000000, -1.000000000000000000 ) ) ;
#122 = ORIENTED_EDGE ( 'NONE', *, *, #137, .T. ) ;
#123 = CARTESIAN_POINT ( 'NONE',  ( -0.5000000000000000000, 0.0000000000000000000, 0.0000000000000000000 ) ) ;
#124 = FILL_AREA_STYLE ('',( #36 ) ) ;
#125 = ORIENTED_EDGE ( 'NONE', *, *, #67, .F. ) ;
#126 = DIMENSIONAL_EXPONENTS ( 1.000000000000000000, 0.0000000000000000000, 0.0000000000000000000, 0.0000000000000000000, 0.0000000000000000000, 0.0000000000000000000, 0.0000000000000000000 ) ;
#127 = EDGE_LOOP ( 'NONE', ( #143, #57, #132, #65 ) ) ;
#128 = DIRECTION ( 'NONE',  ( 0.0000000000000000000, 0.0000000000000000000, 1.000000000000000000 ) ) ;
#129 = ORIENTED_EDGE ( 'NONE', *, *, #73, .F. ) ;
#130 = DIRECTION ( 'NONE',  ( 1.000000000000000000, 0.0000000000000000000, 0.0000000000000000000 ) ) ;
#131 = DIRECTION ( 'NONE',  ( -1.000000000000000000, 0.0000000000000000000, 0.0000000000000000000 ) ) ;
#132 = ORIENTED_EDGE ( 'NONE', *, *, #67, .T. ) ;
#133 = PRODUCT ( 'A-AWI-16-1000', 'A-AWI-16-1000', '', ( #44 ) ) ;
#134 = LINE ( 'NONE', #141, #51 ) ;
#135 = CARTESIAN_POINT ( 'NONE',  ( 0.0000000000000000000, 0.0000000000000000000, -39.37007874015748100 ) ) ;
#136 = DIRECTION ( 'NONE',  ( -0.0000000000000000000, -0.0000000000000000000, 1.000000000000000000 ) ) ;
#137 = EDGE_CURVE ( 'NONE', #94, #6, #114, .T. ) ;
#138 = PRODUCT_DEFINITION_CONTEXT ( 'detailed design', #101, 'design' ) ;
#139 = DIRECTION ( 'NONE',  ( 0.0000000000000000000, 0.0000000000000000000, -1.000000000000000000 ) ) ;
#140 = SURFACE_STYLE_USAGE ( .BOTH. , #18 ) ;
#141 = CARTESIAN_POINT ( 'NONE',  ( 0.5000000000000000000, 6.123233995736766000E-017, 0.0000000000000000000 ) ) ;
#142 =( GEOMETRIC_REPRESENTATION_CONTEXT ( 3 ) GLOBAL_UNCERTAINTY_ASSIGNED_CONTEXT ( ( #100 ) ) GLOBAL_UNIT_ASSIGNED_CONTEXT ( ( #71, #4, #17 ) ) REPRESENTATION_CONTEXT ( 'NONE', 'WORKASPACE' ) );
#143 = ORIENTED_EDGE ( 'NONE', *, *, #146, .F. ) ;
#144 = ADVANCED_FACE ( 'NONE', ( #80 ), #75, .T. ) ;
#145 = DIMENSIONAL_EXPONENTS ( 1.000000000000000000, 0.0000000000000000000, 0.0000000000000000000, 0.0000000000000000000, 0.0000000000000000000, 0.0000000000000000000, 0.0000000000000000000 ) ;
#146 = EDGE_CURVE ( 'NONE', #6, #47, #134, .T. ) ;
#147 = DIRECTION ( 'NONE',  ( -0.0000000000000000000, -0.0000000000000000000, 1.000000000000000000 ) ) ;
#148 = FILL_AREA_STYLE ('',( #96 ) ) ;
#149 = PRODUCT_RELATED_PRODUCT_CATEGORY ( 'part', '', ( #133 ) ) ;
ENDSEC;
END-ISO-10303-21;
