ISO-10303-21;
HEADER;
FILE_DESCRIPTION (( 'STEP AP214' ),
    '1' );
FILE_NAME ('A-AWI-16-250.step',
    '2017-11-29T20:07:52',
    ( '' ),
    ( '' ),
    'SwSTEP 2.0',
    'SolidWorks 2017',
    '' );
FILE_SCHEMA (( 'AUTOMOTIVE_DESIGN' ));
ENDSEC;

DATA;
#1 = LINE ( 'NONE', #144, #103 ) ;
#2 = PRODUCT_DEFINITION ( 'UNKNOWN', '', #141, #45 ) ;
#3 = CYLINDRICAL_SURFACE ( 'NONE', #78, 0.5000000000000000000 ) ;
#4 = CARTESIAN_POINT ( 'NONE',  ( 0.0000000000000000000, 0.0000000000000000000, 0.0000000000000000000 ) ) ;
#5 = DIRECTION ( 'NONE',  ( -1.000000000000000000, 0.0000000000000000000, 0.0000000000000000000 ) ) ;
#6 =( LENGTH_UNIT ( ) NAMED_UNIT ( * ) SI_UNIT ( $, .METRE. ) );
#7 = LENGTH_MEASURE_WITH_UNIT ( LENGTH_MEASURE( 0.02539999999999999900 ), #67 );
#8 = ORIENTED_EDGE ( 'NONE', *, *, #121, .T. ) ;
#9 = CARTESIAN_POINT ( 'NONE',  ( -0.5000000000000000000, 0.0000000000000000000, -9.842519685039370400 ) ) ;
#10 = CARTESIAN_POINT ( 'NONE',  ( -5.099200512624054800E-017, 1.147232753244834500E-017, -9.842519685039370400 ) ) ;
#11 = CARTESIAN_POINT ( 'NONE',  ( 0.0000000000000000000, 0.0000000000000000000, 0.0000000000000000000 ) ) ;
#12 =( NAMED_UNIT ( * ) PLANE_ANGLE_UNIT ( ) SI_UNIT ( $, .RADIAN. ) );
#13 =( CONVERSION_BASED_UNIT ( 'INCH', #48 ) LENGTH_UNIT ( ) NAMED_UNIT ( #91 ) );
#14 = DIRECTION ( 'NONE',  ( -1.000000000000000000, 0.0000000000000000000, 0.0000000000000000000 ) ) ;
#15 = CIRCLE ( 'NONE', #149, 0.5000000000000000000 ) ;
#16 = PRODUCT ( 'A-AWI-16-250', 'A-AWI-16-250', '', ( #42 ) ) ;
#17 = STYLED_ITEM ( 'NONE', ( #123 ), #135 ) ;
#18 = PRODUCT_DEFINITION_SHAPE ( 'NONE', 'NONE',  #2 ) ;
#19 = SURFACE_STYLE_FILL_AREA ( #84 ) ;
#20 = FACE_OUTER_BOUND ( 'NONE', #74, .T. ) ;
#21 = CARTESIAN_POINT ( 'NONE',  ( -5.099200512624054800E-017, 1.147232753244834500E-017, 0.0000000000000000000 ) ) ;
#22 = PRESENTATION_LAYER_ASSIGNMENT (  '', '', ( #92 ) ) ;
#23 =( NAMED_UNIT ( * ) SI_UNIT ( $, .STERADIAN. ) SOLID_ANGLE_UNIT ( ) );
#24 = DIRECTION ( 'NONE',  ( 0.0000000000000000000, 0.0000000000000000000, 1.000000000000000000 ) ) ;
#25 = FILL_AREA_STYLE_COLOUR ( '', #124 ) ;
#26 = EDGE_LOOP ( 'NONE', ( #137, #122 ) ) ;
#27 = ADVANCED_FACE ( 'NONE', ( #33 ), #147, .T. ) ;
#28 = LINE ( 'NONE', #32, #44 ) ;
#29 = AXIS2_PLACEMENT_3D ( 'NONE', #10, #139, #80 ) ;
#30 = ORIENTED_EDGE ( 'NONE', *, *, #47, .T. ) ;
#31 = DIRECTION ( 'NONE',  ( -0.0000000000000000000, -0.0000000000000000000, 1.000000000000000000 ) ) ;
#32 = CARTESIAN_POINT ( 'NONE',  ( 0.5000000000000000000, 6.123233995736766000E-017, 0.0000000000000000000 ) ) ;
#33 = FACE_OUTER_BOUND ( 'NONE', #107, .T. ) ;
#34 = DIRECTION ( 'NONE',  ( 1.000000000000000000, 0.0000000000000000000, 0.0000000000000000000 ) ) ;
#35 = CIRCLE ( 'NONE', #127, 0.5000000000000000000 ) ;
#36 = MANIFOLD_SOLID_BREP ( 'Solid1', #104 ) ;
#37 = AXIS2_PLACEMENT_3D ( 'NONE', #11, #120, #97 ) ;
#38 = SURFACE_STYLE_FILL_AREA ( #64 ) ;
#39 = VERTEX_POINT ( 'NONE', #117 ) ;
#40 = CARTESIAN_POINT ( 'NONE',  ( 0.0000000000000000000, 0.0000000000000000000, -9.842519685039370400 ) ) ;
#41 = SURFACE_STYLE_USAGE ( .BOTH. , #68 ) ;
#42 = PRODUCT_CONTEXT ( 'NONE', #51, 'mechanical' ) ;
#43 = APPLICATION_PROTOCOL_DEFINITION ( 'draft international standard', 'automotive_design', 1998, #51 ) ;
#44 = VECTOR ( 'NONE', #131, 39.37007874015748100 ) ;
#45 = PRODUCT_DEFINITION_CONTEXT ( 'detailed design', #86, 'design' ) ;
#46 = EDGE_CURVE ( 'NONE', #99, #39, #35, .T. ) ;
#47 = EDGE_CURVE ( 'NONE', #55, #93, #15, .T. ) ;
#48 = LENGTH_MEASURE_WITH_UNIT ( LENGTH_MEASURE( 0.02539999999999999900 ), #85 );
#49 =( CONVERSION_BASED_UNIT ( 'INCH', #7 ) LENGTH_UNIT ( ) NAMED_UNIT ( #126 ) );
#50 = DIRECTION ( 'NONE',  ( -1.000000000000000000, 0.0000000000000000000, 0.0000000000000000000 ) ) ;
#51 = APPLICATION_CONTEXT ( 'automotive_design' ) ;
#52 = COLOUR_RGB ( '',0.7450980392156862900, 0.7450980392156862900, 0.7450980392156862900 ) ;
#53 = ORIENTED_EDGE ( 'NONE', *, *, #88, .T. ) ;
#54 = AXIS2_PLACEMENT_3D ( 'NONE', #21, #24, #98 ) ;
#55 = VERTEX_POINT ( 'NONE', #109 ) ;
#56 =( GEOMETRIC_REPRESENTATION_CONTEXT ( 3 ) GLOBAL_UNCERTAINTY_ASSIGNED_CONTEXT ( ( #79 ) ) GLOBAL_UNIT_ASSIGNED_CONTEXT ( ( #132, #12, #87 ) ) REPRESENTATION_CONTEXT ( 'NONE', 'WORKASPACE' ) );
#57 =( NAMED_UNIT ( * ) SI_UNIT ( $, .STERADIAN. ) SOLID_ANGLE_UNIT ( ) );
#58 = EDGE_CURVE ( 'NONE', #39, #99, #77, .T. ) ;
#59 = ORIENTED_EDGE ( 'NONE', *, *, #88, .F. ) ;
#60 = SURFACE_STYLE_USAGE ( .BOTH. , #133 ) ;
#61 = ORIENTED_EDGE ( 'NONE', *, *, #58, .T. ) ;
#62 = CARTESIAN_POINT ( 'NONE',  ( 0.0000000000000000000, 0.0000000000000000000, 0.0000000000000000000 ) ) ;
#63 = UNCERTAINTY_MEASURE_WITH_UNIT (LENGTH_MEASURE( 1.000000000000000100E-005 ), #49, 'distance_accuracy_value', 'NONE');
#64 = FILL_AREA_STYLE ('',( #25 ) ) ;
#65 = AXIS2_PLACEMENT_3D ( 'NONE', #148, #72, #34 ) ;
#66 = ORIENTED_EDGE ( 'NONE', *, *, #58, .F. ) ;
#67 =( LENGTH_UNIT ( ) NAMED_UNIT ( * ) SI_UNIT ( $, .METRE. ) );
#68 = SURFACE_SIDE_STYLE ('',( #19 ) ) ;
#69 = DIRECTION ( 'NONE',  ( 0.0000000000000000000, 0.0000000000000000000, -1.000000000000000000 ) ) ;
#70 = PRODUCT_RELATED_PRODUCT_CATEGORY ( 'part', '', ( #16 ) ) ;
#71 = DIRECTION ( 'NONE',  ( 0.0000000000000000000, 0.0000000000000000000, -1.000000000000000000 ) ) ;
#72 = DIRECTION ( 'NONE',  ( 0.0000000000000000000, 0.0000000000000000000, 1.000000000000000000 ) ) ;
#73 = PRESENTATION_STYLE_ASSIGNMENT (( #41 ) ) ;
#74 = EDGE_LOOP ( 'NONE', ( #83, #66 ) ) ;
#75 = ADVANCED_FACE ( 'NONE', ( #20 ), #94, .F. ) ;
#76 =( GEOMETRIC_REPRESENTATION_CONTEXT ( 3 ) GLOBAL_UNCERTAINTY_ASSIGNED_CONTEXT ( ( #63 ) ) GLOBAL_UNIT_ASSIGNED_CONTEXT ( ( #49, #96, #57 ) ) REPRESENTATION_CONTEXT ( 'NONE', 'WORKASPACE' ) );
#77 = CIRCLE ( 'NONE', #112, 0.5000000000000000000 ) ;
#78 = AXIS2_PLACEMENT_3D ( 'NONE', #62, #71, #14 ) ;
#79 = UNCERTAINTY_MEASURE_WITH_UNIT (LENGTH_MEASURE( 1.000000000000000100E-005 ), #132, 'distance_accuracy_value', 'NONE');
#80 = DIRECTION ( 'NONE',  ( 1.000000000000000000, 0.0000000000000000000, -0.0000000000000000000 ) ) ;
#81 = PLANE ( 'NONE',  #54 ) ;
#82 = AXIS2_PLACEMENT_3D ( 'NONE', #140, #69, #108 ) ;
#83 = ORIENTED_EDGE ( 'NONE', *, *, #46, .F. ) ;
#84 = FILL_AREA_STYLE ('',( #110 ) ) ;
#85 =( LENGTH_UNIT ( ) NAMED_UNIT ( * ) SI_UNIT ( $, .METRE. ) );
#86 = APPLICATION_CONTEXT ( 'automotive_design' ) ;
#87 =( NAMED_UNIT ( * ) SI_UNIT ( $, .STERADIAN. ) SOLID_ANGLE_UNIT ( ) );
#88 = EDGE_CURVE ( 'NONE', #93, #99, #1, .T. ) ;
#89 = PRESENTATION_LAYER_ASSIGNMENT (  '', '', ( #17 ) ) ;
#90 = ORIENTED_EDGE ( 'NONE', *, *, #46, .T. ) ;
#91 = DIMENSIONAL_EXPONENTS ( 1.000000000000000000, 0.0000000000000000000, 0.0000000000000000000, 0.0000000000000000000, 0.0000000000000000000, 0.0000000000000000000, 0.0000000000000000000 ) ;
#92 = STYLED_ITEM ( 'NONE', ( #73 ), #36 ) ;
#93 = VERTEX_POINT ( 'NONE', #118 ) ;
#94 = PLANE ( 'NONE',  #29 ) ;
#95 = DIRECTION ( 'NONE',  ( -0.0000000000000000000, -0.0000000000000000000, 1.000000000000000000 ) ) ;
#96 =( NAMED_UNIT ( * ) PLANE_ANGLE_UNIT ( ) SI_UNIT ( $, .RADIAN. ) );
#97 = DIRECTION ( 'NONE',  ( -1.000000000000000000, 0.0000000000000000000, 0.0000000000000000000 ) ) ;
#98 = DIRECTION ( 'NONE',  ( 1.000000000000000000, 0.0000000000000000000, -0.0000000000000000000 ) ) ;
#99 = VERTEX_POINT ( 'NONE', #9 ) ;
#100 = EDGE_CURVE ( 'NONE', #55, #39, #28, .T. ) ;
#101 = UNCERTAINTY_MEASURE_WITH_UNIT (LENGTH_MEASURE( 1.000000000000000100E-005 ), #13, 'distance_accuracy_value', 'NONE');
#102 = ADVANCED_FACE ( 'NONE', ( #113 ), #81, .T. ) ;
#103 = VECTOR ( 'NONE', #106, 39.37007874015748100 ) ;
#104 = CLOSED_SHELL ( 'NONE', ( #27, #125, #102, #75 ) ) ;
#105 = MECHANICAL_DESIGN_GEOMETRIC_PRESENTATION_REPRESENTATION (  '', ( #17 ), #114 ) ;
#106 = DIRECTION ( 'NONE',  ( 0.0000000000000000000, 0.0000000000000000000, -1.000000000000000000 ) ) ;
#107 = EDGE_LOOP ( 'NONE', ( #8, #129, #61, #59 ) ) ;
#108 = DIRECTION ( 'NONE',  ( -1.000000000000000000, 0.0000000000000000000, 0.0000000000000000000 ) ) ;
#109 = CARTESIAN_POINT ( 'NONE',  ( 0.5000000000000000000, 6.123233995736766000E-017, 0.0000000000000000000 ) ) ;
#110 = FILL_AREA_STYLE_COLOUR ( '', #52 ) ;
#111 = SHAPE_DEFINITION_REPRESENTATION ( #18, #135 ) ;
#112 = AXIS2_PLACEMENT_3D ( 'NONE', #40, #31, #5 ) ;
#113 = FACE_OUTER_BOUND ( 'NONE', #26, .T. ) ;
#114 =( GEOMETRIC_REPRESENTATION_CONTEXT ( 3 ) GLOBAL_UNCERTAINTY_ASSIGNED_CONTEXT ( ( #101 ) ) GLOBAL_UNIT_ASSIGNED_CONTEXT ( ( #13, #146, #23 ) ) REPRESENTATION_CONTEXT ( 'NONE', 'WORKASPACE' ) );
#115 = ORIENTED_EDGE ( 'NONE', *, *, #100, .F. ) ;
#116 = EDGE_LOOP ( 'NONE', ( #115, #30, #53, #90 ) ) ;
#117 = CARTESIAN_POINT ( 'NONE',  ( 0.5000000000000000000, 6.123233995736766000E-017, -9.842519685039370400 ) ) ;
#118 = CARTESIAN_POINT ( 'NONE',  ( -0.5000000000000000000, 0.0000000000000000000, 0.0000000000000000000 ) ) ;
#119 = CARTESIAN_POINT ( 'NONE',  ( 0.0000000000000000000, 0.0000000000000000000, -9.842519685039370400 ) ) ;
#120 = DIRECTION ( 'NONE',  ( 0.0000000000000000000, 0.0000000000000000000, -1.000000000000000000 ) ) ;
#121 = EDGE_CURVE ( 'NONE', #93, #55, #134, .T. ) ;
#122 = ORIENTED_EDGE ( 'NONE', *, *, #47, .F. ) ;
#123 = PRESENTATION_STYLE_ASSIGNMENT (( #60 ) ) ;
#124 = COLOUR_RGB ( '',0.7450980392156862900, 0.7450980392156862900, 0.7450980392156862900 ) ;
#125 = ADVANCED_FACE ( 'NONE', ( #143 ), #3, .T. ) ;
#126 = DIMENSIONAL_EXPONENTS ( 1.000000000000000000, 0.0000000000000000000, 0.0000000000000000000, 0.0000000000000000000, 0.0000000000000000000, 0.0000000000000000000, 0.0000000000000000000 ) ;
#127 = AXIS2_PLACEMENT_3D ( 'NONE', #119, #95, #50 ) ;
#128 = DIRECTION ( 'NONE',  ( -1.000000000000000000, 0.0000000000000000000, 0.0000000000000000000 ) ) ;
#129 = ORIENTED_EDGE ( 'NONE', *, *, #100, .T. ) ;
#130 = LENGTH_MEASURE_WITH_UNIT ( LENGTH_MEASURE( 0.02539999999999999900 ), #6 );
#131 = DIRECTION ( 'NONE',  ( 0.0000000000000000000, 0.0000000000000000000, -1.000000000000000000 ) ) ;
#132 =( CONVERSION_BASED_UNIT ( 'INCH', #130 ) LENGTH_UNIT ( ) NAMED_UNIT ( #136 ) );
#133 = SURFACE_SIDE_STYLE ('',( #38 ) ) ;
#134 = CIRCLE ( 'NONE', #37, 0.5000000000000000000 ) ;
#135 = ADVANCED_BREP_SHAPE_REPRESENTATION ( 'A-AWI-16-250', ( #36, #65 ), #56 ) ;
#136 = DIMENSIONAL_EXPONENTS ( 1.000000000000000000, 0.0000000000000000000, 0.0000000000000000000, 0.0000000000000000000, 0.0000000000000000000, 0.0000000000000000000, 0.0000000000000000000 ) ;
#137 = ORIENTED_EDGE ( 'NONE', *, *, #121, .F. ) ;
#138 = MECHANICAL_DESIGN_GEOMETRIC_PRESENTATION_REPRESENTATION (  '', ( #92 ), #76 ) ;
#139 = DIRECTION ( 'NONE',  ( 0.0000000000000000000, 0.0000000000000000000, 1.000000000000000000 ) ) ;
#140 = CARTESIAN_POINT ( 'NONE',  ( 0.0000000000000000000, 0.0000000000000000000, 0.0000000000000000000 ) ) ;
#141 = PRODUCT_DEFINITION_FORMATION_WITH_SPECIFIED_SOURCE ( 'ANY', '', #16, .NOT_KNOWN. ) ;
#142 = DIRECTION ( 'NONE',  ( 0.0000000000000000000, 0.0000000000000000000, -1.000000000000000000 ) ) ;
#143 = FACE_OUTER_BOUND ( 'NONE', #116, .T. ) ;
#144 = CARTESIAN_POINT ( 'NONE',  ( -0.5000000000000000000, 0.0000000000000000000, 0.0000000000000000000 ) ) ;
#145 = APPLICATION_PROTOCOL_DEFINITION ( 'draft international standard', 'automotive_design', 1998, #86 ) ;
#146 =( NAMED_UNIT ( * ) PLANE_ANGLE_UNIT ( ) SI_UNIT ( $, .RADIAN. ) );
#147 = CYLINDRICAL_SURFACE ( 'NONE', #82, 0.5000000000000000000 ) ;
#148 = CARTESIAN_POINT ( 'NONE',  ( 0.0000000000000000000, 0.0000000000000000000, 0.0000000000000000000 ) ) ;
#149 = AXIS2_PLACEMENT_3D ( 'NONE', #4, #142, #128 ) ;
ENDSEC;
END-ISO-10303-21;
