ISO-10303-21;
HEADER;
FILE_DESCRIPTION (( 'STEP AP214' ),
    '1' );
FILE_NAME ('A-AWI-16-500.step',
    '2017-11-29T20:08:05',
    ( '' ),
    ( '' ),
    'SwSTEP 2.0',
    'SolidWorks 2017',
    '' );
FILE_SCHEMA (( 'AUTOMOTIVE_DESIGN' ));
ENDSEC;

DATA;
#1 = MECHANICAL_DESIGN_GEOMETRIC_PRESENTATION_REPRESENTATION (  '', ( #77 ), #112 ) ;
#2 = EDGE_LOOP ( 'NONE', ( #21, #94 ) ) ;
#3 = CARTESIAN_POINT ( 'NONE',  ( 0.0000000000000000000, 0.0000000000000000000, 0.0000000000000000000 ) ) ;
#4 = CARTESIAN_POINT ( 'NONE',  ( 0.5000000000000000000, 6.123233995736766000E-017, 0.0000000000000000000 ) ) ;
#5 = SURFACE_STYLE_FILL_AREA ( #143 ) ;
#6 = CARTESIAN_POINT ( 'NONE',  ( -0.5000000000000000000, 0.0000000000000000000, -19.68503937007874100 ) ) ;
#7 = ORIENTED_EDGE ( 'NONE', *, *, #47, .T. ) ;
#8 = DIRECTION ( 'NONE',  ( -1.000000000000000000, 0.0000000000000000000, 0.0000000000000000000 ) ) ;
#9 = PRESENTATION_LAYER_ASSIGNMENT (  '', '', ( #77 ) ) ;
#10 = DIRECTION ( 'NONE',  ( 0.0000000000000000000, 0.0000000000000000000, 1.000000000000000000 ) ) ;
#11 = ORIENTED_EDGE ( 'NONE', *, *, #96, .F. ) ;
#12 = PRODUCT_RELATED_PRODUCT_CATEGORY ( 'part', '', ( #134 ) ) ;
#13 = EDGE_LOOP ( 'NONE', ( #11, #42, #44, #124 ) ) ;
#14 = AXIS2_PLACEMENT_3D ( 'NONE', #64, #89, #105 ) ;
#15 = ORIENTED_EDGE ( 'NONE', *, *, #137, .F. ) ;
#16 = SURFACE_SIDE_STYLE ('',( #114 ) ) ;
#17 = ADVANCED_FACE ( 'NONE', ( #63 ), #121, .T. ) ;
#18 = EDGE_CURVE ( 'NONE', #107, #135, #106, .T. ) ;
#19 = DIRECTION ( 'NONE',  ( 0.0000000000000000000, 0.0000000000000000000, -1.000000000000000000 ) ) ;
#20 = CIRCLE ( 'NONE', #98, 0.5000000000000000000 ) ;
#21 = ORIENTED_EDGE ( 'NONE', *, *, #47, .F. ) ;
#22 = DIMENSIONAL_EXPONENTS ( 1.000000000000000000, 0.0000000000000000000, 0.0000000000000000000, 0.0000000000000000000, 0.0000000000000000000, 0.0000000000000000000, 0.0000000000000000000 ) ;
#23 =( NAMED_UNIT ( * ) SI_UNIT ( $, .STERADIAN. ) SOLID_ANGLE_UNIT ( ) );
#24 = AXIS2_PLACEMENT_3D ( 'NONE', #80, #139, #8 ) ;
#25 = VECTOR ( 'NONE', #41, 39.37007874015748100 ) ;
#26 = FACE_OUTER_BOUND ( 'NONE', #13, .T. ) ;
#27 = LINE ( 'NONE', #103, #49 ) ;
#28 = CARTESIAN_POINT ( 'NONE',  ( 0.0000000000000000000, 0.0000000000000000000, -19.68503937007874100 ) ) ;
#29 = AXIS2_PLACEMENT_3D ( 'NONE', #3, #40, #95 ) ;
#30 = SURFACE_STYLE_USAGE ( .BOTH. , #16 ) ;
#31 = ADVANCED_FACE ( 'NONE', ( #33 ), #45, .F. ) ;
#32 = CARTESIAN_POINT ( 'NONE',  ( 0.0000000000000000000, 0.0000000000000000000, -19.68503937007874100 ) ) ;
#33 = FACE_OUTER_BOUND ( 'NONE', #90, .T. ) ;
#34 = ORIENTED_EDGE ( 'NONE', *, *, #96, .T. ) ;
#35 = PRODUCT_DEFINITION_SHAPE ( 'NONE', 'NONE',  #149 ) ;
#36 = CARTESIAN_POINT ( 'NONE',  ( 0.5000000000000000000, 6.123233995736766000E-017, -19.68503937007874100 ) ) ;
#37 = DIRECTION ( 'NONE',  ( -0.0000000000000000000, -0.0000000000000000000, 1.000000000000000000 ) ) ;
#38 = CARTESIAN_POINT ( 'NONE',  ( 0.5000000000000000000, 6.123233995736766000E-017, 0.0000000000000000000 ) ) ;
#39 = ADVANCED_FACE ( 'NONE', ( #26 ), #148, .T. ) ;
#40 = DIRECTION ( 'NONE',  ( 0.0000000000000000000, 0.0000000000000000000, -1.000000000000000000 ) ) ;
#41 = DIRECTION ( 'NONE',  ( 0.0000000000000000000, 0.0000000000000000000, -1.000000000000000000 ) ) ;
#42 = ORIENTED_EDGE ( 'NONE', *, *, #18, .T. ) ;
#43 = PRESENTATION_STYLE_ASSIGNMENT (( #30 ) ) ;
#44 = ORIENTED_EDGE ( 'NONE', *, *, #108, .T. ) ;
#45 = PLANE ( 'NONE',  #88 ) ;
#46 = ADVANCED_BREP_SHAPE_REPRESENTATION ( 'A-AWI-16-500', ( #122, #67 ), #72 ) ;
#47 = EDGE_CURVE ( 'NONE', #135, #107, #131, .T. ) ;
#48 = SURFACE_STYLE_USAGE ( .BOTH. , #117 ) ;
#49 = VECTOR ( 'NONE', #128, 39.37007874015748100 ) ;
#50 = FILL_AREA_STYLE_COLOUR ( '', #87 ) ;
#51 = DIRECTION ( 'NONE',  ( -0.0000000000000000000, -0.0000000000000000000, 1.000000000000000000 ) ) ;
#52 =( LENGTH_UNIT ( ) NAMED_UNIT ( * ) SI_UNIT ( $, .METRE. ) );
#53 = PRODUCT_CONTEXT ( 'NONE', #140, 'mechanical' ) ;
#54 = APPLICATION_CONTEXT ( 'automotive_design' ) ;
#55 = LINE ( 'NONE', #4, #25 ) ;
#56 = CYLINDRICAL_SURFACE ( 'NONE', #104, 0.5000000000000000000 ) ;
#57 = ORIENTED_EDGE ( 'NONE', *, *, #62, .T. ) ;
#58 = UNCERTAINTY_MEASURE_WITH_UNIT (LENGTH_MEASURE( 1.000000000000000100E-005 ), #81, 'distance_accuracy_value', 'NONE');
#59 = DIRECTION ( 'NONE',  ( 0.0000000000000000000, 0.0000000000000000000, 1.000000000000000000 ) ) ;
#60 = APPLICATION_PROTOCOL_DEFINITION ( 'draft international standard', 'automotive_design', 1998, #140 ) ;
#61 = DIRECTION ( 'NONE',  ( -1.000000000000000000, 0.0000000000000000000, 0.0000000000000000000 ) ) ;
#62 = EDGE_CURVE ( 'NONE', #116, #100, #127, .T. ) ;
#63 = FACE_OUTER_BOUND ( 'NONE', #2, .T. ) ;
#64 = CARTESIAN_POINT ( 'NONE',  ( -5.099200512624054800E-017, 1.147232753244834500E-017, 0.0000000000000000000 ) ) ;
#65 = CARTESIAN_POINT ( 'NONE',  ( -5.099200512624054800E-017, 1.147232753244834500E-017, -19.68503937007874100 ) ) ;
#66 = CLOSED_SHELL ( 'NONE', ( #76, #39, #17, #31 ) ) ;
#67 = AXIS2_PLACEMENT_3D ( 'NONE', #101, #10, #85 ) ;
#68 = COLOUR_RGB ( '',0.7450980392156862900, 0.7450980392156862900, 0.7450980392156862900 ) ;
#69 = CARTESIAN_POINT ( 'NONE',  ( -0.5000000000000000000, 0.0000000000000000000, 0.0000000000000000000 ) ) ;
#70 = DIRECTION ( 'NONE',  ( 1.000000000000000000, 0.0000000000000000000, -0.0000000000000000000 ) ) ;
#71 = PRODUCT_DEFINITION_CONTEXT ( 'detailed design', #54, 'design' ) ;
#72 =( GEOMETRIC_REPRESENTATION_CONTEXT ( 3 ) GLOBAL_UNCERTAINTY_ASSIGNED_CONTEXT ( ( #109 ) ) GLOBAL_UNIT_ASSIGNED_CONTEXT ( ( #126, #111, #92 ) ) REPRESENTATION_CONTEXT ( 'NONE', 'WORKASPACE' ) );
#73 = DIRECTION ( 'NONE',  ( -1.000000000000000000, 0.0000000000000000000, 0.0000000000000000000 ) ) ;
#74 =( LENGTH_UNIT ( ) NAMED_UNIT ( * ) SI_UNIT ( $, .METRE. ) );
#75 = CARTESIAN_POINT ( 'NONE',  ( 0.0000000000000000000, 0.0000000000000000000, 0.0000000000000000000 ) ) ;
#76 = ADVANCED_FACE ( 'NONE', ( #145 ), #56, .T. ) ;
#77 = STYLED_ITEM ( 'NONE', ( #43 ), #46 ) ;
#78 = LENGTH_MEASURE_WITH_UNIT ( LENGTH_MEASURE( 0.02539999999999999900 ), #52 );
#79 = DIRECTION ( 'NONE',  ( -1.000000000000000000, 0.0000000000000000000, 0.0000000000000000000 ) ) ;
#80 = CARTESIAN_POINT ( 'NONE',  ( 0.0000000000000000000, 0.0000000000000000000, 0.0000000000000000000 ) ) ;
#81 =( CONVERSION_BASED_UNIT ( 'INCH', #133 ) LENGTH_UNIT ( ) NAMED_UNIT ( #146 ) );
#82 = STYLED_ITEM ( 'NONE', ( #147 ), #122 ) ;
#83 = DIRECTION ( 'NONE',  ( -1.000000000000000000, 0.0000000000000000000, 0.0000000000000000000 ) ) ;
#84 = APPLICATION_PROTOCOL_DEFINITION ( 'draft international standard', 'automotive_design', 1998, #54 ) ;
#85 = DIRECTION ( 'NONE',  ( 1.000000000000000000, 0.0000000000000000000, 0.0000000000000000000 ) ) ;
#86 = AXIS2_PLACEMENT_3D ( 'NONE', #32, #37, #83 ) ;
#87 = COLOUR_RGB ( '',0.7450980392156862900, 0.7450980392156862900, 0.7450980392156862900 ) ;
#88 = AXIS2_PLACEMENT_3D ( 'NONE', #65, #59, #70 ) ;
#89 = DIRECTION ( 'NONE',  ( 0.0000000000000000000, 0.0000000000000000000, 1.000000000000000000 ) ) ;
#90 = EDGE_LOOP ( 'NONE', ( #15, #132 ) ) ;
#91 = SHAPE_DEFINITION_REPRESENTATION ( #35, #46 ) ;
#92 =( NAMED_UNIT ( * ) SI_UNIT ( $, .STERADIAN. ) SOLID_ANGLE_UNIT ( ) );
#93 =( NAMED_UNIT ( * ) SI_UNIT ( $, .STERADIAN. ) SOLID_ANGLE_UNIT ( ) );
#94 = ORIENTED_EDGE ( 'NONE', *, *, #18, .F. ) ;
#95 = DIRECTION ( 'NONE',  ( -1.000000000000000000, 0.0000000000000000000, 0.0000000000000000000 ) ) ;
#96 = EDGE_CURVE ( 'NONE', #107, #116, #55, .T. ) ;
#97 = ORIENTED_EDGE ( 'NONE', *, *, #108, .F. ) ;
#98 = AXIS2_PLACEMENT_3D ( 'NONE', #28, #51, #61 ) ;
#99 = LENGTH_MEASURE_WITH_UNIT ( LENGTH_MEASURE( 0.02539999999999999900 ), #110 );
#100 = VERTEX_POINT ( 'NONE', #6 ) ;
#101 = CARTESIAN_POINT ( 'NONE',  ( 0.0000000000000000000, 0.0000000000000000000, 0.0000000000000000000 ) ) ;
#102 = FILL_AREA_STYLE_COLOUR ( '', #68 ) ;
#103 = CARTESIAN_POINT ( 'NONE',  ( -0.5000000000000000000, 0.0000000000000000000, 0.0000000000000000000 ) ) ;
#104 = AXIS2_PLACEMENT_3D ( 'NONE', #129, #144, #79 ) ;
#105 = DIRECTION ( 'NONE',  ( 1.000000000000000000, 0.0000000000000000000, -0.0000000000000000000 ) ) ;
#106 = CIRCLE ( 'NONE', #24, 0.5000000000000000000 ) ;
#107 = VERTEX_POINT ( 'NONE', #38 ) ;
#108 = EDGE_CURVE ( 'NONE', #135, #100, #27, .T. ) ;
#109 = UNCERTAINTY_MEASURE_WITH_UNIT (LENGTH_MEASURE( 1.000000000000000100E-005 ), #126, 'distance_accuracy_value', 'NONE');
#110 =( LENGTH_UNIT ( ) NAMED_UNIT ( * ) SI_UNIT ( $, .METRE. ) );
#111 =( NAMED_UNIT ( * ) PLANE_ANGLE_UNIT ( ) SI_UNIT ( $, .RADIAN. ) );
#112 =( GEOMETRIC_REPRESENTATION_CONTEXT ( 3 ) GLOBAL_UNCERTAINTY_ASSIGNED_CONTEXT ( ( #58 ) ) GLOBAL_UNIT_ASSIGNED_CONTEXT ( ( #81, #118, #23 ) ) REPRESENTATION_CONTEXT ( 'NONE', 'WORKASPACE' ) );
#113 =( NAMED_UNIT ( * ) PLANE_ANGLE_UNIT ( ) SI_UNIT ( $, .RADIAN. ) );
#114 = SURFACE_STYLE_FILL_AREA ( #141 ) ;
#115 =( CONVERSION_BASED_UNIT ( 'INCH', #99 ) LENGTH_UNIT ( ) NAMED_UNIT ( #22 ) );
#116 = VERTEX_POINT ( 'NONE', #36 ) ;
#117 = SURFACE_SIDE_STYLE ('',( #5 ) ) ;
#118 =( NAMED_UNIT ( * ) PLANE_ANGLE_UNIT ( ) SI_UNIT ( $, .RADIAN. ) );
#119 = EDGE_LOOP ( 'NONE', ( #7, #34, #57, #97 ) ) ;
#120 = PRODUCT_DEFINITION_FORMATION_WITH_SPECIFIED_SOURCE ( 'ANY', '', #134, .NOT_KNOWN. ) ;
#121 = PLANE ( 'NONE',  #14 ) ;
#122 = MANIFOLD_SOLID_BREP ( 'Solid1', #66 ) ;
#123 = PRESENTATION_LAYER_ASSIGNMENT (  '', '', ( #82 ) ) ;
#124 = ORIENTED_EDGE ( 'NONE', *, *, #137, .T. ) ;
#125 = DIMENSIONAL_EXPONENTS ( 1.000000000000000000, 0.0000000000000000000, 0.0000000000000000000, 0.0000000000000000000, 0.0000000000000000000, 0.0000000000000000000, 0.0000000000000000000 ) ;
#126 =( CONVERSION_BASED_UNIT ( 'INCH', #78 ) LENGTH_UNIT ( ) NAMED_UNIT ( #125 ) );
#127 = CIRCLE ( 'NONE', #86, 0.5000000000000000000 ) ;
#128 = DIRECTION ( 'NONE',  ( 0.0000000000000000000, 0.0000000000000000000, -1.000000000000000000 ) ) ;
#129 = CARTESIAN_POINT ( 'NONE',  ( 0.0000000000000000000, 0.0000000000000000000, 0.0000000000000000000 ) ) ;
#130 = AXIS2_PLACEMENT_3D ( 'NONE', #75, #19, #73 ) ;
#131 = CIRCLE ( 'NONE', #29, 0.5000000000000000000 ) ;
#132 = ORIENTED_EDGE ( 'NONE', *, *, #62, .F. ) ;
#133 = LENGTH_MEASURE_WITH_UNIT ( LENGTH_MEASURE( 0.02539999999999999900 ), #74 );
#134 = PRODUCT ( 'A-AWI-16-500', 'A-AWI-16-500', '', ( #53 ) ) ;
#135 = VERTEX_POINT ( 'NONE', #69 ) ;
#136 = UNCERTAINTY_MEASURE_WITH_UNIT (LENGTH_MEASURE( 1.000000000000000100E-005 ), #115, 'distance_accuracy_value', 'NONE');
#137 = EDGE_CURVE ( 'NONE', #100, #116, #20, .T. ) ;
#138 = MECHANICAL_DESIGN_GEOMETRIC_PRESENTATION_REPRESENTATION (  '', ( #82 ), #142 ) ;
#139 = DIRECTION ( 'NONE',  ( 0.0000000000000000000, 0.0000000000000000000, -1.000000000000000000 ) ) ;
#140 = APPLICATION_CONTEXT ( 'automotive_design' ) ;
#141 = FILL_AREA_STYLE ('',( #50 ) ) ;
#142 =( GEOMETRIC_REPRESENTATION_CONTEXT ( 3 ) GLOBAL_UNCERTAINTY_ASSIGNED_CONTEXT ( ( #136 ) ) GLOBAL_UNIT_ASSIGNED_CONTEXT ( ( #115, #113, #93 ) ) REPRESENTATION_CONTEXT ( 'NONE', 'WORKASPACE' ) );
#143 = FILL_AREA_STYLE ('',( #102 ) ) ;
#144 = DIRECTION ( 'NONE',  ( 0.0000000000000000000, 0.0000000000000000000, -1.000000000000000000 ) ) ;
#145 = FACE_OUTER_BOUND ( 'NONE', #119, .T. ) ;
#146 = DIMENSIONAL_EXPONENTS ( 1.000000000000000000, 0.0000000000000000000, 0.0000000000000000000, 0.0000000000000000000, 0.0000000000000000000, 0.0000000000000000000, 0.0000000000000000000 ) ;
#147 = PRESENTATION_STYLE_ASSIGNMENT (( #48 ) ) ;
#148 = CYLINDRICAL_SURFACE ( 'NONE', #130, 0.5000000000000000000 ) ;
#149 = PRODUCT_DEFINITION ( 'UNKNOWN', '', #120, #71 ) ;
ENDSEC;
END-ISO-10303-21;
