ISO-10303-21;
HEADER;
FILE_DESCRIPTION (( 'STEP AP214' ),
    '1' );
FILE_NAME ('A-GSI-0405-04.step',
    '2017-11-29T20:15:08',
    ( '' ),
    ( '' ),
    'SwSTEP 2.0',
    'SolidWorks 2017',
    '' );
FILE_SCHEMA (( 'AUTOMOTIVE_DESIGN' ));
ENDSEC;

DATA;
#1 = EDGE_CURVE ( 'NONE', #220, #135, #297, .T. ) ;
#2 = FACE_OUTER_BOUND ( 'NONE', #133, .T. ) ;
#3 = CARTESIAN_POINT ( 'NONE',  ( 0.0000000000000000000, 0.0000000000000000000, 0.1190944881889763700 ) ) ;
#4 = ORIENTED_EDGE ( 'NONE', *, *, #113, .T. ) ;
#5 = VERTEX_POINT ( 'NONE', #334 ) ;
#6 = EDGE_CURVE ( 'NONE', #220, #156, #8, .T. ) ;
#7 = LINE ( 'NONE', #111, #41 ) ;
#8 = LINE ( 'NONE', #258, #226 ) ;
#9 = EDGE_LOOP ( 'NONE', ( #36, #178 ) ) ;
#10 = FACE_BOUND ( 'NONE', #245, .T. ) ;
#11 = CARTESIAN_POINT ( 'NONE',  ( 0.1372154511653543300, 0.0000000000000000000, 0.2500000000000000000 ) ) ;
#12 = DIRECTION ( 'NONE',  ( 0.0000000000000000000, 0.0000000000000000000, 1.000000000000000000 ) ) ;
#13 = CARTESIAN_POINT ( 'NONE',  ( -0.1363651627788543300, 0.0000000000000000000, 0.0000000000000000000 ) ) ;
#14 = CIRCLE ( 'NONE', #274, 0.1562500000000000000 ) ;
#15 = CARTESIAN_POINT ( 'NONE',  ( -0.1250000000000000000, 1.530808498934191500E-017, 0.2500000000000000000 ) ) ;
#16 = EDGE_CURVE ( 'NONE', #276, #168, #286, .T. ) ;
#17 = AXIS2_PLACEMENT_3D ( 'NONE', #73, #126, #49 ) ;
#18 = DIRECTION ( 'NONE',  ( -0.0000000000000000000, -0.0000000000000000000, -1.000000000000000000 ) ) ;
#19 = ORIENTED_EDGE ( 'NONE', *, *, #23, .F. ) ;
#20 = DIRECTION ( 'NONE',  ( 1.000000000000000000, 0.0000000000000000000, 0.0000000000000000000 ) ) ;
#21 = DIRECTION ( 'NONE',  ( 1.000000000000000000, 0.0000000000000000000, 0.0000000000000000000 ) ) ;
#22 = APPLICATION_CONTEXT ( 'automotive_design' ) ;
#23 = EDGE_CURVE ( 'NONE', #109, #192, #150, .T. ) ;
#24 = ORIENTED_EDGE ( 'NONE', *, *, #61, .T. ) ;
#25 = CARTESIAN_POINT ( 'NONE',  ( 0.0000000000000000000, 0.0000000000000000000, 0.1348425196850393800 ) ) ;
#26 = EDGE_LOOP ( 'NONE', ( #90, #46, #70, #124 ) ) ;
#27 = CIRCLE ( 'NONE', #137, 0.1250000000000000000 ) ;
#28 = AXIS2_PLACEMENT_3D ( 'NONE', #339, #186, #294 ) ;
#29 = ADVANCED_BREP_SHAPE_REPRESENTATION ( 'A-GSI-0405-04', ( #188, #149 ), #296 ) ;
#30 = FACE_OUTER_BOUND ( 'NONE', #300, .T. ) ;
#31 = EDGE_CURVE ( 'NONE', #168, #192, #35, .T. ) ;
#32 =( LENGTH_UNIT ( ) NAMED_UNIT ( * ) SI_UNIT ( $, .METRE. ) );
#33 = DIRECTION ( 'NONE',  ( 0.0000000000000000000, 0.0000000000000000000, 1.000000000000000000 ) ) ;
#34 = DIRECTION ( 'NONE',  ( 1.000000000000000000, 0.0000000000000000000, 0.0000000000000000000 ) ) ;
#35 = CIRCLE ( 'NONE', #139, 0.1562500000000000000 ) ;
#36 = ORIENTED_EDGE ( 'NONE', *, *, #75, .F. ) ;
#37 = CARTESIAN_POINT ( 'NONE',  ( -0.1250000000000000000, 1.530808498934191500E-017, 0.1348425196850393800 ) ) ;
#38 = PRODUCT ( 'A-GSI-0405-04', 'A-GSI-0405-04', '', ( #237 ) ) ;
#39 = EDGE_CURVE ( 'NONE', #319, #109, #138, .T. ) ;
#40 = CARTESIAN_POINT ( 'NONE',  ( 1.913510623673878400E-017, -0.1562500000005012900, 0.2381889763763486200 ) ) ;
#41 = VECTOR ( 'NONE', #303, 39.37007874015748100 ) ;
#42 = CARTESIAN_POINT ( 'NONE',  ( 0.0000000000000000000, 0.0000000000000000000, 0.2381889763779527500 ) ) ;
#43 = CARTESIAN_POINT ( 'NONE',  ( -0.1562500000000000000, 1.913510623667739500E-017, 0.0000000000000000000 ) ) ;
#44 = EDGE_CURVE ( 'NONE', #107, #156, #68, .T. ) ;
#45 = DIRECTION ( 'NONE',  ( 0.0000000000000000000, 0.0000000000000000000, 1.000000000000000000 ) ) ;
#46 = ORIENTED_EDGE ( 'NONE', *, *, #306, .T. ) ;
#47 = CARTESIAN_POINT ( 'NONE',  ( 0.0000000000000000000, 0.0000000000000000000, 0.01968503936737532300 ) ) ;
#48 = CYLINDRICAL_SURFACE ( 'NONE', #194, 0.1562500000000000000 ) ;
#49 = DIRECTION ( 'NONE',  ( 1.000000000000000000, 0.0000000000000000000, 0.0000000000000000000 ) ) ;
#50 = CARTESIAN_POINT ( 'NONE',  ( 0.0000000000000000000, -1.290636847561417100E-018, 0.2499999999999069100 ) ) ;
#51 = CARTESIAN_POINT ( 'NONE',  ( 0.1562500000000000000, 0.0000000000000000000, 0.0000000000000000000 ) ) ;
#52 =( LENGTH_UNIT ( ) NAMED_UNIT ( * ) SI_UNIT ( $, .METRE. ) );
#53 = ORIENTED_EDGE ( 'NONE', *, *, #23, .T. ) ;
#54 = EDGE_CURVE ( 'NONE', #192, #84, #163, .T. ) ;
#55 = EDGE_LOOP ( 'NONE', ( #278, #147, #271, #302 ) ) ;
#56 = FACE_BOUND ( 'NONE', #112, .T. ) ;
#57 = DIRECTION ( 'NONE',  ( 0.0000000000000000000, 0.0000000000000000000, 1.000000000000000000 ) ) ;
#58 = DIRECTION ( 'NONE',  ( -0.0000000000000000000, -0.0000000000000000000, -1.000000000000000000 ) ) ;
#59 = DIRECTION ( 'NONE',  ( -1.000000000000000000, 0.0000000000000000000, 0.0000000000000000000 ) ) ;
#60 = EDGE_LOOP ( 'NONE', ( #19, #24, #204, #189, #222 ) ) ;
#61 = EDGE_CURVE ( 'NONE', #109, #319, #14, .T. ) ;
#62 = DIRECTION ( 'NONE',  ( 1.000000000000000000, 0.0000000000000000000, 0.0000000000000000000 ) ) ;
#63 = DIRECTION ( 'NONE',  ( 1.000000000000000000, 0.0000000000000000000, 0.0000000000000000000 ) ) ;
#64 = CIRCLE ( 'NONE', #146, 0.1494309023295800900 ) ;
#65 = LINE ( 'NONE', #129, #110 ) ;
#66 = MECHANICAL_DESIGN_GEOMETRIC_PRESENTATION_REPRESENTATION (  '', ( #320 ), #80 ) ;
#67 = DIRECTION ( 'NONE',  ( -0.0000000000000000000, -0.0000000000000000000, -1.000000000000000000 ) ) ;
#68 = CIRCLE ( 'NONE', #282, 0.1363651627788543300 ) ;
#69 = ORIENTED_EDGE ( 'NONE', *, *, #299, .T. ) ;
#70 = ORIENTED_EDGE ( 'NONE', *, *, #217, .F. ) ;
#71 = DIRECTION ( 'NONE',  ( 0.0000000000000000000, 0.0000000000000000000, 1.000000000000000000 ) ) ;
#72 = DIRECTION ( 'NONE',  ( -0.0000000000000000000, -0.0000000000000000000, -1.000000000000000000 ) ) ;
#73 = CARTESIAN_POINT ( 'NONE',  ( 0.0000000000000000000, 0.0000000000000000000, 0.2500000000000000000 ) ) ;
#74 = DIRECTION ( 'NONE',  ( -0.0000000000000000000, -0.0000000000000000000, -1.000000000000000000 ) ) ;
#75 = EDGE_CURVE ( 'NONE', #288, #276, #64, .T. ) ;
#76 = FACE_OUTER_BOUND ( 'NONE', #140, .T. ) ;
#77 = ORIENTED_EDGE ( 'NONE', *, *, #54, .T. ) ;
#78 = ORIENTED_EDGE ( 'NONE', *, *, #61, .F. ) ;
#79 = FACE_OUTER_BOUND ( 'NONE', #9, .T. ) ;
#80 =( GEOMETRIC_REPRESENTATION_CONTEXT ( 3 ) GLOBAL_UNCERTAINTY_ASSIGNED_CONTEXT ( ( #94 ) ) GLOBAL_UNIT_ASSIGNED_CONTEXT ( ( #239, #214, #182 ) ) REPRESENTATION_CONTEXT ( 'NONE', 'WORKASPACE' ) );
#81 = EDGE_CURVE ( 'NONE', #130, #197, #27, .T. ) ;
#82 =( NAMED_UNIT ( * ) PLANE_ANGLE_UNIT ( ) SI_UNIT ( $, .RADIAN. ) );
#83 = PRODUCT_RELATED_PRODUCT_CATEGORY ( 'part', '', ( #38 ) ) ;
#84 = VERTEX_POINT ( 'NONE', #265 ) ;
#85 = CYLINDRICAL_SURFACE ( 'NONE', #208, 0.1250000000000000000 ) ;
#86 = CARTESIAN_POINT ( 'NONE',  ( 0.1249999999999534500, 0.0000000000000000000, 0.01968503936737532300 ) ) ;
#87 = DIRECTION ( 'NONE',  ( -1.000000000000000000, 0.0000000000000000000, 0.0000000000000000000 ) ) ;
#88 = CARTESIAN_POINT ( 'NONE',  ( 1.913510623662536400E-017, -0.1562499999995751500, 0.2381889763779527500 ) ) ;
#89 = ADVANCED_FACE ( 'NONE', ( #342 ), #179, .F. ) ;
#90 = ORIENTED_EDGE ( 'NONE', *, *, #113, .F. ) ;
#91 = SURFACE_STYLE_FILL_AREA ( #329 ) ;
#92 = EDGE_CURVE ( 'NONE', #135, #197, #308, .T. ) ;
#93 = CARTESIAN_POINT ( 'NONE',  ( 0.0000000000000000000, 0.0000000000000000000, 0.01968503936737532300 ) ) ;
#94 = UNCERTAINTY_MEASURE_WITH_UNIT (LENGTH_MEASURE( 1.000000000000000100E-005 ), #239, 'distance_accuracy_value', 'NONE');
#95 = ORIENTED_EDGE ( 'NONE', *, *, #39, .F. ) ;
#96 = VECTOR ( 'NONE', #307, 39.37007874015748100 ) ;
#97 = AXIS2_PLACEMENT_3D ( 'NONE', #3, #292, #152 ) ;
#98 = CARTESIAN_POINT ( 'NONE',  ( 0.0000000000000000000, 0.0000000000000000000, 0.2381889763779527500 ) ) ;
#99 = AXIS2_PLACEMENT_3D ( 'NONE', #170, #251, #87 ) ;
#100 = DIRECTION ( 'NONE',  ( 1.000000000000000000, 0.0000000000000000000, 0.0000000000000000000 ) ) ;
#101 =( CONVERSION_BASED_UNIT ( 'INCH', #134 ) LENGTH_UNIT ( ) NAMED_UNIT ( #143 ) );
#102 = DIRECTION ( 'NONE',  ( -1.000000000000000000, 0.0000000000000000000, 0.0000000000000000000 ) ) ;
#103 = DIRECTION ( 'NONE',  ( 0.0000000000000000000, 1.000000000000000000, 0.0000000000000000000 ) ) ;
#104 = APPLICATION_PROTOCOL_DEFINITION ( 'draft international standard', 'automotive_design', 1998, #22 ) ;
#105 = AXIS2_PLACEMENT_3D ( 'NONE', #335, #203, #234 ) ;
#106 = LENGTH_MEASURE_WITH_UNIT ( LENGTH_MEASURE( 0.02539999999999999900 ), #52 );
#107 = VERTEX_POINT ( 'NONE', #205 ) ;
#108 = AXIS2_PLACEMENT_3D ( 'NONE', #227, #252, #309 ) ;
#109 = VERTEX_POINT ( 'NONE', #43 ) ;
#110 = VECTOR ( 'NONE', #123, 39.37007874015748100 ) ;
#111 = CARTESIAN_POINT ( 'NONE',  ( 0.1562500000000000000, 0.0000000000000000000, 0.1190944881889763700 ) ) ;
#112 = EDGE_LOOP ( 'NONE', ( #272, #312 ) ) ;
#113 = EDGE_CURVE ( 'NONE', #135, #220, #201, .T. ) ;
#114 = CONICAL_SURFACE ( 'NONE', #167, 0.1562500000005012900, 0.5235987757541786800 ) ;
#115 = PLANE ( 'NONE',  #177 ) ;
#116 = DIRECTION ( 'NONE',  ( 0.0000000000000000000, 0.0000000000000000000, -1.000000000000000000 ) ) ;
#117 = ADVANCED_FACE ( 'NONE', ( #30 ), #85, .F. ) ;
#118 = DIRECTION ( 'NONE',  ( 6.123233997389989200E-017, -0.5000000001349957900, -0.8660254037064987200 ) ) ;
#119 = DIRECTION ( 'NONE',  ( -0.5000000000375604000, 0.0000000000000000000, -0.8660254037627529400 ) ) ;
#120 = ORIENTED_EDGE ( 'NONE', *, *, #75, .T. ) ;
#121 = ADVANCED_FACE ( 'NONE', ( #56, #165 ), #115, .T. ) ;
#122 = ORIENTED_EDGE ( 'NONE', *, *, #16, .T. ) ;
#123 = DIRECTION ( 'NONE',  ( 0.0000000000000000000, 0.5000000001349960100, -0.8660254037064987200 ) ) ;
#124 = ORIENTED_EDGE ( 'NONE', *, *, #6, .F. ) ;
#125 = CARTESIAN_POINT ( 'NONE',  ( 0.1250000000000000000, 0.0000000000000000000, 0.1348425196850393800 ) ) ;
#126 = DIRECTION ( 'NONE',  ( -0.0000000000000000000, -0.0000000000000000000, -1.000000000000000000 ) ) ;
#127 = DIRECTION ( 'NONE',  ( 1.000000000000000000, 0.0000000000000000000, 0.0000000000000000000 ) ) ;
#128 = CARTESIAN_POINT ( 'NONE',  ( 0.0000000000000000000, 0.0000000000000000000, 0.2381889763763486200 ) ) ;
#129 = CARTESIAN_POINT ( 'NONE',  ( 0.0000000000000000000, 0.1562500000005012900, 0.2381889763763486200 ) ) ;
#130 = VERTEX_POINT ( 'NONE', #15 ) ;
#131 = AXIS2_PLACEMENT_3D ( 'NONE', #327, #145, #34 ) ;
#132 = LINE ( 'NONE', #267, #261 ) ;
#133 = EDGE_LOOP ( 'NONE', ( #243, #289, #69, #256, #142 ) ) ;
#134 = LENGTH_MEASURE_WITH_UNIT ( LENGTH_MEASURE( 0.02539999999999999900 ), #206 );
#135 = VERTEX_POINT ( 'NONE', #86 ) ;
#136 = CONICAL_SURFACE ( 'NONE', #99, 0.1363651627788543300, 0.5235987756416700100 ) ;
#137 = AXIS2_PLACEMENT_3D ( 'NONE', #262, #293, #340 ) ;
#138 = CIRCLE ( 'NONE', #105, 0.1562500000000000000 ) ;
#139 = AXIS2_PLACEMENT_3D ( 'NONE', #42, #67, #20 ) ;
#140 = EDGE_LOOP ( 'NONE', ( #326, #53, #77, #260, #304 ) ) ;
#141 = DIRECTION ( 'NONE',  ( -1.000000000000000000, 0.0000000000000000000, -0.0000000000000000000 ) ) ;
#142 = ORIENTED_EDGE ( 'NONE', *, *, #31, .F. ) ;
#143 = DIMENSIONAL_EXPONENTS ( 1.000000000000000000, 0.0000000000000000000, 0.0000000000000000000, 0.0000000000000000000, 0.0000000000000000000, 0.0000000000000000000, 0.0000000000000000000 ) ;
#144 = CARTESIAN_POINT ( 'NONE',  ( -0.1562500000000000000, 1.913510623667739500E-017, 0.2381889763779527500 ) ) ;
#145 = DIRECTION ( 'NONE',  ( 0.0000000000000000000, 0.0000000000000000000, 1.000000000000000000 ) ) ;
#146 = AXIS2_PLACEMENT_3D ( 'NONE', #50, #236, #238 ) ;
#147 = ORIENTED_EDGE ( 'NONE', *, *, #1, .F. ) ;
#148 = DIMENSIONAL_EXPONENTS ( 1.000000000000000000, 0.0000000000000000000, 0.0000000000000000000, 0.0000000000000000000, 0.0000000000000000000, 0.0000000000000000000, 0.0000000000000000000 ) ;
#149 = AXIS2_PLACEMENT_3D ( 'NONE', #314, #45, #100 ) ;
#150 = LINE ( 'NONE', #257, #218 ) ;
#151 = EDGE_LOOP ( 'NONE', ( #95, #78 ) ) ;
#152 = DIRECTION ( 'NONE',  ( 1.000000000000000000, 0.0000000000000000000, 0.0000000000000000000 ) ) ;
#153 = AXIS2_PLACEMENT_3D ( 'NONE', #183, #74, #102 ) ;
#154 = DIRECTION ( 'NONE',  ( 0.0000000000000000000, 0.0000000000000000000, 1.000000000000000000 ) ) ;
#155 = DIRECTION ( 'NONE',  ( 0.0000000000000000000, 1.092739197462199400E-016, -1.000000000000000000 ) ) ;
#156 = VERTEX_POINT ( 'NONE', #13 ) ;
#157 = DIRECTION ( 'NONE',  ( 0.0000000000000000000, 0.0000000000000000000, 1.000000000000000000 ) ) ;
#158 = SURFACE_SIDE_STYLE ('',( #338 ) ) ;
#159 = PRODUCT_DEFINITION_SHAPE ( 'NONE', 'NONE',  #311 ) ;
#160 = ORIENTED_EDGE ( 'NONE', *, *, #299, .F. ) ;
#161 = PRESENTATION_STYLE_ASSIGNMENT (( #343 ) ) ;
#162 = AXIS2_PLACEMENT_3D ( 'NONE', #47, #72, #21 ) ;
#163 = CIRCLE ( 'NONE', #223, 0.1562500000000000000 ) ;
#164 = ORIENTED_EDGE ( 'NONE', *, *, #291, .F. ) ;
#165 = FACE_OUTER_BOUND ( 'NONE', #151, .T. ) ;
#166 = AXIS2_PLACEMENT_3D ( 'NONE', #173, #58, #325 ) ;
#167 = AXIS2_PLACEMENT_3D ( 'NONE', #128, #155, #103 ) ;
#168 = VERTEX_POINT ( 'NONE', #88 ) ;
#169 = UNCERTAINTY_MEASURE_WITH_UNIT (LENGTH_MEASURE( 1.000000000000000100E-005 ), #275, 'distance_accuracy_value', 'NONE');
#170 = CARTESIAN_POINT ( 'NONE',  ( 0.0000000000000000000, 0.0000000000000000000, 0.0000000000000000000 ) ) ;
#171 = CARTESIAN_POINT ( 'NONE',  ( 1.871755692989373200E-017, -0.1494309023295800900, 0.2499999999999069100 ) ) ;
#172 = EDGE_CURVE ( 'NONE', #319, #5, #7, .T. ) ;
#173 = CARTESIAN_POINT ( 'NONE',  ( 0.0000000000000000000, 0.0000000000000000000, 0.2381889763779527500 ) ) ;
#174 = DIMENSIONAL_EXPONENTS ( 1.000000000000000000, 0.0000000000000000000, 0.0000000000000000000, 0.0000000000000000000, 0.0000000000000000000, 0.0000000000000000000, 0.0000000000000000000 ) ;
#175 = PLANE ( 'NONE',  #176 ) ;
#176 = AXIS2_PLACEMENT_3D ( 'NONE', #11, #12, #199 ) ;
#177 = AXIS2_PLACEMENT_3D ( 'NONE', #254, #116, #141 ) ;
#178 = ORIENTED_EDGE ( 'NONE', *, *, #191, .F. ) ;
#179 = CONICAL_SURFACE ( 'NONE', #153, 0.1363651627788543300, 0.5235987756416700100 ) ;
#180 = CARTESIAN_POINT ( 'NONE',  ( 0.0000000000000000000, 0.1494309023295800900, 0.2499999999999069100 ) ) ;
#181 = ORIENTED_EDGE ( 'NONE', *, *, #185, .F. ) ;
#182 =( NAMED_UNIT ( * ) SI_UNIT ( $, .STERADIAN. ) SOLID_ANGLE_UNIT ( ) );
#183 = CARTESIAN_POINT ( 'NONE',  ( 0.0000000000000000000, 0.0000000000000000000, 0.0000000000000000000 ) ) ;
#184 = DIRECTION ( 'NONE',  ( -1.000000000000000000, 0.0000000000000000000, 0.0000000000000000000 ) ) ;
#185 = EDGE_CURVE ( 'NONE', #5, #168, #193, .T. ) ;
#186 = DIRECTION ( 'NONE',  ( 0.0000000000000000000, 1.092739197462199400E-016, -1.000000000000000000 ) ) ;
#187 = ORIENTED_EDGE ( 'NONE', *, *, #270, .T. ) ;
#188 = MANIFOLD_SOLID_BREP ( '2017_10_02__20-00-19-358', #213 ) ;
#189 = ORIENTED_EDGE ( 'NONE', *, *, #185, .T. ) ;
#190 = FACE_OUTER_BOUND ( 'NONE', #55, .T. ) ;
#191 = EDGE_CURVE ( 'NONE', #276, #288, #244, .T. ) ;
#192 = VERTEX_POINT ( 'NONE', #144 ) ;
#193 = CIRCLE ( 'NONE', #219, 0.1562500000000000000 ) ;
#194 = AXIS2_PLACEMENT_3D ( 'NONE', #305, #57, #62 ) ;
#195 = DIRECTION ( 'NONE',  ( -0.0000000000000000000, -0.0000000000000000000, -1.000000000000000000 ) ) ;
#196 = CARTESIAN_POINT ( 'NONE',  ( 0.0000000000000000000, 0.0000000000000000000, 0.0000000000000000000 ) ) ;
#197 = VERTEX_POINT ( 'NONE', #249 ) ;
#198 = CIRCLE ( 'NONE', #166, 0.1562500000000000000 ) ;
#199 = DIRECTION ( 'NONE',  ( 1.000000000000000000, 0.0000000000000000000, -0.0000000000000000000 ) ) ;
#200 = EDGE_CURVE ( 'NONE', #84, #5, #198, .T. ) ;
#201 = CIRCLE ( 'NONE', #162, 0.1249999999999534500 ) ;
#202 = ADVANCED_FACE ( 'NONE', ( #76 ), #48, .T. ) ;
#203 = DIRECTION ( 'NONE',  ( 0.0000000000000000000, 0.0000000000000000000, 1.000000000000000000 ) ) ;
#204 = ORIENTED_EDGE ( 'NONE', *, *, #172, .T. ) ;
#205 = CARTESIAN_POINT ( 'NONE',  ( 0.1363651627788543300, 1.669991601123317300E-017, 0.0000000000000000000 ) ) ;
#206 =( LENGTH_UNIT ( ) NAMED_UNIT ( * ) SI_UNIT ( $, .METRE. ) );
#207 = DIRECTION ( 'NONE',  ( 1.000000000000000000, 0.0000000000000000000, 0.0000000000000000000 ) ) ;
#208 = AXIS2_PLACEMENT_3D ( 'NONE', #25, #71, #207 ) ;
#209 = CARTESIAN_POINT ( 'NONE',  ( 0.0000000000000000000, 0.0000000000000000000, 0.0000000000000000000 ) ) ;
#210 = PRESENTATION_LAYER_ASSIGNMENT (  '', '', ( #320 ) ) ;
#211 =( NAMED_UNIT ( * ) PLANE_ANGLE_UNIT ( ) SI_UNIT ( $, .RADIAN. ) );
#212 = DIRECTION ( 'NONE',  ( 1.000000000000000000, 0.0000000000000000000, 0.0000000000000000000 ) ) ;
#213 = CLOSED_SHELL ( 'NONE', ( #202, #287, #89, #285, #310, #331, #121, #280, #235, #117 ) ) ;
#214 =( NAMED_UNIT ( * ) PLANE_ANGLE_UNIT ( ) SI_UNIT ( $, .RADIAN. ) );
#215 = FACE_OUTER_BOUND ( 'NONE', #246, .T. ) ;
#216 = APPLICATION_CONTEXT ( 'automotive_design' ) ;
#217 = EDGE_CURVE ( 'NONE', #156, #107, #279, .T. ) ;
#218 = VECTOR ( 'NONE', #284, 39.37007874015748100 ) ;
#219 = AXIS2_PLACEMENT_3D ( 'NONE', #250, #195, #230 ) ;
#220 = VERTEX_POINT ( 'NONE', #328 ) ;
#221 = VECTOR ( 'NONE', #118, 39.37007874015748900 ) ;
#222 = ORIENTED_EDGE ( 'NONE', *, *, #31, .T. ) ;
#223 = AXIS2_PLACEMENT_3D ( 'NONE', #98, #316, #127 ) ;
#224 = CIRCLE ( 'NONE', #17, 0.1250000000000000000 ) ;
#225 = SURFACE_SIDE_STYLE ('',( #91 ) ) ;
#226 = VECTOR ( 'NONE', #119, 39.37007874015748900 ) ;
#227 = CARTESIAN_POINT ( 'NONE',  ( 0.0000000000000000000, -1.290636847561417100E-018, 0.2499999999999069100 ) ) ;
#228 = ORIENTED_EDGE ( 'NONE', *, *, #1, .T. ) ;
#229 = VECTOR ( 'NONE', #157, 39.37007874015748100 ) ;
#230 = DIRECTION ( 'NONE',  ( 1.000000000000000000, 0.0000000000000000000, 0.0000000000000000000 ) ) ;
#231 = PRESENTATION_LAYER_ASSIGNMENT (  '', '', ( #240 ) ) ;
#232 = EDGE_LOOP ( 'NONE', ( #120, #122, #181, #336, #160 ) ) ;
#233 = LINE ( 'NONE', #37, #96 ) ;
#234 = DIRECTION ( 'NONE',  ( 1.000000000000000000, 0.0000000000000000000, 0.0000000000000000000 ) ) ;
#235 = ADVANCED_FACE ( 'NONE', ( #190 ), #136, .F. ) ;
#236 = DIRECTION ( 'NONE',  ( 0.0000000000000000000, 1.092739197462199400E-016, -1.000000000000000000 ) ) ;
#237 = PRODUCT_CONTEXT ( 'NONE', #22, 'mechanical' ) ;
#238 = DIRECTION ( 'NONE',  ( 0.0000000000000000000, 1.000000000000000000, 0.0000000000000000000 ) ) ;
#239 =( CONVERSION_BASED_UNIT ( 'INCH', #106 ) LENGTH_UNIT ( ) NAMED_UNIT ( #174 ) );
#240 = STYLED_ITEM ( 'NONE', ( #301 ), #188 ) ;
#241 = APPLICATION_PROTOCOL_DEFINITION ( 'draft international standard', 'automotive_design', 1998, #216 ) ;
#242 = UNCERTAINTY_MEASURE_WITH_UNIT (LENGTH_MEASURE( 1.000000000000000100E-005 ), #101, 'distance_accuracy_value', 'NONE');
#243 = ORIENTED_EDGE ( 'NONE', *, *, #16, .F. ) ;
#244 = CIRCLE ( 'NONE', #108, 0.1494309023295800900 ) ;
#245 = EDGE_LOOP ( 'NONE', ( #253, #330 ) ) ;
#246 = EDGE_LOOP ( 'NONE', ( #4, #187, #164, #315 ) ) ;
#247 = ORIENTED_EDGE ( 'NONE', *, *, #92, .T. ) ;
#248 = COLOUR_RGB ( '',0.5098039215686274200, 0.5098039215686274200, 0.5490196078431373000 ) ;
#249 = CARTESIAN_POINT ( 'NONE',  ( 0.1250000000000000000, 0.0000000000000000000, 0.2500000000000000000 ) ) ;
#250 = CARTESIAN_POINT ( 'NONE',  ( 0.0000000000000000000, 0.0000000000000000000, 0.2381889763779527500 ) ) ;
#251 = DIRECTION ( 'NONE',  ( -0.0000000000000000000, -0.0000000000000000000, -1.000000000000000000 ) ) ;
#252 = DIRECTION ( 'NONE',  ( 0.0000000000000000000, 1.092739197462199400E-016, -1.000000000000000000 ) ) ;
#253 = ORIENTED_EDGE ( 'NONE', *, *, #291, .T. ) ;
#254 = CARTESIAN_POINT ( 'NONE',  ( 0.1463075813897637700, 0.0000000000000000000, 0.0000000000000000000 ) ) ;
#255 = AXIS2_PLACEMENT_3D ( 'NONE', #196, #33, #59 ) ;
#256 = ORIENTED_EDGE ( 'NONE', *, *, #54, .F. ) ;
#257 = CARTESIAN_POINT ( 'NONE',  ( -0.1562500000000000000, 1.913510623667739500E-017, 0.1190944881889763700 ) ) ;
#258 = CARTESIAN_POINT ( 'NONE',  ( -0.1363651627788543300, 0.0000000000000000000, 0.0000000000000000000 ) ) ;
#259 = CARTESIAN_POINT ( 'NONE',  ( 0.0000000000000000000, 0.0000000000000000000, 0.0000000000000000000 ) ) ;
#260 = ORIENTED_EDGE ( 'NONE', *, *, #200, .T. ) ;
#261 = VECTOR ( 'NONE', #295, 39.37007874015748900 ) ;
#262 = CARTESIAN_POINT ( 'NONE',  ( 0.0000000000000000000, 0.0000000000000000000, 0.2500000000000000000 ) ) ;
#263 = AXIS2_PLACEMENT_3D ( 'NONE', #93, #18, #63 ) ;
#264 =( NAMED_UNIT ( * ) SI_UNIT ( $, .STERADIAN. ) SOLID_ANGLE_UNIT ( ) );
#265 = CARTESIAN_POINT ( 'NONE',  ( 0.0000000000000000000, 0.1562499999995751500, 0.2381889763779527500 ) ) ;
#266 = FILL_AREA_STYLE_COLOUR ( '', #248 ) ;
#267 = CARTESIAN_POINT ( 'NONE',  ( 0.1363651627788543300, 1.669991601123317300E-017, 0.0000000000000000000 ) ) ;
#268 = COLOUR_RGB ( '',0.5098039215686274200, 0.5098039215686274200, 0.5490196078431373000 ) ;
#269 = PRODUCT_DEFINITION_FORMATION_WITH_SPECIFIED_SOURCE ( 'ANY', '', #38, .NOT_KNOWN. ) ;
#270 = EDGE_CURVE ( 'NONE', #220, #130, #233, .T. ) ;
#271 = ORIENTED_EDGE ( 'NONE', *, *, #6, .T. ) ;
#272 = ORIENTED_EDGE ( 'NONE', *, *, #217, .T. ) ;
#273 = CONICAL_SURFACE ( 'NONE', #28, 0.1562500000005012900, 0.5235987757541786800 ) ;
#274 = AXIS2_PLACEMENT_3D ( 'NONE', #209, #341, #212 ) ;
#275 =( CONVERSION_BASED_UNIT ( 'INCH', #298 ) LENGTH_UNIT ( ) NAMED_UNIT ( #148 ) );
#276 = VERTEX_POINT ( 'NONE', #171 ) ;
#277 = ORIENTED_EDGE ( 'NONE', *, *, #270, .F. ) ;
#278 = ORIENTED_EDGE ( 'NONE', *, *, #306, .F. ) ;
#279 = CIRCLE ( 'NONE', #255, 0.1363651627788543300 ) ;
#280 = ADVANCED_FACE ( 'NONE', ( #79, #10 ), #175, .T. ) ;
#281 =( NAMED_UNIT ( * ) SI_UNIT ( $, .STERADIAN. ) SOLID_ANGLE_UNIT ( ) );
#282 = AXIS2_PLACEMENT_3D ( 'NONE', #259, #154, #184 ) ;
#283 = FILL_AREA_STYLE_COLOUR ( '', #268 ) ;
#284 = DIRECTION ( 'NONE',  ( 0.0000000000000000000, 0.0000000000000000000, 1.000000000000000000 ) ) ;
#285 = ADVANCED_FACE ( 'NONE', ( #215 ), #323, .F. ) ;
#286 = LINE ( 'NONE', #40, #221 ) ;
#287 = ADVANCED_FACE ( 'NONE', ( #290 ), #273, .T. ) ;
#288 = VERTEX_POINT ( 'NONE', #180 ) ;
#289 = ORIENTED_EDGE ( 'NONE', *, *, #191, .T. ) ;
#290 = FACE_OUTER_BOUND ( 'NONE', #232, .T. ) ;
#291 = EDGE_CURVE ( 'NONE', #197, #130, #224, .T. ) ;
#292 = DIRECTION ( 'NONE',  ( 0.0000000000000000000, 0.0000000000000000000, 1.000000000000000000 ) ) ;
#293 = DIRECTION ( 'NONE',  ( -0.0000000000000000000, -0.0000000000000000000, -1.000000000000000000 ) ) ;
#294 = DIRECTION ( 'NONE',  ( 0.0000000000000000000, 1.000000000000000000, 0.0000000000000000000 ) ) ;
#295 = DIRECTION ( 'NONE',  ( 0.5000000000375604000, 6.123233996196748400E-017, -0.8660254037627529400 ) ) ;
#296 =( GEOMETRIC_REPRESENTATION_CONTEXT ( 3 ) GLOBAL_UNCERTAINTY_ASSIGNED_CONTEXT ( ( #242 ) ) GLOBAL_UNIT_ASSIGNED_CONTEXT ( ( #101, #211, #264 ) ) REPRESENTATION_CONTEXT ( 'NONE', 'WORKASPACE' ) );
#297 = CIRCLE ( 'NONE', #263, 0.1249999999999534500 ) ;
#298 = LENGTH_MEASURE_WITH_UNIT ( LENGTH_MEASURE( 0.02539999999999999900 ), #32 );
#299 = EDGE_CURVE ( 'NONE', #288, #84, #65, .T. ) ;
#300 = EDGE_LOOP ( 'NONE', ( #277, #228, #247, #337 ) ) ;
#301 = PRESENTATION_STYLE_ASSIGNMENT (( #324 ) ) ;
#302 = ORIENTED_EDGE ( 'NONE', *, *, #44, .F. ) ;
#303 = DIRECTION ( 'NONE',  ( 0.0000000000000000000, 0.0000000000000000000, 1.000000000000000000 ) ) ;
#304 = ORIENTED_EDGE ( 'NONE', *, *, #172, .F. ) ;
#305 = CARTESIAN_POINT ( 'NONE',  ( 0.0000000000000000000, 0.0000000000000000000, 0.1190944881889763700 ) ) ;
#306 = EDGE_CURVE ( 'NONE', #135, #107, #132, .T. ) ;
#307 = DIRECTION ( 'NONE',  ( 0.0000000000000000000, 0.0000000000000000000, 1.000000000000000000 ) ) ;
#308 = LINE ( 'NONE', #125, #229 ) ;
#309 = DIRECTION ( 'NONE',  ( 0.0000000000000000000, 1.000000000000000000, 0.0000000000000000000 ) ) ;
#310 = ADVANCED_FACE ( 'NONE', ( #322 ), #313, .T. ) ;
#311 = PRODUCT_DEFINITION ( 'UNKNOWN', '', #269, #332 ) ;
#312 = ORIENTED_EDGE ( 'NONE', *, *, #44, .T. ) ;
#313 = CYLINDRICAL_SURFACE ( 'NONE', #97, 0.1562500000000000000 ) ;
#314 = CARTESIAN_POINT ( 'NONE',  ( 0.0000000000000000000, 0.0000000000000000000, 0.0000000000000000000 ) ) ;
#315 = ORIENTED_EDGE ( 'NONE', *, *, #92, .F. ) ;
#316 = DIRECTION ( 'NONE',  ( -0.0000000000000000000, -0.0000000000000000000, -1.000000000000000000 ) ) ;
#317 = MECHANICAL_DESIGN_GEOMETRIC_PRESENTATION_REPRESENTATION (  '', ( #240 ), #321 ) ;
#318 = FILL_AREA_STYLE ('',( #266 ) ) ;
#319 = VERTEX_POINT ( 'NONE', #51 ) ;
#320 = STYLED_ITEM ( 'NONE', ( #161 ), #29 ) ;
#321 =( GEOMETRIC_REPRESENTATION_CONTEXT ( 3 ) GLOBAL_UNCERTAINTY_ASSIGNED_CONTEXT ( ( #169 ) ) GLOBAL_UNIT_ASSIGNED_CONTEXT ( ( #275, #82, #281 ) ) REPRESENTATION_CONTEXT ( 'NONE', 'WORKASPACE' ) );
#322 = FACE_OUTER_BOUND ( 'NONE', #60, .T. ) ;
#323 = CYLINDRICAL_SURFACE ( 'NONE', #131, 0.1250000000000000000 ) ;
#324 = SURFACE_STYLE_USAGE ( .BOTH. , #225 ) ;
#325 = DIRECTION ( 'NONE',  ( 1.000000000000000000, 0.0000000000000000000, 0.0000000000000000000 ) ) ;
#326 = ORIENTED_EDGE ( 'NONE', *, *, #39, .T. ) ;
#327 = CARTESIAN_POINT ( 'NONE',  ( 0.0000000000000000000, 0.0000000000000000000, 0.1348425196850393800 ) ) ;
#328 = CARTESIAN_POINT ( 'NONE',  ( -0.1249999999999534500, 1.530808498933906500E-017, 0.01968503936737532300 ) ) ;
#329 = FILL_AREA_STYLE ('',( #283 ) ) ;
#330 = ORIENTED_EDGE ( 'NONE', *, *, #81, .T. ) ;
#331 = ADVANCED_FACE ( 'NONE', ( #2 ), #114, .T. ) ;
#332 = PRODUCT_DEFINITION_CONTEXT ( 'detailed design', #216, 'design' ) ;
#333 = SHAPE_DEFINITION_REPRESENTATION ( #159, #29 ) ;
#334 = CARTESIAN_POINT ( 'NONE',  ( 0.1562500000000000000, 0.0000000000000000000, 0.2381889763779527500 ) ) ;
#335 = CARTESIAN_POINT ( 'NONE',  ( 0.0000000000000000000, 0.0000000000000000000, 0.0000000000000000000 ) ) ;
#336 = ORIENTED_EDGE ( 'NONE', *, *, #200, .F. ) ;
#337 = ORIENTED_EDGE ( 'NONE', *, *, #81, .F. ) ;
#338 = SURFACE_STYLE_FILL_AREA ( #318 ) ;
#339 = CARTESIAN_POINT ( 'NONE',  ( 0.0000000000000000000, 0.0000000000000000000, 0.2381889763763486200 ) ) ;
#340 = DIRECTION ( 'NONE',  ( 1.000000000000000000, 0.0000000000000000000, 0.0000000000000000000 ) ) ;
#341 = DIRECTION ( 'NONE',  ( 0.0000000000000000000, 0.0000000000000000000, 1.000000000000000000 ) ) ;
#342 = FACE_OUTER_BOUND ( 'NONE', #26, .T. ) ;
#343 = SURFACE_STYLE_USAGE ( .BOTH. , #158 ) ;
ENDSEC;
END-ISO-10303-21;
