ISO-10303-21;
HEADER;
FILE_DESCRIPTION (( 'STEP AP214' ),
    '1' );
FILE_NAME ('A-GSI-0809-08.step',
    '2017-11-29T20:15:22',
    ( '' ),
    ( '' ),
    'SwSTEP 2.0',
    'SolidWorks 2017',
    '' );
FILE_SCHEMA (( 'AUTOMOTIVE_DESIGN' ));
ENDSEC;

DATA;
#1 = SHAPE_DEFINITION_REPRESENTATION ( #76, #43 ) ;
#2 = AXIS2_PLACEMENT_3D ( 'NONE', #259, #183, #256 ) ;
#3 = EDGE_LOOP ( 'NONE', ( #292, #174, #75, #40 ) ) ;
#4 = CIRCLE ( 'NONE', #301, 0.2499999999999069100 ) ;
#5 = ADVANCED_FACE ( 'NONE', ( #186 ), #314, .F. ) ;
#6 = EDGE_CURVE ( 'NONE', #119, #287, #230, .T. ) ;
#7 = ADVANCED_FACE ( 'NONE', ( #54 ), #161, .T. ) ;
#8 = ORIENTED_EDGE ( 'NONE', *, *, #106, .T. ) ;
#9 = FACE_BOUND ( 'NONE', #197, .T. ) ;
#10 = DIRECTION ( 'NONE',  ( -0.0000000000000000000, 0.0000000000000000000, -1.000000000000000000 ) ) ;
#11 = ORIENTED_EDGE ( 'NONE', *, *, #323, .T. ) ;
#12 = DIRECTION ( 'NONE',  ( -0.0000000000000000000, -0.0000000000000000000, -1.000000000000000000 ) ) ;
#13 = CIRCLE ( 'NONE', #34, 0.2968750000000000000 ) ;
#14 = DIRECTION ( 'NONE',  ( -1.000000000000000000, 0.0000000000000000000, 0.0000000000000000000 ) ) ;
#15 = SURFACE_STYLE_FILL_AREA ( #143 ) ;
#16 = ORIENTED_EDGE ( 'NONE', *, *, #304, .F. ) ;
#17 = CIRCLE ( 'NONE', #277, 0.2500000000000000000 ) ;
#18 =( LENGTH_UNIT ( ) NAMED_UNIT ( * ) SI_UNIT ( $, .METRE. ) );
#19 =( NAMED_UNIT ( * ) SI_UNIT ( $, .STERADIAN. ) SOLID_ANGLE_UNIT ( ) );
#20 = VERTEX_POINT ( 'NONE', #318 ) ;
#21 = SURFACE_STYLE_USAGE ( .BOTH. , #266 ) ;
#22 = VECTOR ( 'NONE', #109, 39.37007874015748100 ) ;
#23 =( LENGTH_UNIT ( ) NAMED_UNIT ( * ) SI_UNIT ( $, .METRE. ) );
#24 = SURFACE_STYLE_USAGE ( .BOTH. , #164 ) ;
#25 = ORIENTED_EDGE ( 'NONE', *, *, #136, .T. ) ;
#26 = EDGE_CURVE ( 'NONE', #20, #275, #187, .T. ) ;
#27 = FACE_OUTER_BOUND ( 'NONE', #299, .T. ) ;
#28 = UNCERTAINTY_MEASURE_WITH_UNIT (LENGTH_MEASURE( 1.000000000000000100E-005 ), #190, 'distance_accuracy_value', 'NONE');
#29 = DIMENSIONAL_EXPONENTS ( 1.000000000000000000, 0.0000000000000000000, 0.0000000000000000000, 0.0000000000000000000, 0.0000000000000000000, 0.0000000000000000000, 0.0000000000000000000 ) ;
#30 = ORIENTED_EDGE ( 'NONE', *, *, #170, .T. ) ;
#31 = DIRECTION ( 'NONE',  ( 0.0000000000000000000, 0.0000000000000000000, 1.000000000000000000 ) ) ;
#32 = ORIENTED_EDGE ( 'NONE', *, *, #120, .T. ) ;
#33 = CARTESIAN_POINT ( 'NONE',  ( 0.2968750000000000000, 3.635670184968705300E-017, 0.4803149606299212400 ) ) ;
#34 = AXIS2_PLACEMENT_3D ( 'NONE', #130, #293, #191 ) ;
#35 = CARTESIAN_POINT ( 'NONE',  ( -0.2968750000000000000, 3.635670184968705300E-017, 0.0000000000000000000 ) ) ;
#36 = ORIENTED_EDGE ( 'NONE', *, *, #88, .F. ) ;
#37 = CARTESIAN_POINT ( 'NONE',  ( 0.2613651627788077800, 3.200800100056939000E-017, 0.0000000000000000000 ) ) ;
#38 = CIRCLE ( 'NONE', #241, 0.2855098372204724600 ) ;
#39 = PLANE ( 'NONE',  #220 ) ;
#40 = ORIENTED_EDGE ( 'NONE', *, *, #50, .F. ) ;
#41 = DIRECTION ( 'NONE',  ( -0.0000000000000000000, -0.0000000000000000000, -1.000000000000000000 ) ) ;
#42 = DIRECTION ( 'NONE',  ( 1.000000000000000000, 0.0000000000000000000, 0.0000000000000000000 ) ) ;
#43 = ADVANCED_BREP_SHAPE_REPRESENTATION ( 'A-GSI-0809-08', ( #81, #169 ), #251 ) ;
#44 =( NAMED_UNIT ( * ) SI_UNIT ( $, .STERADIAN. ) SOLID_ANGLE_UNIT ( ) );
#45 = DIRECTION ( 'NONE',  ( -1.000000000000000000, 0.0000000000000000000, 0.0000000000000000000 ) ) ;
#46 = DIRECTION ( 'NONE',  ( 1.000000000000000000, 0.0000000000000000000, 0.0000000000000000000 ) ) ;
#47 = ORIENTED_EDGE ( 'NONE', *, *, #205, .T. ) ;
#48 = VECTOR ( 'NONE', #307, 39.37007874015748100 ) ;
#49 = PRODUCT_DEFINITION ( 'UNKNOWN', '', #110, #201 ) ;
#50 = EDGE_CURVE ( 'NONE', #275, #279, #180, .T. ) ;
#51 = LINE ( 'NONE', #237, #194 ) ;
#52 = STYLED_ITEM ( 'NONE', ( #67 ), #81 ) ;
#53 = CLOSED_SHELL ( 'NONE', ( #58, #231, #105, #5, #102, #7, #228, #255, #125, #302 ) ) ;
#54 = FACE_OUTER_BOUND ( 'NONE', #160, .T. ) ;
#55 = EDGE_CURVE ( 'NONE', #162, #203, #154, .T. ) ;
#56 = ORIENTED_EDGE ( 'NONE', *, *, #26, .F. ) ;
#57 = DIRECTION ( 'NONE',  ( 1.000000000000000000, 0.0000000000000000000, 0.0000000000000000000 ) ) ;
#58 = ADVANCED_FACE ( 'NONE', ( #258 ), #246, .T. ) ;
#59 = PLANE ( 'NONE',  #2 ) ;
#60 = DIRECTION ( 'NONE',  ( -1.000000000000000000, 0.0000000000000000000, 0.0000000000000000000 ) ) ;
#61 = ORIENTED_EDGE ( 'NONE', *, *, #323, .F. ) ;
#62 = VECTOR ( 'NONE', #316, 39.37007874015748100 ) ;
#63 = DIRECTION ( 'NONE',  ( -0.5000000000067378300, 0.0000000000000000000, -0.8660254037805486000 ) ) ;
#64 = DIRECTION ( 'NONE',  ( 0.0000000000000000000, 0.0000000000000000000, 1.000000000000000000 ) ) ;
#65 = DIRECTION ( 'NONE',  ( -0.0000000000000000000, -0.0000000000000000000, -1.000000000000000000 ) ) ;
#66 = EDGE_LOOP ( 'NONE', ( #36, #126 ) ) ;
#67 = PRESENTATION_STYLE_ASSIGNMENT (( #24 ) ) ;
#68 = EDGE_CURVE ( 'NONE', #20, #252, #309, .T. ) ;
#69 = CARTESIAN_POINT ( 'NONE',  ( 0.0000000000000000000, 0.0000000000000000000, 0.5000000000000000000 ) ) ;
#70 = DIRECTION ( 'NONE',  ( 0.0000000000000000000, 0.0000000000000000000, 1.000000000000000000 ) ) ;
#71 = APPLICATION_CONTEXT ( 'automotive_design' ) ;
#72 = DIRECTION ( 'NONE',  ( 1.000000000000000000, 0.0000000000000000000, 0.0000000000000000000 ) ) ;
#73 = CYLINDRICAL_SURFACE ( 'NONE', #286, 0.2500000000000000000 ) ;
#74 = FACE_OUTER_BOUND ( 'NONE', #121, .T. ) ;
#75 = ORIENTED_EDGE ( 'NONE', *, *, #224, .F. ) ;
#76 = PRODUCT_DEFINITION_SHAPE ( 'NONE', 'NONE',  #49 ) ;
#77 = CIRCLE ( 'NONE', #306, 0.2968750000000000000 ) ;
#78 = EDGE_LOOP ( 'NONE', ( #134, #11 ) ) ;
#79 = PRODUCT ( 'A-GSI-0809-08', 'A-GSI-0809-08', '', ( #242 ) ) ;
#80 = SURFACE_STYLE_FILL_AREA ( #315 ) ;
#81 = MANIFOLD_SOLID_BREP ( '2017_10_02__20-02-50-484', #53 ) ;
#82 = ORIENTED_EDGE ( 'NONE', *, *, #6, .T. ) ;
#83 = CONICAL_SURFACE ( 'NONE', #200, 0.2613651627788077800, 0.5235987755924421700 ) ;
#84 = EDGE_CURVE ( 'NONE', #208, #261, #300, .T. ) ;
#85 = ORIENTED_EDGE ( 'NONE', *, *, #26, .T. ) ;
#86 = CARTESIAN_POINT ( 'NONE',  ( -0.2855098372204724600, 0.0000000000000000000, 0.5000000000000000000 ) ) ;
#87 = CARTESIAN_POINT ( 'NONE',  ( 0.2613651627788077800, 3.200800100056939000E-017, 0.0000000000000000000 ) ) ;
#88 = EDGE_CURVE ( 'NONE', #107, #221, #38, .T. ) ;
#89 = CARTESIAN_POINT ( 'NONE',  ( -0.2968750000000000000, 0.0000000000000000000, 0.4803149606299212400 ) ) ;
#90 = DIRECTION ( 'NONE',  ( 1.000000000000000000, 0.0000000000000000000, 0.0000000000000000000 ) ) ;
#91 = ORIENTED_EDGE ( 'NONE', *, *, #257, .T. ) ;
#92 = EDGE_CURVE ( 'NONE', #221, #119, #175, .T. ) ;
#93 =( CONVERSION_BASED_UNIT ( 'INCH', #317 ) LENGTH_UNIT ( ) NAMED_UNIT ( #278 ) );
#94 = DIRECTION ( 'NONE',  ( 0.0000000000000000000, 0.0000000000000000000, 1.000000000000000000 ) ) ;
#95 = DIRECTION ( 'NONE',  ( 0.0000000000000000000, 0.0000000000000000000, 1.000000000000000000 ) ) ;
#96 = ORIENTED_EDGE ( 'NONE', *, *, #257, .F. ) ;
#97 = COLOUR_RGB ( '',0.5098039215686274200, 0.5098039215686274200, 0.5490196078431373000 ) ;
#98 = EDGE_CURVE ( 'NONE', #275, #208, #112, .T. ) ;
#99 = PRESENTATION_STYLE_ASSIGNMENT (( #21 ) ) ;
#100 = ORIENTED_EDGE ( 'NONE', *, *, #92, .T. ) ;
#101 = UNCERTAINTY_MEASURE_WITH_UNIT (LENGTH_MEASURE( 1.000000000000000100E-005 ), #295, 'distance_accuracy_value', 'NONE');
#102 = ADVANCED_FACE ( 'NONE', ( #27 ), #204, .T. ) ;
#103 = AXIS2_PLACEMENT_3D ( 'NONE', #141, #271, #42 ) ;
#104 = EDGE_LOOP ( 'NONE', ( #128, #229, #225, #16 ) ) ;
#105 = ADVANCED_FACE ( 'NONE', ( #280 ), #298, .F. ) ;
#106 = EDGE_CURVE ( 'NONE', #107, #287, #214, .T. ) ;
#107 = VERTEX_POINT ( 'NONE', #86 ) ;
#108 = CARTESIAN_POINT ( 'NONE',  ( 0.2500000000000000000, 0.0000000000000000000, 0.5000000000000000000 ) ) ;
#109 = DIRECTION ( 'NONE',  ( 0.0000000000000000000, 0.0000000000000000000, 1.000000000000000000 ) ) ;
#110 = PRODUCT_DEFINITION_FORMATION_WITH_SPECIFIED_SOURCE ( 'ANY', '', #79, .NOT_KNOWN. ) ;
#111 = CARTESIAN_POINT ( 'NONE',  ( 0.0000000000000000000, 0.0000000000000000000, 0.2401574803149606200 ) ) ;
#112 = LINE ( 'NONE', #87, #236 ) ;
#113 = DIRECTION ( 'NONE',  ( 0.0000000000000000000, 0.0000000000000000000, 1.000000000000000000 ) ) ;
#114 = DIRECTION ( 'NONE',  ( -0.0000000000000000000, -0.0000000000000000000, -1.000000000000000000 ) ) ;
#115 = CARTESIAN_POINT ( 'NONE',  ( 0.2677549186102362600, 0.0000000000000000000, 0.5000000000000000000 ) ) ;
#116 = DIRECTION ( 'NONE',  ( 1.000000000000000000, 0.0000000000000000000, 0.0000000000000000000 ) ) ;
#117 = DIRECTION ( 'NONE',  ( 0.0000000000000000000, 0.0000000000000000000, 1.000000000000000000 ) ) ;
#118 = AXIS2_PLACEMENT_3D ( 'NONE', #111, #64, #209 ) ;
#119 = VERTEX_POINT ( 'NONE', #157 ) ;
#120 = EDGE_CURVE ( 'NONE', #203, #287, #149, .T. ) ;
#121 = EDGE_LOOP ( 'NONE', ( #153, #100, #196, #319 ) ) ;
#122 = FACE_OUTER_BOUND ( 'NONE', #193, .T. ) ;
#123 = AXIS2_PLACEMENT_3D ( 'NONE', #184, #215, #260 ) ;
#124 = PRODUCT_RELATED_PRODUCT_CATEGORY ( 'part', '', ( #79 ) ) ;
#125 = ADVANCED_FACE ( 'NONE', ( #168 ), #83, .F. ) ;
#126 = ORIENTED_EDGE ( 'NONE', *, *, #136, .F. ) ;
#127 = FACE_OUTER_BOUND ( 'NONE', #66, .T. ) ;
#128 = ORIENTED_EDGE ( 'NONE', *, *, #253, .F. ) ;
#129 = DIRECTION ( 'NONE',  ( -0.0000000000000000000, 0.0000000000000000000, -1.000000000000000000 ) ) ;
#130 = CARTESIAN_POINT ( 'NONE',  ( 0.0000000000000000000, 0.0000000000000000000, 0.0000000000000000000 ) ) ;
#131 = DIRECTION ( 'NONE',  ( -0.0000000000000000000, 0.0000000000000000000, -1.000000000000000000 ) ) ;
#132 = AXIS2_PLACEMENT_3D ( 'NONE', #206, #159, #60 ) ;
#133 = CARTESIAN_POINT ( 'NONE',  ( 0.0000000000000000000, 0.0000000000000000000, 0.0000000000000000000 ) ) ;
#134 = ORIENTED_EDGE ( 'NONE', *, *, #224, .T. ) ;
#135 = CARTESIAN_POINT ( 'NONE',  ( -0.2500000000000000000, 3.061616997868383000E-017, 0.5000000000000000000 ) ) ;
#136 = EDGE_CURVE ( 'NONE', #221, #107, #274, .T. ) ;
#137 = CIRCLE ( 'NONE', #226, 0.2613651627788077800 ) ;
#138 = DIRECTION ( 'NONE',  ( 0.0000000000000000000, 0.0000000000000000000, 1.000000000000000000 ) ) ;
#139 =( NAMED_UNIT ( * ) SI_UNIT ( $, .STERADIAN. ) SOLID_ANGLE_UNIT ( ) );
#140 = FILL_AREA_STYLE_COLOUR ( '', #171 ) ;
#141 = CARTESIAN_POINT ( 'NONE',  ( 0.0000000000000000000, 0.0000000000000000000, 0.01968503936961325100 ) ) ;
#142 = AXIS2_PLACEMENT_3D ( 'NONE', #281, #10, #177 ) ;
#143 = FILL_AREA_STYLE ('',( #140 ) ) ;
#144 = ORIENTED_EDGE ( 'NONE', *, *, #92, .F. ) ;
#145 =( NAMED_UNIT ( * ) PLANE_ANGLE_UNIT ( ) SI_UNIT ( $, .RADIAN. ) );
#146 =( NAMED_UNIT ( * ) PLANE_ANGLE_UNIT ( ) SI_UNIT ( $, .RADIAN. ) );
#147 = APPLICATION_PROTOCOL_DEFINITION ( 'draft international standard', 'automotive_design', 1998, #163 ) ;
#148 = ORIENTED_EDGE ( 'NONE', *, *, #205, .F. ) ;
#149 = LINE ( 'NONE', #233, #22 ) ;
#150 = EDGE_LOOP ( 'NONE', ( #282, #32, #322, #148 ) ) ;
#151 = CARTESIAN_POINT ( 'NONE',  ( 0.0000000000000000000, 0.0000000000000000000, 0.4803149606299212400 ) ) ;
#152 = AXIS2_PLACEMENT_3D ( 'NONE', #165, #219, #45 ) ;
#153 = ORIENTED_EDGE ( 'NONE', *, *, #88, .T. ) ;
#154 = CIRCLE ( 'NONE', #207, 0.2968750000000000000 ) ;
#155 = DIRECTION ( 'NONE',  ( 0.0000000000000000000, -0.0000000000000000000, 1.000000000000000000 ) ) ;
#156 = MECHANICAL_DESIGN_GEOMETRIC_PRESENTATION_REPRESENTATION (  '', ( #52 ), #181 ) ;
#157 = CARTESIAN_POINT ( 'NONE',  ( 0.2968750000000000000, 3.635670184968705300E-017, 0.4803149606299212400 ) ) ;
#158 = DIRECTION ( 'NONE',  ( -1.000000000000000000, 0.0000000000000000000, 0.0000000000000000000 ) ) ;
#159 = DIRECTION ( 'NONE',  ( -0.0000000000000000000, 0.0000000000000000000, -1.000000000000000000 ) ) ;
#160 = EDGE_LOOP ( 'NONE', ( #144, #25, #8, #248 ) ) ;
#161 = CONICAL_SURFACE ( 'NONE', #142, 0.2968750000000000000, 0.5235987756060790400 ) ;
#162 = VERTEX_POINT ( 'NONE', #310 ) ;
#163 = APPLICATION_CONTEXT ( 'automotive_design' ) ;
#164 = SURFACE_SIDE_STYLE ('',( #80 ) ) ;
#165 = CARTESIAN_POINT ( 'NONE',  ( 0.0000000000000000000, 0.0000000000000000000, 0.0000000000000000000 ) ) ;
#166 = CARTESIAN_POINT ( 'NONE',  ( 0.2500000000000000000, 0.0000000000000000000, 0.2598425196850393500 ) ) ;
#167 = AXIS2_PLACEMENT_3D ( 'NONE', #305, #31, #57 ) ;
#168 = FACE_OUTER_BOUND ( 'NONE', #212, .T. ) ;
#169 = AXIS2_PLACEMENT_3D ( 'NONE', #321, #195, #46 ) ;
#170 = EDGE_CURVE ( 'NONE', #261, #208, #137, .T. ) ;
#171 = COLOUR_RGB ( '',0.5098039215686274200, 0.5098039215686274200, 0.5490196078431373000 ) ;
#172 = AXIS2_PLACEMENT_3D ( 'NONE', #234, #210, #178 ) ;
#173 = VECTOR ( 'NONE', #94, 39.37007874015748100 ) ;
#174 = ORIENTED_EDGE ( 'NONE', *, *, #68, .T. ) ;
#175 = LINE ( 'NONE', #33, #48 ) ;
#176 = MECHANICAL_DESIGN_GEOMETRIC_PRESENTATION_REPRESENTATION (  '', ( #223 ), #303 ) ;
#177 = DIRECTION ( 'NONE',  ( -1.000000000000000000, 0.0000000000000000000, 0.0000000000000000000 ) ) ;
#178 = DIRECTION ( 'NONE',  ( -1.000000000000000000, 0.0000000000000000000, 0.0000000000000000000 ) ) ;
#179 = DIRECTION ( 'NONE',  ( -1.000000000000000000, 0.0000000000000000000, 0.0000000000000000000 ) ) ;
#180 = LINE ( 'NONE', #166, #320 ) ;
#181 =( GEOMETRIC_REPRESENTATION_CONTEXT ( 3 ) GLOBAL_UNCERTAINTY_ASSIGNED_CONTEXT ( ( #101 ) ) GLOBAL_UNIT_ASSIGNED_CONTEXT ( ( #295, #146, #19 ) ) REPRESENTATION_CONTEXT ( 'NONE', 'WORKASPACE' ) );
#182 = CARTESIAN_POINT ( 'NONE',  ( 0.0000000000000000000, 0.0000000000000000000, 0.4803149606299212400 ) ) ;
#183 = DIRECTION ( 'NONE',  ( 0.0000000000000000000, 0.0000000000000000000, -1.000000000000000000 ) ) ;
#184 = CARTESIAN_POINT ( 'NONE',  ( 0.0000000000000000000, 0.0000000000000000000, 0.4803149606299212400 ) ) ;
#185 = EDGE_CURVE ( 'NONE', #287, #119, #77, .T. ) ;
#186 = FACE_OUTER_BOUND ( 'NONE', #3, .T. ) ;
#187 = CIRCLE ( 'NONE', #103, 0.2499999999999069100 ) ;
#188 = CARTESIAN_POINT ( 'NONE',  ( 0.0000000000000000000, 0.0000000000000000000, 0.0000000000000000000 ) ) ;
#189 = PRESENTATION_LAYER_ASSIGNMENT (  '', '', ( #52 ) ) ;
#190 =( CONVERSION_BASED_UNIT ( 'INCH', #202 ) LENGTH_UNIT ( ) NAMED_UNIT ( #227 ) );
#191 = DIRECTION ( 'NONE',  ( 1.000000000000000000, 0.0000000000000000000, 0.0000000000000000000 ) ) ;
#192 = UNCERTAINTY_MEASURE_WITH_UNIT (LENGTH_MEASURE( 1.000000000000000100E-005 ), #93, 'distance_accuracy_value', 'NONE');
#193 = EDGE_LOOP ( 'NONE', ( #273, #96 ) ) ;
#194 = VECTOR ( 'NONE', #113, 39.37007874015748100 ) ;
#195 = DIRECTION ( 'NONE',  ( 0.0000000000000000000, 0.0000000000000000000, 1.000000000000000000 ) ) ;
#196 = ORIENTED_EDGE ( 'NONE', *, *, #185, .F. ) ;
#197 = EDGE_LOOP ( 'NONE', ( #30, #232 ) ) ;
#198 = FACE_OUTER_BOUND ( 'NONE', #308, .T. ) ;
#199 = DIRECTION ( 'NONE',  ( -0.0000000000000000000, -0.0000000000000000000, -1.000000000000000000 ) ) ;
#200 = AXIS2_PLACEMENT_3D ( 'NONE', #285, #131, #158 ) ;
#201 = PRODUCT_DEFINITION_CONTEXT ( 'detailed design', #163, 'design' ) ;
#202 = LENGTH_MEASURE_WITH_UNIT ( LENGTH_MEASURE( 0.02539999999999999900 ), #18 );
#203 = VERTEX_POINT ( 'NONE', #35 ) ;
#204 = CYLINDRICAL_SURFACE ( 'NONE', #118, 0.2968750000000000000 ) ;
#205 = EDGE_CURVE ( 'NONE', #162, #119, #51, .T. ) ;
#206 = CARTESIAN_POINT ( 'NONE',  ( 0.0000000000000000000, 0.0000000000000000000, 0.5000000000000000000 ) ) ;
#207 = AXIS2_PLACEMENT_3D ( 'NONE', #188, #95, #72 ) ;
#208 = VERTEX_POINT ( 'NONE', #37 ) ;
#209 = DIRECTION ( 'NONE',  ( 1.000000000000000000, 0.0000000000000000000, 0.0000000000000000000 ) ) ;
#210 = DIRECTION ( 'NONE',  ( -0.0000000000000000000, 0.0000000000000000000, -1.000000000000000000 ) ) ;
#211 = CARTESIAN_POINT ( 'NONE',  ( 0.0000000000000000000, 0.0000000000000000000, 0.5000000000000000000 ) ) ;
#212 = EDGE_LOOP ( 'NONE', ( #216, #56, #267, #245 ) ) ;
#213 = CARTESIAN_POINT ( 'NONE',  ( 0.0000000000000000000, 0.0000000000000000000, 0.5000000000000000000 ) ) ;
#214 = LINE ( 'NONE', #89, #254 ) ;
#215 = DIRECTION ( 'NONE',  ( -0.0000000000000000000, 0.0000000000000000000, -1.000000000000000000 ) ) ;
#216 = ORIENTED_EDGE ( 'NONE', *, *, #98, .F. ) ;
#217 = CARTESIAN_POINT ( 'NONE',  ( -0.2500000000000000000, 3.061616997868383000E-017, 0.2598425196850393500 ) ) ;
#218 = APPLICATION_PROTOCOL_DEFINITION ( 'draft international standard', 'automotive_design', 1998, #71 ) ;
#219 = DIRECTION ( 'NONE',  ( 0.0000000000000000000, -0.0000000000000000000, 1.000000000000000000 ) ) ;
#220 = AXIS2_PLACEMENT_3D ( 'NONE', #115, #138, #313 ) ;
#221 = VERTEX_POINT ( 'NONE', #288 ) ;
#222 = LENGTH_MEASURE_WITH_UNIT ( LENGTH_MEASURE( 0.02539999999999999900 ), #23 );
#223 = STYLED_ITEM ( 'NONE', ( #99 ), #43 ) ;
#224 = EDGE_CURVE ( 'NONE', #279, #252, #17, .T. ) ;
#225 = ORIENTED_EDGE ( 'NONE', *, *, #170, .F. ) ;
#226 = AXIS2_PLACEMENT_3D ( 'NONE', #133, #155, #14 ) ;
#227 = DIMENSIONAL_EXPONENTS ( 1.000000000000000000, 0.0000000000000000000, 0.0000000000000000000, 0.0000000000000000000, 0.0000000000000000000, 0.0000000000000000000, 0.0000000000000000000 ) ;
#228 = ADVANCED_FACE ( 'NONE', ( #9, #122 ), #59, .T. ) ;
#229 = ORIENTED_EDGE ( 'NONE', *, *, #98, .T. ) ;
#230 = CIRCLE ( 'NONE', #294, 0.2968750000000000000 ) ;
#231 = ADVANCED_FACE ( 'NONE', ( #74 ), #262, .T. ) ;
#232 = ORIENTED_EDGE ( 'NONE', *, *, #84, .T. ) ;
#233 = CARTESIAN_POINT ( 'NONE',  ( -0.2968750000000000000, 3.635670184968705300E-017, 0.2401574803149606200 ) ) ;
#234 = CARTESIAN_POINT ( 'NONE',  ( 0.0000000000000000000, 0.0000000000000000000, 0.0000000000000000000 ) ) ;
#235 = AXIS2_PLACEMENT_3D ( 'NONE', #69, #41, #116 ) ;
#236 = VECTOR ( 'NONE', #284, 39.37007874015748100 ) ;
#237 = CARTESIAN_POINT ( 'NONE',  ( 0.2968750000000000000, 0.0000000000000000000, 0.2401574803149606200 ) ) ;
#238 = DIRECTION ( 'NONE',  ( 1.000000000000000000, 0.0000000000000000000, 0.0000000000000000000 ) ) ;
#239 =( LENGTH_UNIT ( ) NAMED_UNIT ( * ) SI_UNIT ( $, .METRE. ) );
#240 = DIRECTION ( 'NONE',  ( 1.000000000000000000, 0.0000000000000000000, 0.0000000000000000000 ) ) ;
#241 = AXIS2_PLACEMENT_3D ( 'NONE', #211, #129, #179 ) ;
#242 = PRODUCT_CONTEXT ( 'NONE', #71, 'mechanical' ) ;
#243 = CARTESIAN_POINT ( 'NONE',  ( -0.2968750000000000000, 0.0000000000000000000, 0.4803149606299212400 ) ) ;
#244 = FILL_AREA_STYLE_COLOUR ( '', #97 ) ;
#245 = ORIENTED_EDGE ( 'NONE', *, *, #84, .F. ) ;
#246 = CYLINDRICAL_SURFACE ( 'NONE', #272, 0.2968750000000000000 ) ;
#247 =( NAMED_UNIT ( * ) PLANE_ANGLE_UNIT ( ) SI_UNIT ( $, .RADIAN. ) );
#248 = ORIENTED_EDGE ( 'NONE', *, *, #6, .F. ) ;
#249 = FACE_BOUND ( 'NONE', #78, .T. ) ;
#250 = ORIENTED_EDGE ( 'NONE', *, *, #120, .F. ) ;
#251 =( GEOMETRIC_REPRESENTATION_CONTEXT ( 3 ) GLOBAL_UNCERTAINTY_ASSIGNED_CONTEXT ( ( #192 ) ) GLOBAL_UNIT_ASSIGNED_CONTEXT ( ( #93, #247, #139 ) ) REPRESENTATION_CONTEXT ( 'NONE', 'WORKASPACE' ) );
#252 = VERTEX_POINT ( 'NONE', #135 ) ;
#253 = EDGE_CURVE ( 'NONE', #275, #20, #4, .T. ) ;
#254 = VECTOR ( 'NONE', #63, 39.37007874015748100 ) ;
#255 = ADVANCED_FACE ( 'NONE', ( #127, #249 ), #39, .T. ) ;
#256 = DIRECTION ( 'NONE',  ( -1.000000000000000000, 0.0000000000000000000, -0.0000000000000000000 ) ) ;
#257 = EDGE_CURVE ( 'NONE', #203, #162, #13, .T. ) ;
#258 = FACE_OUTER_BOUND ( 'NONE', #150, .T. ) ;
#259 = CARTESIAN_POINT ( 'NONE',  ( 0.2791200813897638000, 0.0000000000000000000, 0.0000000000000000000 ) ) ;
#260 = DIRECTION ( 'NONE',  ( -1.000000000000000000, 0.0000000000000000000, 0.0000000000000000000 ) ) ;
#261 = VERTEX_POINT ( 'NONE', #311 ) ;
#262 = CONICAL_SURFACE ( 'NONE', #123, 0.2968750000000000000, 0.5235987756060790400 ) ;
#263 = CARTESIAN_POINT ( 'NONE',  ( 0.0000000000000000000, 0.0000000000000000000, 0.01968503936961325100 ) ) ;
#264 = PRESENTATION_LAYER_ASSIGNMENT (  '', '', ( #223 ) ) ;
#265 = CARTESIAN_POINT ( 'NONE',  ( 0.0000000000000000000, 0.0000000000000000000, 0.2401574803149606200 ) ) ;
#266 = SURFACE_SIDE_STYLE ('',( #15 ) ) ;
#267 = ORIENTED_EDGE ( 'NONE', *, *, #304, .T. ) ;
#268 = DIRECTION ( 'NONE',  ( 1.000000000000000000, 0.0000000000000000000, 0.0000000000000000000 ) ) ;
#269 = LINE ( 'NONE', #270, #62 ) ;
#270 = CARTESIAN_POINT ( 'NONE',  ( -0.2613651627788077800, 0.0000000000000000000, 0.0000000000000000000 ) ) ;
#271 = DIRECTION ( 'NONE',  ( -0.0000000000000000000, -0.0000000000000000000, -1.000000000000000000 ) ) ;
#272 = AXIS2_PLACEMENT_3D ( 'NONE', #265, #70, #240 ) ;
#273 = ORIENTED_EDGE ( 'NONE', *, *, #55, .F. ) ;
#274 = CIRCLE ( 'NONE', #132, 0.2855098372204724600 ) ;
#275 = VERTEX_POINT ( 'NONE', #289 ) ;
#276 = CIRCLE ( 'NONE', #235, 0.2500000000000000000 ) ;
#277 = AXIS2_PLACEMENT_3D ( 'NONE', #213, #65, #283 ) ;
#278 = DIMENSIONAL_EXPONENTS ( 1.000000000000000000, 0.0000000000000000000, 0.0000000000000000000, 0.0000000000000000000, 0.0000000000000000000, 0.0000000000000000000, 0.0000000000000000000 ) ;
#279 = VERTEX_POINT ( 'NONE', #108 ) ;
#280 = FACE_OUTER_BOUND ( 'NONE', #104, .T. ) ;
#281 = CARTESIAN_POINT ( 'NONE',  ( 0.0000000000000000000, 0.0000000000000000000, 0.4803149606299212400 ) ) ;
#282 = ORIENTED_EDGE ( 'NONE', *, *, #55, .T. ) ;
#283 = DIRECTION ( 'NONE',  ( 1.000000000000000000, 0.0000000000000000000, 0.0000000000000000000 ) ) ;
#284 = DIRECTION ( 'NONE',  ( 0.4999999999949279500, 6.123233995674651900E-017, -0.8660254037873670300 ) ) ;
#285 = CARTESIAN_POINT ( 'NONE',  ( 0.0000000000000000000, 0.0000000000000000000, 0.0000000000000000000 ) ) ;
#286 = AXIS2_PLACEMENT_3D ( 'NONE', #291, #290, #268 ) ;
#287 = VERTEX_POINT ( 'NONE', #243 ) ;
#288 = CARTESIAN_POINT ( 'NONE',  ( 0.2855098372204724600, 3.566078633870019500E-017, 0.5000000000000000000 ) ) ;
#289 = CARTESIAN_POINT ( 'NONE',  ( 0.2499999999999069100, 0.0000000000000000000, 0.01968503936961325100 ) ) ;
#290 = DIRECTION ( 'NONE',  ( 0.0000000000000000000, 0.0000000000000000000, 1.000000000000000000 ) ) ;
#291 = CARTESIAN_POINT ( 'NONE',  ( 0.0000000000000000000, 0.0000000000000000000, 0.2598425196850393500 ) ) ;
#292 = ORIENTED_EDGE ( 'NONE', *, *, #253, .T. ) ;
#293 = DIRECTION ( 'NONE',  ( 0.0000000000000000000, 0.0000000000000000000, 1.000000000000000000 ) ) ;
#294 = AXIS2_PLACEMENT_3D ( 'NONE', #151, #199, #297 ) ;
#295 =( CONVERSION_BASED_UNIT ( 'INCH', #222 ) LENGTH_UNIT ( ) NAMED_UNIT ( #29 ) );
#296 = ORIENTED_EDGE ( 'NONE', *, *, #68, .F. ) ;
#297 = DIRECTION ( 'NONE',  ( 1.000000000000000000, 0.0000000000000000000, 0.0000000000000000000 ) ) ;
#298 = CONICAL_SURFACE ( 'NONE', #172, 0.2613651627788077800, 0.5235987755924421700 ) ;
#299 = EDGE_LOOP ( 'NONE', ( #250, #91, #47, #82 ) ) ;
#300 = CIRCLE ( 'NONE', #152, 0.2613651627788077800 ) ;
#301 = AXIS2_PLACEMENT_3D ( 'NONE', #263, #114, #238 ) ;
#302 = ADVANCED_FACE ( 'NONE', ( #198 ), #73, .F. ) ;
#303 =( GEOMETRIC_REPRESENTATION_CONTEXT ( 3 ) GLOBAL_UNCERTAINTY_ASSIGNED_CONTEXT ( ( #28 ) ) GLOBAL_UNIT_ASSIGNED_CONTEXT ( ( #190, #145, #44 ) ) REPRESENTATION_CONTEXT ( 'NONE', 'WORKASPACE' ) );
#304 = EDGE_CURVE ( 'NONE', #20, #261, #269, .T. ) ;
#305 = CARTESIAN_POINT ( 'NONE',  ( 0.0000000000000000000, 0.0000000000000000000, 0.2598425196850393500 ) ) ;
#306 = AXIS2_PLACEMENT_3D ( 'NONE', #182, #12, #90 ) ;
#307 = DIRECTION ( 'NONE',  ( 0.5000000000067378300, 6.123233995819280900E-017, -0.8660254037805486000 ) ) ;
#308 = EDGE_LOOP ( 'NONE', ( #296, #85, #312, #61 ) ) ;
#309 = LINE ( 'NONE', #217, #173 ) ;
#310 = CARTESIAN_POINT ( 'NONE',  ( 0.2968750000000000000, 0.0000000000000000000, 0.0000000000000000000 ) ) ;
#311 = CARTESIAN_POINT ( 'NONE',  ( -0.2613651627788077800, 0.0000000000000000000, 0.0000000000000000000 ) ) ;
#312 = ORIENTED_EDGE ( 'NONE', *, *, #50, .T. ) ;
#313 = DIRECTION ( 'NONE',  ( 1.000000000000000000, 0.0000000000000000000, -0.0000000000000000000 ) ) ;
#314 = CYLINDRICAL_SURFACE ( 'NONE', #167, 0.2500000000000000000 ) ;
#315 = FILL_AREA_STYLE ('',( #244 ) ) ;
#316 = DIRECTION ( 'NONE',  ( -0.4999999999949279500, 0.0000000000000000000, -0.8660254037873670300 ) ) ;
#317 = LENGTH_MEASURE_WITH_UNIT ( LENGTH_MEASURE( 0.02539999999999999900 ), #239 );
#318 = CARTESIAN_POINT ( 'NONE',  ( -0.2499999999999069100, 3.061616997867812900E-017, 0.01968503936961325100 ) ) ;
#319 = ORIENTED_EDGE ( 'NONE', *, *, #106, .F. ) ;
#320 = VECTOR ( 'NONE', #117, 39.37007874015748100 ) ;
#321 = CARTESIAN_POINT ( 'NONE',  ( 0.0000000000000000000, 0.0000000000000000000, 0.0000000000000000000 ) ) ;
#322 = ORIENTED_EDGE ( 'NONE', *, *, #185, .T. ) ;
#323 = EDGE_CURVE ( 'NONE', #252, #279, #276, .T. ) ;
ENDSEC;
END-ISO-10303-21;
