ISO-10303-21;
HEADER;
FILE_DESCRIPTION (( 'STEP AP214' ),
    '1' );
FILE_NAME ('A-GSI-1214-12.step',
    '2017-11-29T20:15:36',
    ( '' ),
    ( '' ),
    'SwSTEP 2.0',
    'SolidWorks 2017',
    '' );
FILE_SCHEMA (( 'AUTOMOTIVE_DESIGN' ));
ENDSEC;

DATA;
#1 = CYLINDRICAL_SURFACE ( 'NONE', #277, 0.3750000000000000600 ) ;
#2 = VERTEX_POINT ( 'NONE', #58 ) ;
#3 = PRODUCT_DEFINITION_CONTEXT ( 'detailed design', #304, 'design' ) ;
#4 = EDGE_CURVE ( 'NONE', #175, #286, #176, .T. ) ;
#5 = ORIENTED_EDGE ( 'NONE', *, *, #252, .F. ) ;
#6 = CARTESIAN_POINT ( 'NONE',  ( -0.3750000000000000600, 4.592425496802575500E-017, 0.7500000000000001100 ) ) ;
#7 = APPLICATION_PROTOCOL_DEFINITION ( 'draft international standard', 'automotive_design', 1998, #304 ) ;
#8 =( GEOMETRIC_REPRESENTATION_CONTEXT ( 3 ) GLOBAL_UNCERTAINTY_ASSIGNED_CONTEXT ( ( #144 ) ) GLOBAL_UNIT_ASSIGNED_CONTEXT ( ( #228, #76, #57 ) ) REPRESENTATION_CONTEXT ( 'NONE', 'WORKASPACE' ) );
#9 = DIRECTION ( 'NONE',  ( -0.0000000000000000000, -0.0000000000000000000, -1.000000000000000000 ) ) ;
#10 = ADVANCED_FACE ( 'NONE', ( #220 ), #264, .T. ) ;
#11 = FACE_OUTER_BOUND ( 'NONE', #199, .T. ) ;
#12 = DIRECTION ( 'NONE',  ( 0.0000000000000000000, 0.0000000000000000000, 1.000000000000000000 ) ) ;
#13 = CARTESIAN_POINT ( 'NONE',  ( 0.4375000000000000600, 5.357829746269670700E-017, 0.7185039370078739600 ) ) ;
#14 =( CONVERSION_BASED_UNIT ( 'INCH', #212 ) LENGTH_UNIT ( ) NAMED_UNIT ( #206 ) );
#15 = CARTESIAN_POINT ( 'NONE',  ( 0.0000000000000000000, 0.0000000000000000000, 0.7500000000000001100 ) ) ;
#16 = ORIENTED_EDGE ( 'NONE', *, *, #267, .F. ) ;
#17 = EDGE_CURVE ( 'NONE', #309, #313, #102, .T. ) ;
#18 = AXIS2_PLACEMENT_3D ( 'NONE', #143, #192, #293 ) ;
#19 = CARTESIAN_POINT ( 'NONE',  ( -0.4375000000000000600, 0.0000000000000000000, 0.7185039370078739600 ) ) ;
#20 = VECTOR ( 'NONE', #64, 39.37007874015748100 ) ;
#21 = FACE_OUTER_BOUND ( 'NONE', #302, .T. ) ;
#22 = CARTESIAN_POINT ( 'NONE',  ( 0.0000000000000000000, 0.0000000000000000000, 0.7185039370078739600 ) ) ;
#23 = CARTESIAN_POINT ( 'NONE',  ( 0.0000000000000000000, 0.0000000000000000000, -8.537024980200822600E-018 ) ) ;
#24 = ORIENTED_EDGE ( 'NONE', *, *, #4, .F. ) ;
#25 = AXIS2_PLACEMENT_3D ( 'NONE', #239, #240, #88 ) ;
#26 = ORIENTED_EDGE ( 'NONE', *, *, #17, .T. ) ;
#27 = LINE ( 'NONE', #78, #31 ) ;
#28 = EDGE_CURVE ( 'NONE', #125, #258, #172, .T. ) ;
#29 = CARTESIAN_POINT ( 'NONE',  ( 0.3863651627795275900, 4.731608598999945100E-017, 0.0000000000000000000 ) ) ;
#30 = VERTEX_POINT ( 'NONE', #260 ) ;
#31 = VECTOR ( 'NONE', #105, 39.37007874015748100 ) ;
#32 = CARTESIAN_POINT ( 'NONE',  ( 0.0000000000000000000, 0.0000000000000000000, 0.7500000000000001100 ) ) ;
#33 =( LENGTH_UNIT ( ) NAMED_UNIT ( * ) SI_UNIT ( $, .METRE. ) );
#34 = PRESENTATION_LAYER_ASSIGNMENT (  '', '', ( #146 ) ) ;
#35 = CARTESIAN_POINT ( 'NONE',  ( 0.0000000000000000000, 0.0000000000000000000, 0.01968503937007875700 ) ) ;
#36 = ORIENTED_EDGE ( 'NONE', *, *, #97, .T. ) ;
#37 = DIRECTION ( 'NONE',  ( 1.000000000000000000, 0.0000000000000000000, 0.0000000000000000000 ) ) ;
#38 = AXIS2_PLACEMENT_3D ( 'NONE', #62, #89, #63 ) ;
#39 = ORIENTED_EDGE ( 'NONE', *, *, #198, .T. ) ;
#40 = CARTESIAN_POINT ( 'NONE',  ( 0.0000000000000000000, 0.0000000000000000000, 0.0000000000000000000 ) ) ;
#41 = STYLED_ITEM ( 'NONE', ( #314 ), #270 ) ;
#42 = DIRECTION ( 'NONE',  ( -0.0000000000000000000, -0.0000000000000000000, -1.000000000000000000 ) ) ;
#43 = CARTESIAN_POINT ( 'NONE',  ( -0.3750000000000000600, 4.592425496802576100E-017, 0.01968503937007875700 ) ) ;
#44 = FACE_OUTER_BOUND ( 'NONE', #56, .T. ) ;
#45 =( GEOMETRIC_REPRESENTATION_CONTEXT ( 3 ) GLOBAL_UNCERTAINTY_ASSIGNED_CONTEXT ( ( #250 ) ) GLOBAL_UNIT_ASSIGNED_CONTEXT ( ( #278, #157, #55 ) ) REPRESENTATION_CONTEXT ( 'NONE', 'WORKASPACE' ) );
#46 = AXIS2_PLACEMENT_3D ( 'NONE', #265, #295, #255 ) ;
#47 = ORIENTED_EDGE ( 'NONE', *, *, #69, .T. ) ;
#48 = PRESENTATION_STYLE_ASSIGNMENT (( #53 ) ) ;
#49 = AXIS2_PLACEMENT_3D ( 'NONE', #35, #230, #52 ) ;
#50 = ORIENTED_EDGE ( 'NONE', *, *, #151, .F. ) ;
#51 = VERTEX_POINT ( 'NONE', #315 ) ;
#52 = DIRECTION ( 'NONE',  ( 1.000000000000000000, 0.0000000000000000000, -5.691349986800549600E-017 ) ) ;
#53 = SURFACE_STYLE_USAGE ( .BOTH. , #307 ) ;
#54 = MECHANICAL_DESIGN_GEOMETRIC_PRESENTATION_REPRESENTATION (  '', ( #41 ), #45 ) ;
#55 =( NAMED_UNIT ( * ) SI_UNIT ( $, .STERADIAN. ) SOLID_ANGLE_UNIT ( ) );
#56 = EDGE_LOOP ( 'NONE', ( #147, #116 ) ) ;
#57 =( NAMED_UNIT ( * ) SI_UNIT ( $, .STERADIAN. ) SOLID_ANGLE_UNIT ( ) );
#58 = CARTESIAN_POINT ( 'NONE',  ( -0.4375000000000000600, 0.0000000000000000000, 0.7185039370078739600 ) ) ;
#59 = EDGE_CURVE ( 'NONE', #286, #175, #148, .T. ) ;
#60 = AXIS2_PLACEMENT_3D ( 'NONE', #187, #135, #310 ) ;
#61 = EDGE_LOOP ( 'NONE', ( #221, #47, #289, #99 ) ) ;
#62 = CARTESIAN_POINT ( 'NONE',  ( 0.3971578697755905300, 0.0000000000000000000, 0.7500000000000001100 ) ) ;
#63 = DIRECTION ( 'NONE',  ( 1.000000000000000000, 0.0000000000000000000, -0.0000000000000000000 ) ) ;
#64 = DIRECTION ( 'NONE',  ( -0.5000000000392143000, 0.0000000000000000000, -0.8660254037617981500 ) ) ;
#65 = FACE_BOUND ( 'NONE', #185, .T. ) ;
#66 = CARTESIAN_POINT ( 'NONE',  ( -0.4375000000000000600, 5.357829746269670700E-017, 0.0000000000000000000 ) ) ;
#67 = DIRECTION ( 'NONE',  ( 0.0000000000000000000, 0.0000000000000000000, 1.000000000000000000 ) ) ;
#68 = CLOSED_SHELL ( 'NONE', ( #233, #276, #303, #109, #10, #164, #202, #80, #134, #229 ) ) ;
#69 = EDGE_CURVE ( 'NONE', #30, #51, #158, .T. ) ;
#70 = VECTOR ( 'NONE', #213, 39.37007874015748100 ) ;
#71 = EDGE_LOOP ( 'NONE', ( #318, #106, #155, #298 ) ) ;
#72 = LINE ( 'NONE', #234, #195 ) ;
#73 = AXIS2_PLACEMENT_3D ( 'NONE', #170, #67, #94 ) ;
#74 = CARTESIAN_POINT ( 'NONE',  ( 0.4375000000000000600, 0.0000000000000000000, 0.0000000000000000000 ) ) ;
#75 = CARTESIAN_POINT ( 'NONE',  ( 0.3750000000000000600, 0.0000000000000000000, 0.7500000000000001100 ) ) ;
#76 =( NAMED_UNIT ( * ) PLANE_ANGLE_UNIT ( ) SI_UNIT ( $, .RADIAN. ) );
#77 = LINE ( 'NONE', #19, #20 ) ;
#78 = CARTESIAN_POINT ( 'NONE',  ( 0.3863651627795275900, 4.731608598999945100E-017, -8.537024980200822600E-018 ) ) ;
#79 = LINE ( 'NONE', #128, #156 ) ;
#80 = ADVANCED_FACE ( 'NONE', ( #44, #90 ), #311, .T. ) ;
#81 = DIRECTION ( 'NONE',  ( -0.5000000000067381700, 0.0000000000000000000, -0.8660254037805483800 ) ) ;
#82 = AXIS2_PLACEMENT_3D ( 'NONE', #129, #275, #85 ) ;
#83 = SURFACE_SIDE_STYLE ('',( #91 ) ) ;
#84 = DIRECTION ( 'NONE',  ( 0.0000000000000000000, 0.0000000000000000000, 1.000000000000000000 ) ) ;
#85 = DIRECTION ( 'NONE',  ( 1.000000000000000000, 0.0000000000000000000, 0.0000000000000000000 ) ) ;
#86 = ORIENTED_EDGE ( 'NONE', *, *, #238, .F. ) ;
#87 = CIRCLE ( 'NONE', #285, 0.4375000000000000600 ) ;
#88 = DIRECTION ( 'NONE',  ( -1.000000000000000000, 0.0000000000000000000, 0.0000000000000000000 ) ) ;
#89 = DIRECTION ( 'NONE',  ( 0.0000000000000000000, 0.0000000000000000000, 1.000000000000000000 ) ) ;
#90 = FACE_BOUND ( 'NONE', #291, .T. ) ;
#91 = SURFACE_STYLE_FILL_AREA ( #308 ) ;
#92 = AXIS2_PLACEMENT_3D ( 'NONE', #142, #317, #169 ) ;
#93 = DIRECTION ( 'NONE',  ( -0.0000000000000000000, -0.0000000000000000000, -1.000000000000000000 ) ) ;
#94 = DIRECTION ( 'NONE',  ( -1.000000000000000000, 0.0000000000000000000, 0.0000000000000000000 ) ) ;
#95 = ORIENTED_EDGE ( 'NONE', *, *, #151, .T. ) ;
#96 = SURFACE_STYLE_FILL_AREA ( #231 ) ;
#97 = EDGE_CURVE ( 'NONE', #245, #2, #211, .T. ) ;
#98 = AXIS2_PLACEMENT_3D ( 'NONE', #32, #177, #306 ) ;
#99 = ORIENTED_EDGE ( 'NONE', *, *, #97, .F. ) ;
#100 = CONICAL_SURFACE ( 'NONE', #133, 0.4375000000000000600, 0.5235987756435795900 ) ;
#101 = AXIS2_PLACEMENT_3D ( 'NONE', #207, #166, #290 ) ;
#102 = CIRCLE ( 'NONE', #153, 0.3750000000000000600 ) ;
#103 = LENGTH_MEASURE_WITH_UNIT ( LENGTH_MEASURE( 0.02539999999999999900 ), #280 );
#104 = EDGE_CURVE ( 'NONE', #262, #208, #197, .T. ) ;
#105 = DIRECTION ( 'NONE',  ( 0.5000000000067381700, 6.123233995819284600E-017, -0.8660254037805483800 ) ) ;
#106 = ORIENTED_EDGE ( 'NONE', *, *, #261, .T. ) ;
#107 = FACE_OUTER_BOUND ( 'NONE', #272, .T. ) ;
#108 = DIRECTION ( 'NONE',  ( -0.0000000000000000000, -0.0000000000000000000, -1.000000000000000000 ) ) ;
#109 = ADVANCED_FACE ( 'NONE', ( #130 ), #271, .F. ) ;
#110 = PRODUCT_DEFINITION_FORMATION_WITH_SPECIFIED_SOURCE ( 'ANY', '', #247, .NOT_KNOWN. ) ;
#111 = DIRECTION ( 'NONE',  ( -1.000000000000000000, 0.0000000000000000000, 0.0000000000000000000 ) ) ;
#112 = CARTESIAN_POINT ( 'NONE',  ( 0.3750000000000000600, 0.0000000000000000000, 0.3848425196850394100 ) ) ;
#113 = ORIENTED_EDGE ( 'NONE', *, *, #28, .F. ) ;
#114 = DIMENSIONAL_EXPONENTS ( 1.000000000000000000, 0.0000000000000000000, 0.0000000000000000000, 0.0000000000000000000, 0.0000000000000000000, 0.0000000000000000000, 0.0000000000000000000 ) ;
#115 = CARTESIAN_POINT ( 'NONE',  ( 0.0000000000000000000, 0.0000000000000000000, 0.3592519685039369800 ) ) ;
#116 = ORIENTED_EDGE ( 'NONE', *, *, #69, .F. ) ;
#117 = DIRECTION ( 'NONE',  ( 1.000000000000000000, 0.0000000000000000000, 0.0000000000000000000 ) ) ;
#118 = CARTESIAN_POINT ( 'NONE',  ( -0.4375000000000000600, 5.357829746269670700E-017, 0.3592519685039369800 ) ) ;
#119 = EDGE_CURVE ( 'NONE', #286, #245, #279, .T. ) ;
#120 = ORIENTED_EDGE ( 'NONE', *, *, #312, .T. ) ;
#121 = EDGE_CURVE ( 'NONE', #51, #2, #77, .T. ) ;
#122 = EDGE_LOOP ( 'NONE', ( #178, #120, #322, #297 ) ) ;
#123 = CONICAL_SURFACE ( 'NONE', #210, 0.3863651627795275900, 0.5235987756060794800 ) ;
#124 = ORIENTED_EDGE ( 'NONE', *, *, #17, .F. ) ;
#125 = VERTEX_POINT ( 'NONE', #43 ) ;
#126 = CARTESIAN_POINT ( 'NONE',  ( 0.0000000000000000000, 0.0000000000000000000, 0.3592519685039369800 ) ) ;
#127 = LINE ( 'NONE', #112, #149 ) ;
#128 = CARTESIAN_POINT ( 'NONE',  ( 0.4375000000000000600, 5.357829746269670700E-017, 0.7185039370078739600 ) ) ;
#129 = CARTESIAN_POINT ( 'NONE',  ( 0.0000000000000000000, 0.0000000000000000000, 0.0000000000000000000 ) ) ;
#130 = FACE_OUTER_BOUND ( 'NONE', #194, .T. ) ;
#131 = COLOUR_RGB ( '',0.5098039215686274200, 0.5098039215686274200, 0.5490196078431373000 ) ;
#132 =( LENGTH_UNIT ( ) NAMED_UNIT ( * ) SI_UNIT ( $, .METRE. ) );
#133 = AXIS2_PLACEMENT_3D ( 'NONE', #232, #200, #111 ) ;
#134 = ADVANCED_FACE ( 'NONE', ( #11 ), #123, .F. ) ;
#135 = DIRECTION ( 'NONE',  ( 0.0000000000000000000, 0.0000000000000000000, 1.000000000000000000 ) ) ;
#136 = DIRECTION ( 'NONE',  ( 1.000000000000000000, 0.0000000000000000000, 0.0000000000000000000 ) ) ;
#137 = ORIENTED_EDGE ( 'NONE', *, *, #4, .T. ) ;
#138 = COLOUR_RGB ( '',0.5098039215686274200, 0.5098039215686274200, 0.5490196078431373000 ) ;
#139 = DIRECTION ( 'NONE',  ( 0.0000000000000000000, 0.0000000000000000000, 1.000000000000000000 ) ) ;
#140 = DIRECTION ( 'NONE',  ( -1.000000000000000000, 0.0000000000000000000, 0.0000000000000000000 ) ) ;
#141 = VECTOR ( 'NONE', #191, 39.37007874015748100 ) ;
#142 = CARTESIAN_POINT ( 'NONE',  ( 0.0000000000000000000, 0.0000000000000000000, 0.7185039370078739600 ) ) ;
#143 = CARTESIAN_POINT ( 'NONE',  ( 0.0000000000000000000, 0.0000000000000000000, 0.3848425196850394100 ) ) ;
#144 = UNCERTAINTY_MEASURE_WITH_UNIT (LENGTH_MEASURE( 1.000000000000000100E-005 ), #228, 'distance_accuracy_value', 'NONE');
#145 = ORIENTED_EDGE ( 'NONE', *, *, #312, .F. ) ;
#146 = STYLED_ITEM ( 'NONE', ( #48 ), #217 ) ;
#147 = ORIENTED_EDGE ( 'NONE', *, *, #321, .F. ) ;
#148 = CIRCLE ( 'NONE', #150, 0.4375000000000000600 ) ;
#149 = VECTOR ( 'NONE', #223, 39.37007874015748100 ) ;
#150 = AXIS2_PLACEMENT_3D ( 'NONE', #40, #139, #209 ) ;
#151 = EDGE_CURVE ( 'NONE', #175, #2, #203, .T. ) ;
#152 = PRODUCT_DEFINITION ( 'UNKNOWN', '', #110, #3 ) ;
#153 = AXIS2_PLACEMENT_3D ( 'NONE', #15, #190, #37 ) ;
#154 = ORIENTED_EDGE ( 'NONE', *, *, #273, .T. ) ;
#155 = ORIENTED_EDGE ( 'NONE', *, *, #216, .F. ) ;
#156 = VECTOR ( 'NONE', #182, 39.37007874015748100 ) ;
#157 =( NAMED_UNIT ( * ) PLANE_ANGLE_UNIT ( ) SI_UNIT ( $, .RADIAN. ) );
#158 = CIRCLE ( 'NONE', #25, 0.4193157395511811200 ) ;
#159 = FILL_AREA_STYLE_COLOUR ( '', #138 ) ;
#160 = FACE_OUTER_BOUND ( 'NONE', #236, .T. ) ;
#161 = DIRECTION ( 'NONE',  ( -0.0000000000000000000, -0.0000000000000000000, -1.000000000000000000 ) ) ;
#162 = PRODUCT_RELATED_PRODUCT_CATEGORY ( 'part', '', ( #247 ) ) ;
#163 = DIRECTION ( 'NONE',  ( 1.000000000000000000, 0.0000000000000000000, 0.0000000000000000000 ) ) ;
#164 = ADVANCED_FACE ( 'NONE', ( #218 ), #269, .T. ) ;
#165 = AXIS2_PLACEMENT_3D ( 'NONE', #22, #93, #117 ) ;
#166 = DIRECTION ( 'NONE',  ( -0.0000000000000000000, -0.0000000000000000000, -1.000000000000000000 ) ) ;
#167 = ORIENTED_EDGE ( 'NONE', *, *, #288, .T. ) ;
#168 = FACE_OUTER_BOUND ( 'NONE', #71, .T. ) ;
#169 = DIRECTION ( 'NONE',  ( -1.000000000000000000, 0.0000000000000000000, 0.0000000000000000000 ) ) ;
#170 = CARTESIAN_POINT ( 'NONE',  ( 0.0000000000000000000, 0.0000000000000000000, 0.0000000000000000000 ) ) ;
#171 = AXIS2_PLACEMENT_3D ( 'NONE', #296, #294, #140 ) ;
#172 = CIRCLE ( 'NONE', #101, 0.3749999999999999400 ) ;
#173 = ORIENTED_EDGE ( 'NONE', *, *, #119, .F. ) ;
#174 = FACE_OUTER_BOUND ( 'NONE', #122, .T. ) ;
#175 = VERTEX_POINT ( 'NONE', #66 ) ;
#176 = CIRCLE ( 'NONE', #60, 0.4375000000000000600 ) ;
#177 = DIRECTION ( 'NONE',  ( -0.0000000000000000000, -0.0000000000000000000, -1.000000000000000000 ) ) ;
#178 = ORIENTED_EDGE ( 'NONE', *, *, #288, .F. ) ;
#179 = LENGTH_MEASURE_WITH_UNIT ( LENGTH_MEASURE( 0.02539999999999999900 ), #33 );
#180 = UNCERTAINTY_MEASURE_WITH_UNIT (LENGTH_MEASURE( 1.000000000000000100E-005 ), #14, 'distance_accuracy_value', 'NONE');
#181 = DIRECTION ( 'NONE',  ( -1.000000000000000000, 0.0000000000000000000, 0.0000000000000000000 ) ) ;
#182 = DIRECTION ( 'NONE',  ( 0.5000000000392143000, 6.123233996217002400E-017, -0.8660254037617981500 ) ) ;
#183 = APPLICATION_PROTOCOL_DEFINITION ( 'draft international standard', 'automotive_design', 1998, #186 ) ;
#184 = DIRECTION ( 'NONE',  ( -1.000000000000000000, 0.0000000000000000000, 0.0000000000000000000 ) ) ;
#185 = EDGE_LOOP ( 'NONE', ( #39, #251 ) ) ;
#186 = APPLICATION_CONTEXT ( 'automotive_design' ) ;
#187 = CARTESIAN_POINT ( 'NONE',  ( 0.0000000000000000000, 0.0000000000000000000, 0.0000000000000000000 ) ) ;
#188 = PRODUCT_DEFINITION_SHAPE ( 'NONE', 'NONE',  #152 ) ;
#189 = ORIENTED_EDGE ( 'NONE', *, *, #252, .T. ) ;
#190 = DIRECTION ( 'NONE',  ( -0.0000000000000000000, -0.0000000000000000000, -1.000000000000000000 ) ) ;
#191 = DIRECTION ( 'NONE',  ( 0.0000000000000000000, 0.0000000000000000000, 1.000000000000000000 ) ) ;
#192 = DIRECTION ( 'NONE',  ( 0.0000000000000000000, 0.0000000000000000000, 1.000000000000000000 ) ) ;
#193 = ORIENTED_EDGE ( 'NONE', *, *, #267, .T. ) ;
#194 = EDGE_LOOP ( 'NONE', ( #167, #248, #5, #16 ) ) ;
#195 = VECTOR ( 'NONE', #305, 39.37007874015748100 ) ;
#196 = SHAPE_DEFINITION_REPRESENTATION ( #188, #217 ) ;
#197 = CIRCLE ( 'NONE', #171, 0.3863651627795275900 ) ;
#198 = EDGE_CURVE ( 'NONE', #208, #262, #287, .T. ) ;
#199 = EDGE_LOOP ( 'NONE', ( #145, #113, #154, #224 ) ) ;
#200 = DIRECTION ( 'NONE',  ( -0.0000000000000000000, -0.0000000000000000000, -1.000000000000000000 ) ) ;
#201 = DIRECTION ( 'NONE',  ( 1.000000000000000000, 0.0000000000000000000, 0.0000000000000000000 ) ) ;
#202 = ADVANCED_FACE ( 'NONE', ( #65, #107 ), #246, .T. ) ;
#203 = LINE ( 'NONE', #118, #70 ) ;
#204 =( NAMED_UNIT ( * ) SI_UNIT ( $, .STERADIAN. ) SOLID_ANGLE_UNIT ( ) );
#205 = CARTESIAN_POINT ( 'NONE',  ( 0.0000000000000000000, 0.0000000000000000000, -8.537024980200822600E-018 ) ) ;
#206 = DIMENSIONAL_EXPONENTS ( 1.000000000000000000, 0.0000000000000000000, 0.0000000000000000000, 0.0000000000000000000, 0.0000000000000000000, 0.0000000000000000000, 0.0000000000000000000 ) ;
#207 = CARTESIAN_POINT ( 'NONE',  ( 0.0000000000000000000, 0.0000000000000000000, 0.01968503937007875700 ) ) ;
#208 = VERTEX_POINT ( 'NONE', #266 ) ;
#209 = DIRECTION ( 'NONE',  ( 1.000000000000000000, 0.0000000000000000000, 0.0000000000000000000 ) ) ;
#210 = AXIS2_PLACEMENT_3D ( 'NONE', #23, #42, #244 ) ;
#211 = CIRCLE ( 'NONE', #165, 0.4375000000000000600 ) ;
#212 = LENGTH_MEASURE_WITH_UNIT ( LENGTH_MEASURE( 0.02539999999999999900 ), #132 );
#213 = DIRECTION ( 'NONE',  ( 0.0000000000000000000, 0.0000000000000000000, 1.000000000000000000 ) ) ;
#214 = ORIENTED_EDGE ( 'NONE', *, *, #28, .T. ) ;
#215 = CIRCLE ( 'NONE', #49, 0.3749999999999999400 ) ;
#216 = EDGE_CURVE ( 'NONE', #2, #245, #87, .T. ) ;
#217 = ADVANCED_BREP_SHAPE_REPRESENTATION ( 'A-GSI-1214-12', ( #270, #82 ), #299 ) ;
#218 = FACE_OUTER_BOUND ( 'NONE', #61, .T. ) ;
#219 = ORIENTED_EDGE ( 'NONE', *, *, #216, .T. ) ;
#220 = FACE_OUTER_BOUND ( 'NONE', #300, .T. ) ;
#221 = ORIENTED_EDGE ( 'NONE', *, *, #261, .F. ) ;
#222 = CYLINDRICAL_SURFACE ( 'NONE', #320, 0.4375000000000000600 ) ;
#223 = DIRECTION ( 'NONE',  ( 0.0000000000000000000, 0.0000000000000000000, 1.000000000000000000 ) ) ;
#224 = ORIENTED_EDGE ( 'NONE', *, *, #104, .F. ) ;
#225 = AXIS2_PLACEMENT_3D ( 'NONE', #283, #161, #181 ) ;
#226 = CARTESIAN_POINT ( 'NONE',  ( -0.3863651627795275900, 0.0000000000000000000, -8.537024980200822600E-018 ) ) ;
#227 = CIRCLE ( 'NONE', #98, 0.3750000000000000600 ) ;
#228 =( CONVERSION_BASED_UNIT ( 'INCH', #103 ) LENGTH_UNIT ( ) NAMED_UNIT ( #257 ) );
#229 = ADVANCED_FACE ( 'NONE', ( #160 ), #1, .F. ) ;
#230 = DIRECTION ( 'NONE',  ( -0.0000000000000000000, -0.0000000000000000000, -1.000000000000000000 ) ) ;
#231 = FILL_AREA_STYLE ('',( #237 ) ) ;
#232 = CARTESIAN_POINT ( 'NONE',  ( 0.0000000000000000000, 0.0000000000000000000, 0.7185039370078739600 ) ) ;
#233 = ADVANCED_FACE ( 'NONE', ( #21 ), #222, .T. ) ;
#234 = CARTESIAN_POINT ( 'NONE',  ( -0.3750000000000000600, 4.592425496802575500E-017, 0.3848425196850394100 ) ) ;
#235 =( NAMED_UNIT ( * ) PLANE_ANGLE_UNIT ( ) SI_UNIT ( $, .RADIAN. ) );
#236 = EDGE_LOOP ( 'NONE', ( #86, #214, #193, #124 ) ) ;
#237 = FILL_AREA_STYLE_COLOUR ( '', #131 ) ;
#238 = EDGE_CURVE ( 'NONE', #125, #309, #72, .T. ) ;
#239 = CARTESIAN_POINT ( 'NONE',  ( 0.0000000000000000000, 0.0000000000000000000, 0.7500000000000001100 ) ) ;
#240 = DIRECTION ( 'NONE',  ( -0.0000000000000000000, -0.0000000000000000000, -1.000000000000000000 ) ) ;
#241 = ORIENTED_EDGE ( 'NONE', *, *, #59, .F. ) ;
#242 = CONICAL_SURFACE ( 'NONE', #263, 0.3863651627795275900, 0.5235987756060794800 ) ;
#243 = AXIS2_PLACEMENT_3D ( 'NONE', #115, #84, #136 ) ;
#244 = DIRECTION ( 'NONE',  ( -1.000000000000000000, 0.0000000000000000000, 0.0000000000000000000 ) ) ;
#245 = VERTEX_POINT ( 'NONE', #13 ) ;
#246 = PLANE ( 'NONE',  #46 ) ;
#247 = PRODUCT ( 'A-GSI-1214-12', 'A-GSI-1214-12', '', ( #256 ) ) ;
#248 = ORIENTED_EDGE ( 'NONE', *, *, #238, .T. ) ;
#249 = PRESENTATION_LAYER_ASSIGNMENT (  '', '', ( #41 ) ) ;
#250 = UNCERTAINTY_MEASURE_WITH_UNIT (LENGTH_MEASURE( 1.000000000000000100E-005 ), #278, 'distance_accuracy_value', 'NONE');
#251 = ORIENTED_EDGE ( 'NONE', *, *, #104, .T. ) ;
#252 = EDGE_CURVE ( 'NONE', #313, #309, #227, .T. ) ;
#253 = ORIENTED_EDGE ( 'NONE', *, *, #59, .T. ) ;
#254 = CARTESIAN_POINT ( 'NONE',  ( 0.0000000000000000000, 0.0000000000000000000, 0.7185039370078739600 ) ) ;
#255 = DIRECTION ( 'NONE',  ( -1.000000000000000000, 0.0000000000000000000, -0.0000000000000000000 ) ) ;
#256 = PRODUCT_CONTEXT ( 'NONE', #186, 'mechanical' ) ;
#257 = DIMENSIONAL_EXPONENTS ( 1.000000000000000000, 0.0000000000000000000, 0.0000000000000000000, 0.0000000000000000000, 0.0000000000000000000, 0.0000000000000000000, 0.0000000000000000000 ) ;
#258 = VERTEX_POINT ( 'NONE', #284 ) ;
#259 = DIRECTION ( 'NONE',  ( 0.0000000000000000000, 0.0000000000000000000, 1.000000000000000000 ) ) ;
#260 = CARTESIAN_POINT ( 'NONE',  ( 0.4193157395511811200, 5.246483264502130900E-017, 0.7500000000000001100 ) ) ;
#261 = EDGE_CURVE ( 'NONE', #30, #245, #79, .T. ) ;
#262 = VERTEX_POINT ( 'NONE', #29 ) ;
#263 = AXIS2_PLACEMENT_3D ( 'NONE', #205, #9, #184 ) ;
#264 = CYLINDRICAL_SURFACE ( 'NONE', #243, 0.4375000000000000600 ) ;
#265 = CARTESIAN_POINT ( 'NONE',  ( 0.4119325813897638500, 0.0000000000000000000, 0.0000000000000000000 ) ) ;
#266 = CARTESIAN_POINT ( 'NONE',  ( -0.3863651627795275900, 0.0000000000000000000, 0.0000000000000000000 ) ) ;
#267 = EDGE_CURVE ( 'NONE', #258, #313, #127, .T. ) ;
#268 = ORIENTED_EDGE ( 'NONE', *, *, #119, .T. ) ;
#269 = CONICAL_SURFACE ( 'NONE', #92, 0.4375000000000000600, 0.5235987756435795900 ) ;
#270 = MANIFOLD_SOLID_BREP ( '2017_10_02__20-04-10-406', #68 ) ;
#271 = CYLINDRICAL_SURFACE ( 'NONE', #18, 0.3750000000000000600 ) ;
#272 = EDGE_LOOP ( 'NONE', ( #241, #24 ) ) ;
#273 = EDGE_CURVE ( 'NONE', #125, #208, #323, .T. ) ;
#274 = CARTESIAN_POINT ( 'NONE',  ( 0.0000000000000000000, 0.0000000000000000000, 0.3848425196850394100 ) ) ;
#275 = DIRECTION ( 'NONE',  ( 0.0000000000000000000, 0.0000000000000000000, 1.000000000000000000 ) ) ;
#276 = ADVANCED_FACE ( 'NONE', ( #168 ), #100, .T. ) ;
#277 = AXIS2_PLACEMENT_3D ( 'NONE', #274, #12, #201 ) ;
#278 =( CONVERSION_BASED_UNIT ( 'INCH', #179 ) LENGTH_UNIT ( ) NAMED_UNIT ( #114 ) );
#279 = LINE ( 'NONE', #319, #141 ) ;
#280 =( LENGTH_UNIT ( ) NAMED_UNIT ( * ) SI_UNIT ( $, .METRE. ) );
#281 = VECTOR ( 'NONE', #81, 39.37007874015748100 ) ;
#282 = DIRECTION ( 'NONE',  ( 1.000000000000000000, 0.0000000000000000000, 0.0000000000000000000 ) ) ;
#283 = CARTESIAN_POINT ( 'NONE',  ( 0.0000000000000000000, 0.0000000000000000000, 0.7500000000000001100 ) ) ;
#284 = CARTESIAN_POINT ( 'NONE',  ( 0.3749999999999999400, 0.0000000000000000000, 0.01968503937007873600 ) ) ;
#285 = AXIS2_PLACEMENT_3D ( 'NONE', #254, #108, #163 ) ;
#286 = VERTEX_POINT ( 'NONE', #74 ) ;
#287 = CIRCLE ( 'NONE', #73, 0.3863651627795275900 ) ;
#288 = EDGE_CURVE ( 'NONE', #258, #125, #215, .T. ) ;
#289 = ORIENTED_EDGE ( 'NONE', *, *, #121, .T. ) ;
#290 = DIRECTION ( 'NONE',  ( 1.000000000000000000, 0.0000000000000000000, -5.691349986800549600E-017 ) ) ;
#291 = EDGE_LOOP ( 'NONE', ( #189, #26 ) ) ;
#292 = CIRCLE ( 'NONE', #225, 0.4193157395511811200 ) ;
#293 = DIRECTION ( 'NONE',  ( 1.000000000000000000, 0.0000000000000000000, 0.0000000000000000000 ) ) ;
#294 = DIRECTION ( 'NONE',  ( 0.0000000000000000000, 0.0000000000000000000, 1.000000000000000000 ) ) ;
#295 = DIRECTION ( 'NONE',  ( 0.0000000000000000000, 0.0000000000000000000, -1.000000000000000000 ) ) ;
#296 = CARTESIAN_POINT ( 'NONE',  ( 0.0000000000000000000, 0.0000000000000000000, 0.0000000000000000000 ) ) ;
#297 = ORIENTED_EDGE ( 'NONE', *, *, #273, .F. ) ;
#298 = ORIENTED_EDGE ( 'NONE', *, *, #121, .F. ) ;
#299 =( GEOMETRIC_REPRESENTATION_CONTEXT ( 3 ) GLOBAL_UNCERTAINTY_ASSIGNED_CONTEXT ( ( #180 ) ) GLOBAL_UNIT_ASSIGNED_CONTEXT ( ( #14, #235, #204 ) ) REPRESENTATION_CONTEXT ( 'NONE', 'WORKASPACE' ) );
#300 = EDGE_LOOP ( 'NONE', ( #50, #137, #268, #36 ) ) ;
#301 = SURFACE_STYLE_USAGE ( .BOTH. , #83 ) ;
#302 = EDGE_LOOP ( 'NONE', ( #253, #95, #219, #173 ) ) ;
#303 = ADVANCED_FACE ( 'NONE', ( #174 ), #242, .F. ) ;
#304 = APPLICATION_CONTEXT ( 'automotive_design' ) ;
#305 = DIRECTION ( 'NONE',  ( 0.0000000000000000000, 0.0000000000000000000, 1.000000000000000000 ) ) ;
#306 = DIRECTION ( 'NONE',  ( 1.000000000000000000, 0.0000000000000000000, 0.0000000000000000000 ) ) ;
#307 = SURFACE_SIDE_STYLE ('',( #96 ) ) ;
#308 = FILL_AREA_STYLE ('',( #159 ) ) ;
#309 = VERTEX_POINT ( 'NONE', #6 ) ;
#310 = DIRECTION ( 'NONE',  ( 1.000000000000000000, 0.0000000000000000000, 0.0000000000000000000 ) ) ;
#311 = PLANE ( 'NONE',  #38 ) ;
#312 = EDGE_CURVE ( 'NONE', #258, #262, #27, .T. ) ;
#313 = VERTEX_POINT ( 'NONE', #75 ) ;
#314 = PRESENTATION_STYLE_ASSIGNMENT (( #301 ) ) ;
#315 = CARTESIAN_POINT ( 'NONE',  ( -0.4193157395511811200, 0.0000000000000000000, 0.7500000000000001100 ) ) ;
#316 = MECHANICAL_DESIGN_GEOMETRIC_PRESENTATION_REPRESENTATION (  '', ( #146 ), #8 ) ;
#317 = DIRECTION ( 'NONE',  ( -0.0000000000000000000, -0.0000000000000000000, -1.000000000000000000 ) ) ;
#318 = ORIENTED_EDGE ( 'NONE', *, *, #321, .T. ) ;
#319 = CARTESIAN_POINT ( 'NONE',  ( 0.4375000000000000600, 0.0000000000000000000, 0.3592519685039369800 ) ) ;
#320 = AXIS2_PLACEMENT_3D ( 'NONE', #126, #259, #282 ) ;
#321 = EDGE_CURVE ( 'NONE', #51, #30, #292, .T. ) ;
#322 = ORIENTED_EDGE ( 'NONE', *, *, #198, .F. ) ;
#323 = LINE ( 'NONE', #226, #281 ) ;
ENDSEC;
END-ISO-10303-21;
