ISO-10303-21;
HEADER;
FILE_DESCRIPTION (( 'STEP AP214' ),
    '1' );
FILE_NAME ('A-JSI-0810-08.step',
    '2017-11-29T20:17:12',
    ( '' ),
    ( '' ),
    'SwSTEP 2.0',
    'SolidWorks 2017',
    '' );
FILE_SCHEMA (( 'AUTOMOTIVE_DESIGN' ));
ENDSEC;

DATA;
#1 = FACE_OUTER_BOUND ( 'NONE', #152, .T. ) ;
#2 = DIRECTION ( 'NONE',  ( 0.0000000000000000000, 0.0000000000000000000, 1.000000000000000000 ) ) ;
#3 =( GEOMETRIC_REPRESENTATION_CONTEXT ( 3 ) GLOBAL_UNCERTAINTY_ASSIGNED_CONTEXT ( ( #40 ) ) GLOBAL_UNIT_ASSIGNED_CONTEXT ( ( #282, #210, #85 ) ) REPRESENTATION_CONTEXT ( 'NONE', 'WORKASPACE' ) );
#4 = DIRECTION ( 'NONE',  ( 1.000000000000000000, 0.0000000000000000000, 0.0000000000000000000 ) ) ;
#5 = VERTEX_POINT ( 'NONE', #184 ) ;
#6 = CARTESIAN_POINT ( 'NONE',  ( 0.0000000000000000000, 0.0000000000000000000, 0.0000000000000000000 ) ) ;
#7 = FILL_AREA_STYLE_COLOUR ( '', #181 ) ;
#8 = FACE_BOUND ( 'NONE', #67, .T. ) ;
#9 = DIRECTION ( 'NONE',  ( 1.000000000000000000, 0.0000000000000000000, -0.0000000000000000000 ) ) ;
#10 = ADVANCED_FACE ( 'NONE', ( #263 ), #24, .F. ) ;
#11 = VECTOR ( 'NONE', #55, 39.37007874015748100 ) ;
#12 = EDGE_LOOP ( 'NONE', ( #17, #239, #306, #86 ) ) ;
#13 = AXIS2_PLACEMENT_3D ( 'NONE', #82, #162, #111 ) ;
#14 = EDGE_LOOP ( 'NONE', ( #223, #73, #144, #115 ) ) ;
#15 = PRESENTATION_STYLE_ASSIGNMENT (( #163 ) ) ;
#16 = VECTOR ( 'NONE', #108, 39.37007874015748100 ) ;
#17 = ORIENTED_EDGE ( 'NONE', *, *, #287, .F. ) ;
#18 = CARTESIAN_POINT ( 'NONE',  ( 0.0000000000000000000, 0.0000000000000000000, 0.01968503936961325100 ) ) ;
#19 = VERTEX_POINT ( 'NONE', #48 ) ;
#20 = DIRECTION ( 'NONE',  ( 0.0000000000000000000, 0.0000000000000000000, 1.000000000000000000 ) ) ;
#21 = CARTESIAN_POINT ( 'NONE',  ( 0.0000000000000000000, 0.0000000000000000000, 0.01968503936961325100 ) ) ;
#22 = CARTESIAN_POINT ( 'NONE',  ( -0.3125000000000000000, 3.827021247335478900E-017, 0.2342519685039370400 ) ) ;
#23 = CIRCLE ( 'NONE', #274, 0.2499999999999069100 ) ;
#24 = CONICAL_SURFACE ( 'NONE', #318, 0.2613651627788077800, 0.5235987755924421700 ) ;
#25 = CARTESIAN_POINT ( 'NONE',  ( 0.0000000000000000000, 0.0000000000000000000, 0.0000000000000000000 ) ) ;
#26 = DIRECTION ( 'NONE',  ( -1.000000000000000000, 0.0000000000000000000, 0.0000000000000000000 ) ) ;
#27 = DIRECTION ( 'NONE',  ( -1.000000000000000000, 0.0000000000000000000, 0.0000000000000000000 ) ) ;
#28 = DIRECTION ( 'NONE',  ( 1.000000000000000000, 0.0000000000000000000, 0.0000000000000000000 ) ) ;
#29 = CARTESIAN_POINT ( 'NONE',  ( 0.0000000000000000000, 0.0000000000000000000, 0.5000000000000000000 ) ) ;
#30 = DIRECTION ( 'NONE',  ( -1.000000000000000000, 0.0000000000000000000, 0.0000000000000000000 ) ) ;
#31 = EDGE_CURVE ( 'NONE', #217, #76, #182, .T. ) ;
#32 = VERTEX_POINT ( 'NONE', #207 ) ;
#33 = DIRECTION ( 'NONE',  ( 0.5000000000392150800, 6.123233996217012200E-017, -0.8660254037617978200 ) ) ;
#34 = CARTESIAN_POINT ( 'NONE',  ( -0.3125000000000000000, 0.0000000000000000000, 0.4685039370078740700 ) ) ;
#35 = MECHANICAL_DESIGN_GEOMETRIC_PRESENTATION_REPRESENTATION (  '', ( #226 ), #195 ) ;
#36 = CYLINDRICAL_SURFACE ( 'NONE', #204, 0.2500000000000000000 ) ;
#37 = ORIENTED_EDGE ( 'NONE', *, *, #298, .T. ) ;
#38 = LINE ( 'NONE', #96, #189 ) ;
#39 = EDGE_LOOP ( 'NONE', ( #277, #197, #90, #268 ) ) ;
#40 = UNCERTAINTY_MEASURE_WITH_UNIT (LENGTH_MEASURE( 1.000000000000000100E-005 ), #282, 'distance_accuracy_value', 'NONE');
#41 = LINE ( 'NONE', #80, #218 ) ;
#42 = ORIENTED_EDGE ( 'NONE', *, *, #161, .T. ) ;
#43 = DIRECTION ( 'NONE',  ( 1.000000000000000000, 0.0000000000000000000, 0.0000000000000000000 ) ) ;
#44 = CARTESIAN_POINT ( 'NONE',  ( 0.0000000000000000000, 0.0000000000000000000, 0.4685039370078740700 ) ) ;
#45 = PRESENTATION_STYLE_ASSIGNMENT (( #303 ) ) ;
#46 = DIRECTION ( 'NONE',  ( 1.000000000000000000, 0.0000000000000000000, 0.0000000000000000000 ) ) ;
#47 = AXIS2_PLACEMENT_3D ( 'NONE', #198, #222, #148 ) ;
#48 = CARTESIAN_POINT ( 'NONE',  ( -0.3125000000000000000, 3.827021247335478900E-017, 0.0000000000000000000 ) ) ;
#49 = DIRECTION ( 'NONE',  ( 0.0000000000000000000, 0.0000000000000000000, -1.000000000000000000 ) ) ;
#50 =( NAMED_UNIT ( * ) PLANE_ANGLE_UNIT ( ) SI_UNIT ( $, .RADIAN. ) );
#51 = LENGTH_MEASURE_WITH_UNIT ( LENGTH_MEASURE( 0.02539999999999999900 ), #208 );
#52 = CARTESIAN_POINT ( 'NONE',  ( 0.2613651627788077800, 3.200800100056939000E-017, 0.0000000000000000000 ) ) ;
#53 = ORIENTED_EDGE ( 'NONE', *, *, #214, .F. ) ;
#54 = ORIENTED_EDGE ( 'NONE', *, *, #177, .F. ) ;
#55 = DIRECTION ( 'NONE',  ( 0.4999999999949279500, 6.123233995674651900E-017, -0.8660254037873670300 ) ) ;
#56 = FILL_AREA_STYLE_COLOUR ( '', #291 ) ;
#57 = AXIS2_PLACEMENT_3D ( 'NONE', #179, #211, #231 ) ;
#58 = CARTESIAN_POINT ( 'NONE',  ( 0.3125000000000000000, 3.827021247335478900E-017, 0.4685039370078740700 ) ) ;
#59 = ADVANCED_FACE ( 'NONE', ( #245 ), #69, .F. ) ;
#60 = DIRECTION ( 'NONE',  ( 0.0000000000000000000, 0.0000000000000000000, 1.000000000000000000 ) ) ;
#61 = MANIFOLD_SOLID_BREP ( '2017_10_02__19-22-13-654', #63 ) ;
#62 = CIRCLE ( 'NONE', #47, 0.3125000000000000000 ) ;
#63 = CLOSED_SHELL ( 'NONE', ( #190, #160, #10, #59, #188, #317, #237, #261, #91, #196 ) ) ;
#64 = EDGE_CURVE ( 'NONE', #319, #286, #165, .T. ) ;
#65 = CIRCLE ( 'NONE', #122, 0.3125000000000000000 ) ;
#66 = ORIENTED_EDGE ( 'NONE', *, *, #287, .T. ) ;
#67 = EDGE_LOOP ( 'NONE', ( #119, #128 ) ) ;
#68 = EDGE_CURVE ( 'NONE', #262, #270, #23, .T. ) ;
#69 = CYLINDRICAL_SURFACE ( 'NONE', #57, 0.2500000000000000000 ) ;
#70 = EDGE_CURVE ( 'NONE', #194, #242, #134, .T. ) ;
#71 = AXIS2_PLACEMENT_3D ( 'NONE', #21, #246, #46 ) ;
#72 = LINE ( 'NONE', #52, #11 ) ;
#73 = ORIENTED_EDGE ( 'NONE', *, *, #225, .T. ) ;
#74 = EDGE_CURVE ( 'NONE', #5, #319, #304, .T. ) ;
#75 = DIRECTION ( 'NONE',  ( -0.0000000000000000000, -0.0000000000000000000, -1.000000000000000000 ) ) ;
#76 = VERTEX_POINT ( 'NONE', #296 ) ;
#77 = DIRECTION ( 'NONE',  ( 0.0000000000000000000, 0.0000000000000000000, 1.000000000000000000 ) ) ;
#78 = DIRECTION ( 'NONE',  ( -0.0000000000000000000, 0.0000000000000000000, -1.000000000000000000 ) ) ;
#79 = CONICAL_SURFACE ( 'NONE', #301, 0.3125000000000000000, 0.5235987756435805900 ) ;
#80 = CARTESIAN_POINT ( 'NONE',  ( 0.2500000000000000000, 0.0000000000000000000, 0.2598425196850393500 ) ) ;
#81 = ORIENTED_EDGE ( 'NONE', *, *, #243, .F. ) ;
#82 = CARTESIAN_POINT ( 'NONE',  ( 0.0000000000000000000, 0.0000000000000000000, 0.0000000000000000000 ) ) ;
#83 = PLANE ( 'NONE',  #280 ) ;
#84 = DIRECTION ( 'NONE',  ( -0.0000000000000000000, -0.0000000000000000000, -1.000000000000000000 ) ) ;
#85 =( NAMED_UNIT ( * ) SI_UNIT ( $, .STERADIAN. ) SOLID_ANGLE_UNIT ( ) );
#86 = ORIENTED_EDGE ( 'NONE', *, *, #127, .F. ) ;
#87 = APPLICATION_CONTEXT ( 'automotive_design' ) ;
#88 = AXIS2_PLACEMENT_3D ( 'NONE', #251, #103, #27 ) ;
#89 = FACE_OUTER_BOUND ( 'NONE', #320, .T. ) ;
#90 = ORIENTED_EDGE ( 'NONE', *, *, #192, .T. ) ;
#91 = ADVANCED_FACE ( 'NONE', ( #112 ), #312, .F. ) ;
#92 = ORIENTED_EDGE ( 'NONE', *, *, #225, .F. ) ;
#93 = CIRCLE ( 'NONE', #289, 0.2500000000000000000 ) ;
#94 = ORIENTED_EDGE ( 'NONE', *, *, #177, .T. ) ;
#95 = AXIS2_PLACEMENT_3D ( 'NONE', #99, #199, #293 ) ;
#96 = CARTESIAN_POINT ( 'NONE',  ( 0.3125000000000000000, 0.0000000000000000000, 0.2342519685039370400 ) ) ;
#97 = EDGE_LOOP ( 'NONE', ( #42, #235, #168, #313 ) ) ;
#98 = DIRECTION ( 'NONE',  ( -1.000000000000000000, 0.0000000000000000000, 0.0000000000000000000 ) ) ;
#99 = CARTESIAN_POINT ( 'NONE',  ( 0.0000000000000000000, 0.0000000000000000000, 0.5000000000000000000 ) ) ;
#100 = SURFACE_STYLE_FILL_AREA ( #256 ) ;
#101 = ORIENTED_EDGE ( 'NONE', *, *, #161, .F. ) ;
#102 = AXIS2_PLACEMENT_3D ( 'NONE', #249, #121, #250 ) ;
#103 = DIRECTION ( 'NONE',  ( 0.0000000000000000000, -0.0000000000000000000, 1.000000000000000000 ) ) ;
#104 = APPLICATION_PROTOCOL_DEFINITION ( 'draft international standard', 'automotive_design', 1998, #132 ) ;
#105 = CARTESIAN_POINT ( 'NONE',  ( 0.2869325813897638000, 0.0000000000000000000, 0.0000000000000000000 ) ) ;
#106 = CIRCLE ( 'NONE', #71, 0.2499999999999069100 ) ;
#107 = ORIENTED_EDGE ( 'NONE', *, *, #315, .T. ) ;
#108 = DIRECTION ( 'NONE',  ( -0.4999999999949279500, 0.0000000000000000000, -0.8660254037873670300 ) ) ;
#109 = AXIS2_PLACEMENT_3D ( 'NONE', #275, #273, #221 ) ;
#110 = DIRECTION ( 'NONE',  ( 0.0000000000000000000, 0.0000000000000000000, 1.000000000000000000 ) ) ;
#111 = DIRECTION ( 'NONE',  ( 1.000000000000000000, 0.0000000000000000000, 0.0000000000000000000 ) ) ;
#112 = FACE_OUTER_BOUND ( 'NONE', #219, .T. ) ;
#113 = AXIS2_PLACEMENT_3D ( 'NONE', #105, #49, #185 ) ;
#114 = SURFACE_STYLE_FILL_AREA ( #203 ) ;
#115 = ORIENTED_EDGE ( 'NONE', *, *, #169, .F. ) ;
#116 = FACE_OUTER_BOUND ( 'NONE', #295, .T. ) ;
#117 = AXIS2_PLACEMENT_3D ( 'NONE', #29, #84, #26 ) ;
#118 = LINE ( 'NONE', #183, #267 ) ;
#119 = ORIENTED_EDGE ( 'NONE', *, *, #142, .T. ) ;
#120 = ORIENTED_EDGE ( 'NONE', *, *, #138, .F. ) ;
#121 = DIRECTION ( 'NONE',  ( 0.0000000000000000000, -0.0000000000000000000, 1.000000000000000000 ) ) ;
#122 = AXIS2_PLACEMENT_3D ( 'NONE', #25, #77, #4 ) ;
#123 = CARTESIAN_POINT ( 'NONE',  ( 0.0000000000000000000, 0.0000000000000000000, 0.4685039370078740700 ) ) ;
#124 = FACE_OUTER_BOUND ( 'NONE', #14, .T. ) ;
#125 = DIRECTION ( 'NONE',  ( 1.000000000000000000, 0.0000000000000000000, 0.0000000000000000000 ) ) ;
#126 = CARTESIAN_POINT ( 'NONE',  ( -0.2500000000000000000, 3.061616997868383000E-017, 0.5000000000000000000 ) ) ;
#127 = EDGE_CURVE ( 'NONE', #284, #286, #215, .T. ) ;
#128 = ORIENTED_EDGE ( 'NONE', *, *, #70, .T. ) ;
#129 = SURFACE_SIDE_STYLE ('',( #114 ) ) ;
#130 = EDGE_LOOP ( 'NONE', ( #92, #216, #171, #137 ) ) ;
#131 = CARTESIAN_POINT ( 'NONE',  ( 0.0000000000000000000, 0.0000000000000000000, 0.4685039370078740700 ) ) ;
#132 = APPLICATION_CONTEXT ( 'automotive_design' ) ;
#133 = DIMENSIONAL_EXPONENTS ( 1.000000000000000000, 0.0000000000000000000, 0.0000000000000000000, 0.0000000000000000000, 0.0000000000000000000, 0.0000000000000000000, 0.0000000000000000000 ) ;
#134 = CIRCLE ( 'NONE', #95, 0.2500000000000000000 ) ;
#135 = DIMENSIONAL_EXPONENTS ( 1.000000000000000000, 0.0000000000000000000, 0.0000000000000000000, 0.0000000000000000000, 0.0000000000000000000, 0.0000000000000000000, 0.0000000000000000000 ) ;
#136 = AXIS2_PLACEMENT_3D ( 'NONE', #227, #20, #125 ) ;
#137 = ORIENTED_EDGE ( 'NONE', *, *, #127, .T. ) ;
#138 = EDGE_CURVE ( 'NONE', #286, #284, #62, .T. ) ;
#139 = ORIENTED_EDGE ( 'NONE', *, *, #31, .T. ) ;
#140 = LINE ( 'NONE', #22, #253 ) ;
#141 = ORIENTED_EDGE ( 'NONE', *, *, #64, .F. ) ;
#142 = EDGE_CURVE ( 'NONE', #242, #194, #93, .T. ) ;
#143 = CARTESIAN_POINT ( 'NONE',  ( 0.0000000000000000000, 0.0000000000000000000, 0.0000000000000000000 ) ) ;
#144 = ORIENTED_EDGE ( 'NONE', *, *, #138, .T. ) ;
#145 = DIRECTION ( 'NONE',  ( 1.000000000000000000, 0.0000000000000000000, 0.0000000000000000000 ) ) ;
#146 = PRODUCT ( 'A-JSI-0810-08', 'A-JSI-0810-08', '', ( #154 ) ) ;
#147 = UNCERTAINTY_MEASURE_WITH_UNIT (LENGTH_MEASURE( 1.000000000000000100E-005 ), #202, 'distance_accuracy_value', 'NONE');
#148 = DIRECTION ( 'NONE',  ( 1.000000000000000000, 0.0000000000000000000, 0.0000000000000000000 ) ) ;
#149 = PRESENTATION_LAYER_ASSIGNMENT (  '', '', ( #240 ) ) ;
#150 = LINE ( 'NONE', #209, #260 ) ;
#151 = DIRECTION ( 'NONE',  ( 0.0000000000000000000, 0.0000000000000000000, 1.000000000000000000 ) ) ;
#152 = EDGE_LOOP ( 'NONE', ( #107, #66, #120, #141 ) ) ;
#153 =( NAMED_UNIT ( * ) SI_UNIT ( $, .STERADIAN. ) SOLID_ANGLE_UNIT ( ) );
#154 = PRODUCT_CONTEXT ( 'NONE', #87, 'mechanical' ) ;
#155 = PLANE ( 'NONE',  #113 ) ;
#156 = SHAPE_DEFINITION_REPRESENTATION ( #292, #186 ) ;
#157 = CARTESIAN_POINT ( 'NONE',  ( -0.2613651627788077800, 0.0000000000000000000, 0.0000000000000000000 ) ) ;
#158 = EDGE_LOOP ( 'NONE', ( #101, #37, #54, #213 ) ) ;
#159 =( GEOMETRIC_REPRESENTATION_CONTEXT ( 3 ) GLOBAL_UNCERTAINTY_ASSIGNED_CONTEXT ( ( #272 ) ) GLOBAL_UNIT_ASSIGNED_CONTEXT ( ( #279, #230, #153 ) ) REPRESENTATION_CONTEXT ( 'NONE', 'WORKASPACE' ) );
#160 = ADVANCED_FACE ( 'NONE', ( #1 ), #79, .T. ) ;
#161 = EDGE_CURVE ( 'NONE', #270, #262, #106, .T. ) ;
#162 = DIRECTION ( 'NONE',  ( 0.0000000000000000000, 0.0000000000000000000, 1.000000000000000000 ) ) ;
#163 = SURFACE_STYLE_USAGE ( .BOTH. , #255 ) ;
#164 = VECTOR ( 'NONE', #269, 39.37007874015748100 ) ;
#165 = LINE ( 'NONE', #201, #164 ) ;
#166 = AXIS2_PLACEMENT_3D ( 'NONE', #321, #2, #175 ) ;
#167 = LENGTH_MEASURE_WITH_UNIT ( LENGTH_MEASURE( 0.02539999999999999900 ), #234 );
#168 = ORIENTED_EDGE ( 'NONE', *, *, #142, .F. ) ;
#169 = EDGE_CURVE ( 'NONE', #32, #284, #38, .T. ) ;
#170 = CIRCLE ( 'NONE', #13, 0.3125000000000000000 ) ;
#171 = ORIENTED_EDGE ( 'NONE', *, *, #169, .T. ) ;
#172 = AXIS2_PLACEMENT_3D ( 'NONE', #123, #176, #43 ) ;
#173 = FACE_OUTER_BOUND ( 'NONE', #39, .T. ) ;
#174 = ORIENTED_EDGE ( 'NONE', *, *, #31, .F. ) ;
#175 = DIRECTION ( 'NONE',  ( 1.000000000000000000, 0.0000000000000000000, 0.0000000000000000000 ) ) ;
#176 = DIRECTION ( 'NONE',  ( -0.0000000000000000000, -0.0000000000000000000, -1.000000000000000000 ) ) ;
#177 = EDGE_CURVE ( 'NONE', #76, #217, #259, .T. ) ;
#178 = CARTESIAN_POINT ( 'NONE',  ( 0.2613651627788077800, 3.200800100056939000E-017, 0.0000000000000000000 ) ) ;
#179 = CARTESIAN_POINT ( 'NONE',  ( 0.0000000000000000000, 0.0000000000000000000, 0.2598425196850393500 ) ) ;
#180 = CARTESIAN_POINT ( 'NONE',  ( 0.0000000000000000000, 0.0000000000000000000, 0.0000000000000000000 ) ) ;
#181 = COLOUR_RGB ( '',1.000000000000000000, 1.000000000000000000, 0.5019607843137254800 ) ;
#182 = CIRCLE ( 'NONE', #88, 0.2613651627788077800 ) ;
#183 = CARTESIAN_POINT ( 'NONE',  ( 0.3125000000000000000, 3.827021247335478900E-017, 0.4685039370078740700 ) ) ;
#184 = CARTESIAN_POINT ( 'NONE',  ( 0.2943157395511811200, 3.715674765567939100E-017, 0.5000000000000000000 ) ) ;
#185 = DIRECTION ( 'NONE',  ( -1.000000000000000000, 0.0000000000000000000, -0.0000000000000000000 ) ) ;
#186 = ADVANCED_BREP_SHAPE_REPRESENTATION ( 'A-JSI-0810-08', ( #61, #252 ), #3 ) ;
#187 = CARTESIAN_POINT ( 'NONE',  ( 0.2499999999999069100, 0.0000000000000000000, 0.01968503936961325100 ) ) ;
#188 = ADVANCED_FACE ( 'NONE', ( #238 ), #283, .T. ) ;
#189 = VECTOR ( 'NONE', #299, 39.37007874015748100 ) ;
#190 = ADVANCED_FACE ( 'NONE', ( #124 ), #316, .T. ) ;
#191 = PRODUCT_DEFINITION_CONTEXT ( 'detailed design', #132, 'design' ) ;
#192 = EDGE_CURVE ( 'NONE', #270, #242, #41, .T. ) ;
#193 = FACE_BOUND ( 'NONE', #206, .T. ) ;
#194 = VERTEX_POINT ( 'NONE', #126 ) ;
#195 =( GEOMETRIC_REPRESENTATION_CONTEXT ( 3 ) GLOBAL_UNCERTAINTY_ASSIGNED_CONTEXT ( ( #147 ) ) GLOBAL_UNIT_ASSIGNED_CONTEXT ( ( #202, #50, #244 ) ) REPRESENTATION_CONTEXT ( 'NONE', 'WORKASPACE' ) );
#196 = ADVANCED_FACE ( 'NONE', ( #173 ), #36, .F. ) ;
#197 = ORIENTED_EDGE ( 'NONE', *, *, #68, .T. ) ;
#198 = CARTESIAN_POINT ( 'NONE',  ( 0.0000000000000000000, 0.0000000000000000000, 0.4685039370078740700 ) ) ;
#199 = DIRECTION ( 'NONE',  ( -0.0000000000000000000, -0.0000000000000000000, -1.000000000000000000 ) ) ;
#200 = LENGTH_MEASURE_WITH_UNIT ( LENGTH_MEASURE( 0.02539999999999999900 ), #308 );
#201 = CARTESIAN_POINT ( 'NONE',  ( -0.3125000000000000000, 0.0000000000000000000, 0.4685039370078740700 ) ) ;
#202 =( CONVERSION_BASED_UNIT ( 'INCH', #51 ) LENGTH_UNIT ( ) NAMED_UNIT ( #258 ) );
#203 = FILL_AREA_STYLE ('',( #56 ) ) ;
#204 = AXIS2_PLACEMENT_3D ( 'NONE', #300, #205, #229 ) ;
#205 = DIRECTION ( 'NONE',  ( 0.0000000000000000000, 0.0000000000000000000, 1.000000000000000000 ) ) ;
#206 = EDGE_LOOP ( 'NONE', ( #94, #139 ) ) ;
#207 = CARTESIAN_POINT ( 'NONE',  ( 0.3125000000000000000, 0.0000000000000000000, 0.0000000000000000000 ) ) ;
#208 =( LENGTH_UNIT ( ) NAMED_UNIT ( * ) SI_UNIT ( $, .METRE. ) );
#209 = CARTESIAN_POINT ( 'NONE',  ( -0.2500000000000000000, 3.061616997868383000E-017, 0.2598425196850393500 ) ) ;
#210 =( NAMED_UNIT ( * ) PLANE_ANGLE_UNIT ( ) SI_UNIT ( $, .RADIAN. ) );
#211 = DIRECTION ( 'NONE',  ( 0.0000000000000000000, 0.0000000000000000000, 1.000000000000000000 ) ) ;
#212 = PRODUCT_RELATED_PRODUCT_CATEGORY ( 'part', '', ( #146 ) ) ;
#213 = ORIENTED_EDGE ( 'NONE', *, *, #288, .F. ) ;
#214 = EDGE_CURVE ( 'NONE', #19, #32, #65, .T. ) ;
#215 = CIRCLE ( 'NONE', #172, 0.3125000000000000000 ) ;
#216 = ORIENTED_EDGE ( 'NONE', *, *, #214, .T. ) ;
#217 = VERTEX_POINT ( 'NONE', #178 ) ;
#218 = VECTOR ( 'NONE', #151, 39.37007874015748100 ) ;
#219 = EDGE_LOOP ( 'NONE', ( #314, #281, #307, #174 ) ) ;
#220 = AXIS2_PLACEMENT_3D ( 'NONE', #131, #236, #310 ) ;
#221 = DIRECTION ( 'NONE',  ( -1.000000000000000000, 0.0000000000000000000, 0.0000000000000000000 ) ) ;
#222 = DIRECTION ( 'NONE',  ( -0.0000000000000000000, -0.0000000000000000000, -1.000000000000000000 ) ) ;
#223 = ORIENTED_EDGE ( 'NONE', *, *, #243, .T. ) ;
#224 = DIRECTION ( 'NONE',  ( 1.000000000000000000, 0.0000000000000000000, 0.0000000000000000000 ) ) ;
#225 = EDGE_CURVE ( 'NONE', #19, #286, #140, .T. ) ;
#226 = STYLED_ITEM ( 'NONE', ( #45 ), #61 ) ;
#227 = CARTESIAN_POINT ( 'NONE',  ( 0.0000000000000000000, 0.0000000000000000000, 0.2342519685039370400 ) ) ;
#228 = ORIENTED_EDGE ( 'NONE', *, *, #74, .F. ) ;
#229 = DIRECTION ( 'NONE',  ( 1.000000000000000000, 0.0000000000000000000, 0.0000000000000000000 ) ) ;
#230 =( NAMED_UNIT ( * ) PLANE_ANGLE_UNIT ( ) SI_UNIT ( $, .RADIAN. ) );
#231 = DIRECTION ( 'NONE',  ( 1.000000000000000000, 0.0000000000000000000, 0.0000000000000000000 ) ) ;
#232 = CARTESIAN_POINT ( 'NONE',  ( 0.2500000000000000000, 0.0000000000000000000, 0.5000000000000000000 ) ) ;
#233 = PRESENTATION_LAYER_ASSIGNMENT (  '', '', ( #226 ) ) ;
#234 =( LENGTH_UNIT ( ) NAMED_UNIT ( * ) SI_UNIT ( $, .METRE. ) );
#235 = ORIENTED_EDGE ( 'NONE', *, *, #247, .T. ) ;
#236 = DIRECTION ( 'NONE',  ( -0.0000000000000000000, -0.0000000000000000000, -1.000000000000000000 ) ) ;
#237 = ADVANCED_FACE ( 'NONE', ( #193, #116 ), #155, .T. ) ;
#238 = FACE_OUTER_BOUND ( 'NONE', #130, .T. ) ;
#239 = ORIENTED_EDGE ( 'NONE', *, *, #74, .T. ) ;
#240 = STYLED_ITEM ( 'NONE', ( #15 ), #186 ) ;
#241 = CIRCLE ( 'NONE', #117, 0.2943157395511811200 ) ;
#242 = VERTEX_POINT ( 'NONE', #232 ) ;
#243 = EDGE_CURVE ( 'NONE', #32, #19, #170, .T. ) ;
#244 =( NAMED_UNIT ( * ) SI_UNIT ( $, .STERADIAN. ) SOLID_ANGLE_UNIT ( ) );
#245 = FACE_OUTER_BOUND ( 'NONE', #97, .T. ) ;
#246 = DIRECTION ( 'NONE',  ( -0.0000000000000000000, -0.0000000000000000000, -1.000000000000000000 ) ) ;
#247 = EDGE_CURVE ( 'NONE', #262, #194, #150, .T. ) ;
#248 = DIRECTION ( 'NONE',  ( -1.000000000000000000, 0.0000000000000000000, 0.0000000000000000000 ) ) ;
#249 = CARTESIAN_POINT ( 'NONE',  ( 0.0000000000000000000, 0.0000000000000000000, 0.0000000000000000000 ) ) ;
#250 = DIRECTION ( 'NONE',  ( -1.000000000000000000, 0.0000000000000000000, 0.0000000000000000000 ) ) ;
#251 = CARTESIAN_POINT ( 'NONE',  ( 0.0000000000000000000, 0.0000000000000000000, 0.0000000000000000000 ) ) ;
#252 = AXIS2_PLACEMENT_3D ( 'NONE', #6, #110, #28 ) ;
#253 = VECTOR ( 'NONE', #276, 39.37007874015748100 ) ;
#254 = ORIENTED_EDGE ( 'NONE', *, *, #315, .F. ) ;
#255 = SURFACE_SIDE_STYLE ('',( #100 ) ) ;
#256 = FILL_AREA_STYLE ('',( #7 ) ) ;
#257 = DIRECTION ( 'NONE',  ( 0.0000000000000000000, 0.0000000000000000000, 1.000000000000000000 ) ) ;
#258 = DIMENSIONAL_EXPONENTS ( 1.000000000000000000, 0.0000000000000000000, 0.0000000000000000000, 0.0000000000000000000, 0.0000000000000000000, 0.0000000000000000000, 0.0000000000000000000 ) ;
#259 = CIRCLE ( 'NONE', #102, 0.2613651627788077800 ) ;
#260 = VECTOR ( 'NONE', #60, 39.37007874015748100 ) ;
#261 = ADVANCED_FACE ( 'NONE', ( #89, #8 ), #83, .T. ) ;
#262 = VERTEX_POINT ( 'NONE', #309 ) ;
#263 = FACE_OUTER_BOUND ( 'NONE', #158, .T. ) ;
#264 = MECHANICAL_DESIGN_GEOMETRIC_PRESENTATION_REPRESENTATION (  '', ( #240 ), #159 ) ;
#265 = CONICAL_SURFACE ( 'NONE', #220, 0.3125000000000000000, 0.5235987756435805900 ) ;
#266 = FACE_OUTER_BOUND ( 'NONE', #12, .T. ) ;
#267 = VECTOR ( 'NONE', #33, 39.37007874015748100 ) ;
#268 = ORIENTED_EDGE ( 'NONE', *, *, #70, .F. ) ;
#269 = DIRECTION ( 'NONE',  ( -0.5000000000392150800, 0.0000000000000000000, -0.8660254037617978200 ) ) ;
#270 = VERTEX_POINT ( 'NONE', #187 ) ;
#271 = CARTESIAN_POINT ( 'NONE',  ( 0.0000000000000000000, 0.0000000000000000000, 0.5000000000000000000 ) ) ;
#272 = UNCERTAINTY_MEASURE_WITH_UNIT (LENGTH_MEASURE( 1.000000000000000100E-005 ), #279, 'distance_accuracy_value', 'NONE');
#273 = DIRECTION ( 'NONE',  ( -0.0000000000000000000, -0.0000000000000000000, -1.000000000000000000 ) ) ;
#274 = AXIS2_PLACEMENT_3D ( 'NONE', #18, #323, #224 ) ;
#275 = CARTESIAN_POINT ( 'NONE',  ( 0.0000000000000000000, 0.0000000000000000000, 0.5000000000000000000 ) ) ;
#276 = DIRECTION ( 'NONE',  ( 0.0000000000000000000, 0.0000000000000000000, 1.000000000000000000 ) ) ;
#277 = ORIENTED_EDGE ( 'NONE', *, *, #247, .F. ) ;
#278 = CARTESIAN_POINT ( 'NONE',  ( 0.2721578697755905900, 0.0000000000000000000, 0.5000000000000000000 ) ) ;
#279 =( CONVERSION_BASED_UNIT ( 'INCH', #167 ) LENGTH_UNIT ( ) NAMED_UNIT ( #135 ) );
#280 = AXIS2_PLACEMENT_3D ( 'NONE', #278, #257, #9 ) ;
#281 = ORIENTED_EDGE ( 'NONE', *, *, #68, .F. ) ;
#282 =( CONVERSION_BASED_UNIT ( 'INCH', #200 ) LENGTH_UNIT ( ) NAMED_UNIT ( #133 ) );
#283 = CYLINDRICAL_SURFACE ( 'NONE', #136, 0.3125000000000000000 ) ;
#284 = VERTEX_POINT ( 'NONE', #58 ) ;
#285 = PRODUCT_DEFINITION ( 'UNKNOWN', '', #294, #191 ) ;
#286 = VERTEX_POINT ( 'NONE', #34 ) ;
#287 = EDGE_CURVE ( 'NONE', #5, #284, #118, .T. ) ;
#288 = EDGE_CURVE ( 'NONE', #262, #76, #290, .T. ) ;
#289 = AXIS2_PLACEMENT_3D ( 'NONE', #271, #297, #145 ) ;
#290 = LINE ( 'NONE', #157, #16 ) ;
#291 = COLOUR_RGB ( '',1.000000000000000000, 1.000000000000000000, 0.5019607843137254800 ) ;
#292 = PRODUCT_DEFINITION_SHAPE ( 'NONE', 'NONE',  #285 ) ;
#293 = DIRECTION ( 'NONE',  ( 1.000000000000000000, 0.0000000000000000000, 0.0000000000000000000 ) ) ;
#294 = PRODUCT_DEFINITION_FORMATION_WITH_SPECIFIED_SOURCE ( 'ANY', '', #146, .NOT_KNOWN. ) ;
#295 = EDGE_LOOP ( 'NONE', ( #81, #53 ) ) ;
#296 = CARTESIAN_POINT ( 'NONE',  ( -0.2613651627788077800, 0.0000000000000000000, 0.0000000000000000000 ) ) ;
#297 = DIRECTION ( 'NONE',  ( -0.0000000000000000000, -0.0000000000000000000, -1.000000000000000000 ) ) ;
#298 = EDGE_CURVE ( 'NONE', #270, #217, #72, .T. ) ;
#299 = DIRECTION ( 'NONE',  ( 0.0000000000000000000, 0.0000000000000000000, 1.000000000000000000 ) ) ;
#300 = CARTESIAN_POINT ( 'NONE',  ( 0.0000000000000000000, 0.0000000000000000000, 0.2598425196850393500 ) ) ;
#301 = AXIS2_PLACEMENT_3D ( 'NONE', #44, #75, #98 ) ;
#302 = CARTESIAN_POINT ( 'NONE',  ( -0.2943157395511811200, 0.0000000000000000000, 0.5000000000000000000 ) ) ;
#303 = SURFACE_STYLE_USAGE ( .BOTH. , #129 ) ;
#304 = CIRCLE ( 'NONE', #109, 0.2943157395511811200 ) ;
#305 = APPLICATION_PROTOCOL_DEFINITION ( 'draft international standard', 'automotive_design', 1998, #87 ) ;
#306 = ORIENTED_EDGE ( 'NONE', *, *, #64, .T. ) ;
#307 = ORIENTED_EDGE ( 'NONE', *, *, #288, .T. ) ;
#308 =( LENGTH_UNIT ( ) NAMED_UNIT ( * ) SI_UNIT ( $, .METRE. ) );
#309 = CARTESIAN_POINT ( 'NONE',  ( -0.2499999999999069100, 3.061616997867812900E-017, 0.01968503936961325100 ) ) ;
#310 = DIRECTION ( 'NONE',  ( -1.000000000000000000, 0.0000000000000000000, 0.0000000000000000000 ) ) ;
#311 = AXIS2_PLACEMENT_3D ( 'NONE', #143, #322, #248 ) ;
#312 = CONICAL_SURFACE ( 'NONE', #311, 0.2613651627788077800, 0.5235987755924421700 ) ;
#313 = ORIENTED_EDGE ( 'NONE', *, *, #192, .F. ) ;
#314 = ORIENTED_EDGE ( 'NONE', *, *, #298, .F. ) ;
#315 = EDGE_CURVE ( 'NONE', #319, #5, #241, .T. ) ;
#316 = CYLINDRICAL_SURFACE ( 'NONE', #166, 0.3125000000000000000 ) ;
#317 = ADVANCED_FACE ( 'NONE', ( #266 ), #265, .T. ) ;
#318 = AXIS2_PLACEMENT_3D ( 'NONE', #180, #78, #30 ) ;
#319 = VERTEX_POINT ( 'NONE', #302 ) ;
#320 = EDGE_LOOP ( 'NONE', ( #254, #228 ) ) ;
#321 = CARTESIAN_POINT ( 'NONE',  ( 0.0000000000000000000, 0.0000000000000000000, 0.2342519685039370400 ) ) ;
#322 = DIRECTION ( 'NONE',  ( -0.0000000000000000000, 0.0000000000000000000, -1.000000000000000000 ) ) ;
#323 = DIRECTION ( 'NONE',  ( -0.0000000000000000000, -0.0000000000000000000, -1.000000000000000000 ) ) ;
ENDSEC;
END-ISO-10303-21;
