ISO-10303-21;
HEADER;
FILE_DESCRIPTION (( 'STEP AP214' ),
    '1' );
FILE_NAME ('A-JSI-1214-12.step',
    '2017-11-29T20:17:26',
    ( '' ),
    ( '' ),
    'SwSTEP 2.0',
    'SolidWorks 2017',
    '' );
FILE_SCHEMA (( 'AUTOMOTIVE_DESIGN' ));
ENDSEC;

DATA;
#1 = DIRECTION ( 'NONE',  ( 1.000000000000000000, 0.0000000000000000000, 0.0000000000000000000 ) ) ;
#2 = DIRECTION ( 'NONE',  ( 0.0000000000000000000, 0.0000000000000000000, 1.000000000000000000 ) ) ;
#3 = LINE ( 'NONE', #139, #188 ) ;
#4 = DIRECTION ( 'NONE',  ( -0.0000000000000000000, -0.0000000000000000000, -1.000000000000000000 ) ) ;
#5 = CARTESIAN_POINT ( 'NONE',  ( -0.4375000000000000600, 0.0000000000000000000, 0.7185039370078739600 ) ) ;
#6 = FACE_OUTER_BOUND ( 'NONE', #69, .T. ) ;
#7 = PRODUCT_CONTEXT ( 'NONE', #92, 'mechanical' ) ;
#8 = EDGE_CURVE ( 'NONE', #195, #80, #282, .T. ) ;
#9 = CYLINDRICAL_SURFACE ( 'NONE', #204, 0.3750000000000000600 ) ;
#10 = VECTOR ( 'NONE', #2, 39.37007874015748100 ) ;
#11 = DIMENSIONAL_EXPONENTS ( 1.000000000000000000, 0.0000000000000000000, 0.0000000000000000000, 0.0000000000000000000, 0.0000000000000000000, 0.0000000000000000000, 0.0000000000000000000 ) ;
#12 = PRODUCT ( 'A-JSI-1214-12', 'A-JSI-1214-12', '', ( #7 ) ) ;
#13 = ADVANCED_FACE ( 'NONE', ( #252 ), #164, .T. ) ;
#14 = CONICAL_SURFACE ( 'NONE', #134, 0.3863651627795275900, 0.5235987756060794800 ) ;
#15 = ORIENTED_EDGE ( 'NONE', *, *, #64, .T. ) ;
#16 = ADVANCED_FACE ( 'NONE', ( #90 ), #203, .T. ) ;
#17 = CIRCLE ( 'NONE', #29, 0.4375000000000000600 ) ;
#18 = CARTESIAN_POINT ( 'NONE',  ( 0.4375000000000000600, 0.0000000000000000000, 0.0000000000000000000 ) ) ;
#19 = PLANE ( 'NONE',  #238 ) ;
#20 = EDGE_CURVE ( 'NONE', #317, #129, #30, .T. ) ;
#21 = ORIENTED_EDGE ( 'NONE', *, *, #20, .T. ) ;
#22 = VERTEX_POINT ( 'NONE', #157 ) ;
#23 = CARTESIAN_POINT ( 'NONE',  ( 0.0000000000000000000, 0.0000000000000000000, 0.01968503937007875700 ) ) ;
#24 = DIRECTION ( 'NONE',  ( -1.000000000000000000, 0.0000000000000000000, 0.0000000000000000000 ) ) ;
#25 = CARTESIAN_POINT ( 'NONE',  ( 0.0000000000000000000, 0.0000000000000000000, 0.7500000000000001100 ) ) ;
#26 = CARTESIAN_POINT ( 'NONE',  ( 0.0000000000000000000, 0.0000000000000000000, 0.0000000000000000000 ) ) ;
#27 = SURFACE_STYLE_FILL_AREA ( #283 ) ;
#28 = EDGE_LOOP ( 'NONE', ( #151, #21, #141, #226 ) ) ;
#29 = AXIS2_PLACEMENT_3D ( 'NONE', #54, #257, #1 ) ;
#30 = CIRCLE ( 'NONE', #297, 0.4193157395511811200 ) ;
#31 = DIRECTION ( 'NONE',  ( 0.0000000000000000000, 0.0000000000000000000, 1.000000000000000000 ) ) ;
#32 = ORIENTED_EDGE ( 'NONE', *, *, #124, .T. ) ;
#33 = AXIS2_PLACEMENT_3D ( 'NONE', #308, #67, #181 ) ;
#34 =( CONVERSION_BASED_UNIT ( 'INCH', #146 ) LENGTH_UNIT ( ) NAMED_UNIT ( #176 ) );
#35 = EDGE_CURVE ( 'NONE', #311, #262, #199, .T. ) ;
#36 = ORIENTED_EDGE ( 'NONE', *, *, #59, .F. ) ;
#37 = CARTESIAN_POINT ( 'NONE',  ( 0.0000000000000000000, 0.0000000000000000000, 0.7185039370078739600 ) ) ;
#38 = CARTESIAN_POINT ( 'NONE',  ( 0.0000000000000000000, 0.0000000000000000000, 0.7500000000000001100 ) ) ;
#39 = VECTOR ( 'NONE', #167, 39.37007874015748100 ) ;
#40 = ORIENTED_EDGE ( 'NONE', *, *, #154, .F. ) ;
#41 = EDGE_CURVE ( 'NONE', #43, #158, #3, .T. ) ;
#42 = EDGE_CURVE ( 'NONE', #249, #311, #211, .T. ) ;
#43 = VERTEX_POINT ( 'NONE', #18 ) ;
#44 = AXIS2_PLACEMENT_3D ( 'NONE', #150, #280, #236 ) ;
#45 = CONICAL_SURFACE ( 'NONE', #224, 0.3863651627795275900, 0.5235987756060794800 ) ;
#46 = ORIENTED_EDGE ( 'NONE', *, *, #149, .F. ) ;
#47 = ORIENTED_EDGE ( 'NONE', *, *, #78, .T. ) ;
#48 = DIRECTION ( 'NONE',  ( 1.000000000000000000, 0.0000000000000000000, -0.0000000000000000000 ) ) ;
#49 = EDGE_CURVE ( 'NONE', #80, #195, #99, .T. ) ;
#50 = AXIS2_PLACEMENT_3D ( 'NONE', #231, #275, #140 ) ;
#51 = ORIENTED_EDGE ( 'NONE', *, *, #35, .T. ) ;
#52 = AXIS2_PLACEMENT_3D ( 'NONE', #193, #276, #143 ) ;
#53 = DIRECTION ( 'NONE',  ( 0.0000000000000000000, 0.0000000000000000000, 1.000000000000000000 ) ) ;
#54 = CARTESIAN_POINT ( 'NONE',  ( 0.0000000000000000000, 0.0000000000000000000, 0.7185039370078739600 ) ) ;
#55 = CARTESIAN_POINT ( 'NONE',  ( 0.0000000000000000000, 0.0000000000000000000, -8.537024980200822600E-018 ) ) ;
#56 = FACE_OUTER_BOUND ( 'NONE', #165, .T. ) ;
#57 = ORIENTED_EDGE ( 'NONE', *, *, #133, .T. ) ;
#58 = DIRECTION ( 'NONE',  ( 0.0000000000000000000, 0.0000000000000000000, 1.000000000000000000 ) ) ;
#59 = EDGE_CURVE ( 'NONE', #129, #317, #168, .T. ) ;
#60 =( NAMED_UNIT ( * ) PLANE_ANGLE_UNIT ( ) SI_UNIT ( $, .RADIAN. ) );
#61 =( LENGTH_UNIT ( ) NAMED_UNIT ( * ) SI_UNIT ( $, .METRE. ) );
#62 = ADVANCED_FACE ( 'NONE', ( #301 ), #14, .F. ) ;
#63 = ADVANCED_FACE ( 'NONE', ( #56, #205 ), #19, .T. ) ;
#64 = EDGE_CURVE ( 'NONE', #43, #119, #225, .T. ) ;
#65 =( GEOMETRIC_REPRESENTATION_CONTEXT ( 3 ) GLOBAL_UNCERTAINTY_ASSIGNED_CONTEXT ( ( #95 ) ) GLOBAL_UNIT_ASSIGNED_CONTEXT ( ( #303, #89, #300 ) ) REPRESENTATION_CONTEXT ( 'NONE', 'WORKASPACE' ) );
#66 = ADVANCED_FACE ( 'NONE', ( #218, #160 ), #110, .T. ) ;
#67 = DIRECTION ( 'NONE',  ( -0.0000000000000000000, -0.0000000000000000000, -1.000000000000000000 ) ) ;
#68 = ORIENTED_EDGE ( 'NONE', *, *, #121, .F. ) ;
#69 = EDGE_LOOP ( 'NONE', ( #189, #234, #274, #200 ) ) ;
#70 = ADVANCED_FACE ( 'NONE', ( #72 ), #248, .F. ) ;
#71 = ADVANCED_FACE ( 'NONE', ( #6 ), #214, .T. ) ;
#72 = FACE_OUTER_BOUND ( 'NONE', #132, .T. ) ;
#73 = AXIS2_PLACEMENT_3D ( 'NONE', #37, #120, #156 ) ;
#74 = CYLINDRICAL_SURFACE ( 'NONE', #233, 0.4375000000000000600 ) ;
#75 = ORIENTED_EDGE ( 'NONE', *, *, #49, .F. ) ;
#76 = CARTESIAN_POINT ( 'NONE',  ( 0.0000000000000000000, 0.0000000000000000000, 0.7500000000000001100 ) ) ;
#77 = DIRECTION ( 'NONE',  ( 1.000000000000000000, 0.0000000000000000000, -5.691349986800549600E-017 ) ) ;
#78 = EDGE_CURVE ( 'NONE', #119, #22, #105, .T. ) ;
#79 = DIRECTION ( 'NONE',  ( 0.0000000000000000000, 0.0000000000000000000, 1.000000000000000000 ) ) ;
#80 = VERTEX_POINT ( 'NONE', #82 ) ;
#81 = CARTESIAN_POINT ( 'NONE',  ( 0.3971578697755905300, 0.0000000000000000000, 0.7500000000000001100 ) ) ;
#82 = CARTESIAN_POINT ( 'NONE',  ( 0.3750000000000000600, 0.0000000000000000000, 0.7500000000000001100 ) ) ;
#83 = DIRECTION ( 'NONE',  ( 0.0000000000000000000, 0.0000000000000000000, 1.000000000000000000 ) ) ;
#84 = EDGE_CURVE ( 'NONE', #311, #80, #322, .T. ) ;
#85 = ORIENTED_EDGE ( 'NONE', *, *, #102, .T. ) ;
#86 = PRESENTATION_LAYER_ASSIGNMENT (  '', '', ( #155 ) ) ;
#87 = DIRECTION ( 'NONE',  ( 0.0000000000000000000, 0.0000000000000000000, 1.000000000000000000 ) ) ;
#88 = CARTESIAN_POINT ( 'NONE',  ( 0.0000000000000000000, 0.0000000000000000000, 0.3592519685039369800 ) ) ;
#89 =( NAMED_UNIT ( * ) PLANE_ANGLE_UNIT ( ) SI_UNIT ( $, .RADIAN. ) );
#90 = FACE_OUTER_BOUND ( 'NONE', #147, .T. ) ;
#91 = ORIENTED_EDGE ( 'NONE', *, *, #133, .F. ) ;
#92 = APPLICATION_CONTEXT ( 'automotive_design' ) ;
#93 = APPLICATION_PROTOCOL_DEFINITION ( 'draft international standard', 'automotive_design', 1998, #92 ) ;
#94 = AXIS2_PLACEMENT_3D ( 'NONE', #23, #191, #77 ) ;
#95 = UNCERTAINTY_MEASURE_WITH_UNIT (LENGTH_MEASURE( 1.000000000000000100E-005 ), #303, 'distance_accuracy_value', 'NONE');
#96 = LINE ( 'NONE', #169, #39 ) ;
#97 = AXIS2_PLACEMENT_3D ( 'NONE', #295, #291, #212 ) ;
#98 = CIRCLE ( 'NONE', #73, 0.4375000000000000600 ) ;
#99 = CIRCLE ( 'NONE', #111, 0.3750000000000000600 ) ;
#100 = EDGE_LOOP ( 'NONE', ( #161, #208, #266, #265 ) ) ;
#101 = SURFACE_STYLE_FILL_AREA ( #239 ) ;
#102 = EDGE_CURVE ( 'NONE', #262, #316, #269, .T. ) ;
#103 = AXIS2_PLACEMENT_3D ( 'NONE', #38, #223, #247 ) ;
#104 = DIRECTION ( 'NONE',  ( -0.0000000000000000000, -0.0000000000000000000, -1.000000000000000000 ) ) ;
#105 = LINE ( 'NONE', #194, #116 ) ;
#106 = ORIENTED_EDGE ( 'NONE', *, *, #64, .F. ) ;
#107 = DIRECTION ( 'NONE',  ( 0.5000000000067381700, 6.123233995819284600E-017, -0.8660254037805483800 ) ) ;
#108 = DIRECTION ( 'NONE',  ( 1.000000000000000000, 0.0000000000000000000, 0.0000000000000000000 ) ) ;
#109 = PRODUCT_DEFINITION ( 'UNKNOWN', '', #250, #192 ) ;
#110 = PLANE ( 'NONE',  #50 ) ;
#111 = AXIS2_PLACEMENT_3D ( 'NONE', #76, #104, #321 ) ;
#112 = CARTESIAN_POINT ( 'NONE',  ( 0.3749999999999999400, 0.0000000000000000000, 0.01968503937007873600 ) ) ;
#113 = DIRECTION ( 'NONE',  ( 0.0000000000000000000, 0.0000000000000000000, 1.000000000000000000 ) ) ;
#114 = DIRECTION ( 'NONE',  ( 1.000000000000000000, 0.0000000000000000000, 0.0000000000000000000 ) ) ;
#115 = CARTESIAN_POINT ( 'NONE',  ( -0.4193157395511811200, 0.0000000000000000000, 0.7500000000000001100 ) ) ;
#116 = VECTOR ( 'NONE', #53, 39.37007874015748100 ) ;
#117 =( GEOMETRIC_REPRESENTATION_CONTEXT ( 3 ) GLOBAL_UNCERTAINTY_ASSIGNED_CONTEXT ( ( #229 ) ) GLOBAL_UNIT_ASSIGNED_CONTEXT ( ( #127, #60, #245 ) ) REPRESENTATION_CONTEXT ( 'NONE', 'WORKASPACE' ) );
#118 = CARTESIAN_POINT ( 'NONE',  ( -0.4375000000000000600, 5.357829746269670700E-017, 0.0000000000000000000 ) ) ;
#119 = VERTEX_POINT ( 'NONE', #118 ) ;
#120 = DIRECTION ( 'NONE',  ( -0.0000000000000000000, -0.0000000000000000000, -1.000000000000000000 ) ) ;
#121 = EDGE_CURVE ( 'NONE', #316, #262, #268, .T. ) ;
#122 = EDGE_CURVE ( 'NONE', #317, #158, #96, .T. ) ;
#123 = PRESENTATION_STYLE_ASSIGNMENT (( #306 ) ) ;
#124 = EDGE_CURVE ( 'NONE', #22, #158, #17, .T. ) ;
#125 = CLOSED_SHELL ( 'NONE', ( #307, #71, #267, #70, #16, #13, #66, #63, #62, #312 ) ) ;
#126 =( NAMED_UNIT ( * ) PLANE_ANGLE_UNIT ( ) SI_UNIT ( $, .RADIAN. ) );
#127 =( CONVERSION_BASED_UNIT ( 'INCH', #230 ) LENGTH_UNIT ( ) NAMED_UNIT ( #310 ) );
#128 = DIRECTION ( 'NONE',  ( 0.0000000000000000000, 0.0000000000000000000, 1.000000000000000000 ) ) ;
#129 = VERTEX_POINT ( 'NONE', #115 ) ;
#130 =( GEOMETRIC_REPRESENTATION_CONTEXT ( 3 ) GLOBAL_UNCERTAINTY_ASSIGNED_CONTEXT ( ( #287 ) ) GLOBAL_UNIT_ASSIGNED_CONTEXT ( ( #34, #126, #264 ) ) REPRESENTATION_CONTEXT ( 'NONE', 'WORKASPACE' ) );
#131 = COLOUR_RGB ( '',1.000000000000000000, 1.000000000000000000, 0.5019607843137254800 ) ;
#132 = EDGE_LOOP ( 'NONE', ( #175, #309, #75, #184 ) ) ;
#133 = EDGE_CURVE ( 'NONE', #119, #43, #293, .T. ) ;
#134 = AXIS2_PLACEMENT_3D ( 'NONE', #163, #319, #272 ) ;
#135 = PRODUCT_DEFINITION_SHAPE ( 'NONE', 'NONE',  #109 ) ;
#136 = VECTOR ( 'NONE', #107, 39.37007874015748100 ) ;
#137 = ORIENTED_EDGE ( 'NONE', *, *, #154, .T. ) ;
#138 = CARTESIAN_POINT ( 'NONE',  ( 0.0000000000000000000, 0.0000000000000000000, 0.7500000000000001100 ) ) ;
#139 = CARTESIAN_POINT ( 'NONE',  ( 0.4375000000000000600, 0.0000000000000000000, 0.3592519685039369800 ) ) ;
#140 = DIRECTION ( 'NONE',  ( -1.000000000000000000, 0.0000000000000000000, -0.0000000000000000000 ) ) ;
#141 = ORIENTED_EDGE ( 'NONE', *, *, #242, .T. ) ;
#142 = ORIENTED_EDGE ( 'NONE', *, *, #20, .F. ) ;
#143 = DIRECTION ( 'NONE',  ( 1.000000000000000000, 0.0000000000000000000, 0.0000000000000000000 ) ) ;
#144 = SURFACE_SIDE_STYLE ('',( #101 ) ) ;
#145 = AXIS2_PLACEMENT_3D ( 'NONE', #235, #79, #108 ) ;
#146 = LENGTH_MEASURE_WITH_UNIT ( LENGTH_MEASURE( 0.02539999999999999900 ), #220 );
#147 = EDGE_LOOP ( 'NONE', ( #254, #57, #273, #261 ) ) ;
#148 = CARTESIAN_POINT ( 'NONE',  ( -0.3863651627795275900, 0.0000000000000000000, -8.537024980200822600E-018 ) ) ;
#149 = EDGE_CURVE ( 'NONE', #311, #249, #288, .T. ) ;
#150 = CARTESIAN_POINT ( 'NONE',  ( 0.0000000000000000000, 0.0000000000000000000, 0.01968503937007875700 ) ) ;
#151 = ORIENTED_EDGE ( 'NONE', *, *, #122, .F. ) ;
#152 = AXIS2_PLACEMENT_3D ( 'NONE', #159, #128, #286 ) ;
#153 = CARTESIAN_POINT ( 'NONE',  ( 0.4193157395511811200, 5.246483264502130900E-017, 0.7500000000000001100 ) ) ;
#154 = EDGE_CURVE ( 'NONE', #249, #316, #278, .T. ) ;
#155 = STYLED_ITEM ( 'NONE', ( #123 ), #271 ) ;
#156 = DIRECTION ( 'NONE',  ( 1.000000000000000000, 0.0000000000000000000, 0.0000000000000000000 ) ) ;
#157 = CARTESIAN_POINT ( 'NONE',  ( -0.4375000000000000600, 0.0000000000000000000, 0.7185039370078739600 ) ) ;
#158 = VERTEX_POINT ( 'NONE', #298 ) ;
#159 = CARTESIAN_POINT ( 'NONE',  ( 0.0000000000000000000, 0.0000000000000000000, 0.3592519685039369800 ) ) ;
#160 = FACE_OUTER_BOUND ( 'NONE', #290, .T. ) ;
#161 = ORIENTED_EDGE ( 'NONE', *, *, #187, .F. ) ;
#162 = MECHANICAL_DESIGN_GEOMETRIC_PRESENTATION_REPRESENTATION (  '', ( #155 ), #117 ) ;
#163 = CARTESIAN_POINT ( 'NONE',  ( 0.0000000000000000000, 0.0000000000000000000, -8.537024980200822600E-018 ) ) ;
#164 = CONICAL_SURFACE ( 'NONE', #33, 0.4375000000000000600, 0.5235987756435795900 ) ;
#165 = EDGE_LOOP ( 'NONE', ( #36, #142 ) ) ;
#166 = DIRECTION ( 'NONE',  ( -0.0000000000000000000, -0.0000000000000000000, -1.000000000000000000 ) ) ;
#167 = DIRECTION ( 'NONE',  ( 0.5000000000392143000, 6.123233996217002400E-017, -0.8660254037617981500 ) ) ;
#168 = CIRCLE ( 'NONE', #190, 0.4193157395511811200 ) ;
#169 = CARTESIAN_POINT ( 'NONE',  ( 0.4375000000000000600, 5.357829746269670700E-017, 0.7185039370078739600 ) ) ;
#170 =( LENGTH_UNIT ( ) NAMED_UNIT ( * ) SI_UNIT ( $, .METRE. ) );
#171 = CARTESIAN_POINT ( 'NONE',  ( -0.3750000000000000600, 4.592425496802576100E-017, 0.01968503937007875700 ) ) ;
#172 = PRODUCT_RELATED_PRODUCT_CATEGORY ( 'part', '', ( #12 ) ) ;
#173 = DIRECTION ( 'NONE',  ( -1.000000000000000000, 0.0000000000000000000, 0.0000000000000000000 ) ) ;
#174 = VECTOR ( 'NONE', #215, 39.37007874015748100 ) ;
#175 = ORIENTED_EDGE ( 'NONE', *, *, #149, .T. ) ;
#176 = DIMENSIONAL_EXPONENTS ( 1.000000000000000000, 0.0000000000000000000, 0.0000000000000000000, 0.0000000000000000000, 0.0000000000000000000, 0.0000000000000000000, 0.0000000000000000000 ) ;
#177 = COLOUR_RGB ( '',1.000000000000000000, 1.000000000000000000, 0.5019607843137254800 ) ;
#178 = APPLICATION_PROTOCOL_DEFINITION ( 'draft international standard', 'automotive_design', 1998, #221 ) ;
#179 = ORIENTED_EDGE ( 'NONE', *, *, #8, .T. ) ;
#180 = DIRECTION ( 'NONE',  ( 1.000000000000000000, 0.0000000000000000000, 0.0000000000000000000 ) ) ;
#181 = DIRECTION ( 'NONE',  ( -1.000000000000000000, 0.0000000000000000000, 0.0000000000000000000 ) ) ;
#182 = AXIS2_PLACEMENT_3D ( 'NONE', #281, #113, #114 ) ;
#183 = FACE_OUTER_BOUND ( 'NONE', #185, .T. ) ;
#184 = ORIENTED_EDGE ( 'NONE', *, *, #84, .F. ) ;
#185 = EDGE_LOOP ( 'NONE', ( #15, #47, #32, #289 ) ) ;
#186 = MECHANICAL_DESIGN_GEOMETRIC_PRESENTATION_REPRESENTATION (  '', ( #258 ), #65 ) ;
#187 = EDGE_CURVE ( 'NONE', #249, #195, #228, .T. ) ;
#188 = VECTOR ( 'NONE', #256, 39.37007874015748100 ) ;
#189 = ORIENTED_EDGE ( 'NONE', *, *, #59, .T. ) ;
#190 = AXIS2_PLACEMENT_3D ( 'NONE', #138, #209, #292 ) ;
#191 = DIRECTION ( 'NONE',  ( -0.0000000000000000000, -0.0000000000000000000, -1.000000000000000000 ) ) ;
#192 = PRODUCT_DEFINITION_CONTEXT ( 'detailed design', #221, 'design' ) ;
#193 = CARTESIAN_POINT ( 'NONE',  ( 0.0000000000000000000, 0.0000000000000000000, 0.3848425196850394100 ) ) ;
#194 = CARTESIAN_POINT ( 'NONE',  ( -0.4375000000000000600, 5.357829746269670700E-017, 0.3592519685039369800 ) ) ;
#195 = VERTEX_POINT ( 'NONE', #237 ) ;
#196 = CARTESIAN_POINT ( 'NONE',  ( 0.0000000000000000000, 0.0000000000000000000, 0.0000000000000000000 ) ) ;
#197 = MANIFOLD_SOLID_BREP ( '2017_10_02__19-26-34-515', #125 ) ;
#198 = DIRECTION ( 'NONE',  ( -1.000000000000000000, 0.0000000000000000000, 0.0000000000000000000 ) ) ;
#199 = LINE ( 'NONE', #255, #136 ) ;
#200 = ORIENTED_EDGE ( 'NONE', *, *, #242, .F. ) ;
#201 = DIRECTION ( 'NONE',  ( 1.000000000000000000, 0.0000000000000000000, 0.0000000000000000000 ) ) ;
#202 = SURFACE_SIDE_STYLE ('',( #27 ) ) ;
#203 = CYLINDRICAL_SURFACE ( 'NONE', #152, 0.4375000000000000600 ) ;
#204 = AXIS2_PLACEMENT_3D ( 'NONE', #243, #31, #246 ) ;
#205 = FACE_BOUND ( 'NONE', #270, .T. ) ;
#206 = ORIENTED_EDGE ( 'NONE', *, *, #49, .T. ) ;
#207 = FACE_OUTER_BOUND ( 'NONE', #100, .T. ) ;
#208 = ORIENTED_EDGE ( 'NONE', *, *, #42, .T. ) ;
#209 = DIRECTION ( 'NONE',  ( -0.0000000000000000000, -0.0000000000000000000, -1.000000000000000000 ) ) ;
#210 = DIRECTION ( 'NONE',  ( 0.0000000000000000000, 0.0000000000000000000, 1.000000000000000000 ) ) ;
#211 = CIRCLE ( 'NONE', #94, 0.3749999999999999400 ) ;
#212 = DIRECTION ( 'NONE',  ( -1.000000000000000000, 0.0000000000000000000, 0.0000000000000000000 ) ) ;
#213 = SHAPE_DEFINITION_REPRESENTATION ( #135, #271 ) ;
#214 = CONICAL_SURFACE ( 'NONE', #97, 0.4375000000000000600, 0.5235987756435795900 ) ;
#215 = DIRECTION ( 'NONE',  ( -0.5000000000392143000, 0.0000000000000000000, -0.8660254037617981500 ) ) ;
#216 = PRESENTATION_LAYER_ASSIGNMENT (  '', '', ( #258 ) ) ;
#217 = CARTESIAN_POINT ( 'NONE',  ( -0.3750000000000000600, 4.592425496802575500E-017, 0.3848425196850394100 ) ) ;
#218 = FACE_BOUND ( 'NONE', #323, .T. ) ;
#219 = FILL_AREA_STYLE_COLOUR ( '', #131 ) ;
#220 =( LENGTH_UNIT ( ) NAMED_UNIT ( * ) SI_UNIT ( $, .METRE. ) );
#221 = APPLICATION_CONTEXT ( 'automotive_design' ) ;
#222 = VECTOR ( 'NONE', #259, 39.37007874015748100 ) ;
#223 = DIRECTION ( 'NONE',  ( -0.0000000000000000000, -0.0000000000000000000, -1.000000000000000000 ) ) ;
#224 = AXIS2_PLACEMENT_3D ( 'NONE', #55, #4, #173 ) ;
#225 = CIRCLE ( 'NONE', #145, 0.4375000000000000600 ) ;
#226 = ORIENTED_EDGE ( 'NONE', *, *, #315, .F. ) ;
#227 = AXIS2_PLACEMENT_3D ( 'NONE', #196, #87, #296 ) ;
#228 = LINE ( 'NONE', #217, #10 ) ;
#229 = UNCERTAINTY_MEASURE_WITH_UNIT (LENGTH_MEASURE( 1.000000000000000100E-005 ), #127, 'distance_accuracy_value', 'NONE');
#230 = LENGTH_MEASURE_WITH_UNIT ( LENGTH_MEASURE( 0.02539999999999999900 ), #61 );
#231 = CARTESIAN_POINT ( 'NONE',  ( 0.4119325813897638500, 0.0000000000000000000, 0.0000000000000000000 ) ) ;
#232 = ORIENTED_EDGE ( 'NONE', *, *, #42, .F. ) ;
#233 = AXIS2_PLACEMENT_3D ( 'NONE', #88, #58, #201 ) ;
#234 = ORIENTED_EDGE ( 'NONE', *, *, #122, .T. ) ;
#235 = CARTESIAN_POINT ( 'NONE',  ( 0.0000000000000000000, 0.0000000000000000000, 0.0000000000000000000 ) ) ;
#236 = DIRECTION ( 'NONE',  ( 1.000000000000000000, 0.0000000000000000000, -5.691349986800549600E-017 ) ) ;
#237 = CARTESIAN_POINT ( 'NONE',  ( -0.3750000000000000600, 4.592425496802575500E-017, 0.7500000000000001100 ) ) ;
#238 = AXIS2_PLACEMENT_3D ( 'NONE', #81, #210, #48 ) ;
#239 = FILL_AREA_STYLE ('',( #299 ) ) ;
#240 = SURFACE_STYLE_USAGE ( .BOTH. , #144 ) ;
#241 = VECTOR ( 'NONE', #83, 39.37007874015748100 ) ;
#242 = EDGE_CURVE ( 'NONE', #129, #22, #313, .T. ) ;
#243 = CARTESIAN_POINT ( 'NONE',  ( 0.0000000000000000000, 0.0000000000000000000, 0.3848425196850394100 ) ) ;
#244 = CARTESIAN_POINT ( 'NONE',  ( 0.0000000000000000000, 0.0000000000000000000, 0.0000000000000000000 ) ) ;
#245 =( NAMED_UNIT ( * ) SI_UNIT ( $, .STERADIAN. ) SOLID_ANGLE_UNIT ( ) );
#246 = DIRECTION ( 'NONE',  ( 1.000000000000000000, 0.0000000000000000000, 0.0000000000000000000 ) ) ;
#247 = DIRECTION ( 'NONE',  ( 1.000000000000000000, 0.0000000000000000000, 0.0000000000000000000 ) ) ;
#248 = CYLINDRICAL_SURFACE ( 'NONE', #52, 0.3750000000000000600 ) ;
#249 = VERTEX_POINT ( 'NONE', #171 ) ;
#250 = PRODUCT_DEFINITION_FORMATION_WITH_SPECIFIED_SOURCE ( 'ANY', '', #12, .NOT_KNOWN. ) ;
#251 = FACE_OUTER_BOUND ( 'NONE', #285, .T. ) ;
#252 = FACE_OUTER_BOUND ( 'NONE', #28, .T. ) ;
#253 = AXIS2_PLACEMENT_3D ( 'NONE', #26, #277, #198 ) ;
#254 = ORIENTED_EDGE ( 'NONE', *, *, #78, .F. ) ;
#255 = CARTESIAN_POINT ( 'NONE',  ( 0.3863651627795275900, 4.731608598999945100E-017, -8.537024980200822600E-018 ) ) ;
#256 = DIRECTION ( 'NONE',  ( 0.0000000000000000000, 0.0000000000000000000, 1.000000000000000000 ) ) ;
#257 = DIRECTION ( 'NONE',  ( -0.0000000000000000000, -0.0000000000000000000, -1.000000000000000000 ) ) ;
#258 = STYLED_ITEM ( 'NONE', ( #284 ), #197 ) ;
#259 = DIRECTION ( 'NONE',  ( -0.5000000000067381700, 0.0000000000000000000, -0.8660254037805483800 ) ) ;
#260 = LENGTH_MEASURE_WITH_UNIT ( LENGTH_MEASURE( 0.02539999999999999900 ), #170 );
#261 = ORIENTED_EDGE ( 'NONE', *, *, #315, .T. ) ;
#262 = VERTEX_POINT ( 'NONE', #279 ) ;
#263 = CARTESIAN_POINT ( 'NONE',  ( -0.3863651627795275900, 0.0000000000000000000, 0.0000000000000000000 ) ) ;
#264 =( NAMED_UNIT ( * ) SI_UNIT ( $, .STERADIAN. ) SOLID_ANGLE_UNIT ( ) );
#265 = ORIENTED_EDGE ( 'NONE', *, *, #8, .F. ) ;
#266 = ORIENTED_EDGE ( 'NONE', *, *, #84, .T. ) ;
#267 = ADVANCED_FACE ( 'NONE', ( #251 ), #45, .F. ) ;
#268 = CIRCLE ( 'NONE', #227, 0.3863651627795275900 ) ;
#269 = CIRCLE ( 'NONE', #253, 0.3863651627795275900 ) ;
#270 = EDGE_LOOP ( 'NONE', ( #206, #179 ) ) ;
#271 = ADVANCED_BREP_SHAPE_REPRESENTATION ( 'A-JSI-1214-12', ( #197, #320 ), #130 ) ;
#272 = DIRECTION ( 'NONE',  ( -1.000000000000000000, 0.0000000000000000000, 0.0000000000000000000 ) ) ;
#273 = ORIENTED_EDGE ( 'NONE', *, *, #41, .T. ) ;
#274 = ORIENTED_EDGE ( 'NONE', *, *, #124, .F. ) ;
#275 = DIRECTION ( 'NONE',  ( 0.0000000000000000000, 0.0000000000000000000, -1.000000000000000000 ) ) ;
#276 = DIRECTION ( 'NONE',  ( 0.0000000000000000000, 0.0000000000000000000, 1.000000000000000000 ) ) ;
#277 = DIRECTION ( 'NONE',  ( 0.0000000000000000000, 0.0000000000000000000, 1.000000000000000000 ) ) ;
#278 = LINE ( 'NONE', #148, #222 ) ;
#279 = CARTESIAN_POINT ( 'NONE',  ( 0.3863651627795275900, 4.731608598999945100E-017, 0.0000000000000000000 ) ) ;
#280 = DIRECTION ( 'NONE',  ( -0.0000000000000000000, -0.0000000000000000000, -1.000000000000000000 ) ) ;
#281 = CARTESIAN_POINT ( 'NONE',  ( 0.0000000000000000000, 0.0000000000000000000, 0.0000000000000000000 ) ) ;
#282 = CIRCLE ( 'NONE', #103, 0.3750000000000000600 ) ;
#283 = FILL_AREA_STYLE ('',( #219 ) ) ;
#284 = PRESENTATION_STYLE_ASSIGNMENT (( #240 ) ) ;
#285 = EDGE_LOOP ( 'NONE', ( #46, #51, #68, #40 ) ) ;
#286 = DIRECTION ( 'NONE',  ( 1.000000000000000000, 0.0000000000000000000, 0.0000000000000000000 ) ) ;
#287 = UNCERTAINTY_MEASURE_WITH_UNIT (LENGTH_MEASURE( 1.000000000000000100E-005 ), #34, 'distance_accuracy_value', 'NONE');
#288 = CIRCLE ( 'NONE', #44, 0.3749999999999999400 ) ;
#289 = ORIENTED_EDGE ( 'NONE', *, *, #41, .F. ) ;
#290 = EDGE_LOOP ( 'NONE', ( #106, #91 ) ) ;
#291 = DIRECTION ( 'NONE',  ( -0.0000000000000000000, -0.0000000000000000000, -1.000000000000000000 ) ) ;
#292 = DIRECTION ( 'NONE',  ( -1.000000000000000000, 0.0000000000000000000, 0.0000000000000000000 ) ) ;
#293 = CIRCLE ( 'NONE', #182, 0.4375000000000000600 ) ;
#294 = EDGE_LOOP ( 'NONE', ( #302, #232, #137, #314 ) ) ;
#295 = CARTESIAN_POINT ( 'NONE',  ( 0.0000000000000000000, 0.0000000000000000000, 0.7185039370078739600 ) ) ;
#296 = DIRECTION ( 'NONE',  ( -1.000000000000000000, 0.0000000000000000000, 0.0000000000000000000 ) ) ;
#297 = AXIS2_PLACEMENT_3D ( 'NONE', #25, #166, #24 ) ;
#298 = CARTESIAN_POINT ( 'NONE',  ( 0.4375000000000000600, 5.357829746269670700E-017, 0.7185039370078739600 ) ) ;
#299 = FILL_AREA_STYLE_COLOUR ( '', #177 ) ;
#300 =( NAMED_UNIT ( * ) SI_UNIT ( $, .STERADIAN. ) SOLID_ANGLE_UNIT ( ) );
#301 = FACE_OUTER_BOUND ( 'NONE', #294, .T. ) ;
#302 = ORIENTED_EDGE ( 'NONE', *, *, #35, .F. ) ;
#303 =( CONVERSION_BASED_UNIT ( 'INCH', #260 ) LENGTH_UNIT ( ) NAMED_UNIT ( #11 ) );
#304 = ORIENTED_EDGE ( 'NONE', *, *, #121, .T. ) ;
#305 = DIRECTION ( 'NONE',  ( 0.0000000000000000000, 0.0000000000000000000, 1.000000000000000000 ) ) ;
#306 = SURFACE_STYLE_USAGE ( .BOTH. , #202 ) ;
#307 = ADVANCED_FACE ( 'NONE', ( #183 ), #74, .T. ) ;
#308 = CARTESIAN_POINT ( 'NONE',  ( 0.0000000000000000000, 0.0000000000000000000, 0.7185039370078739600 ) ) ;
#309 = ORIENTED_EDGE ( 'NONE', *, *, #187, .T. ) ;
#310 = DIMENSIONAL_EXPONENTS ( 1.000000000000000000, 0.0000000000000000000, 0.0000000000000000000, 0.0000000000000000000, 0.0000000000000000000, 0.0000000000000000000, 0.0000000000000000000 ) ;
#311 = VERTEX_POINT ( 'NONE', #112 ) ;
#312 = ADVANCED_FACE ( 'NONE', ( #207 ), #9, .F. ) ;
#313 = LINE ( 'NONE', #5, #174 ) ;
#314 = ORIENTED_EDGE ( 'NONE', *, *, #102, .F. ) ;
#315 = EDGE_CURVE ( 'NONE', #158, #22, #98, .T. ) ;
#316 = VERTEX_POINT ( 'NONE', #263 ) ;
#317 = VERTEX_POINT ( 'NONE', #153 ) ;
#318 = CARTESIAN_POINT ( 'NONE',  ( 0.3750000000000000600, 0.0000000000000000000, 0.3848425196850394100 ) ) ;
#319 = DIRECTION ( 'NONE',  ( -0.0000000000000000000, -0.0000000000000000000, -1.000000000000000000 ) ) ;
#320 = AXIS2_PLACEMENT_3D ( 'NONE', #244, #305, #180 ) ;
#321 = DIRECTION ( 'NONE',  ( 1.000000000000000000, 0.0000000000000000000, 0.0000000000000000000 ) ) ;
#322 = LINE ( 'NONE', #318, #241 ) ;
#323 = EDGE_LOOP ( 'NONE', ( #304, #85 ) ) ;
ENDSEC;
END-ISO-10303-21;
