ISO-10303-21;
HEADER;
FILE_DESCRIPTION (( 'STEP AP214' ),
    '1' );
FILE_NAME ('A-TSI-0405-04.step',
    '2017-11-29T20:25:52',
    ( '' ),
    ( '' ),
    'SwSTEP 2.0',
    'SolidWorks 2017',
    '' );
FILE_SCHEMA (( 'AUTOMOTIVE_DESIGN' ));
ENDSEC;

DATA;
#1 = ADVANCED_FACE ( 'NONE', ( #14 ), #85, .T. ) ;
#2 = MANIFOLD_SOLID_BREP ( '2017_10_02__20-00-19-358', #238 ) ;
#3 = CIRCLE ( 'NONE', #293, 0.1250000000000000000 ) ;
#4 = AXIS2_PLACEMENT_3D ( 'NONE', #303, #250, #13 ) ;
#5 = ORIENTED_EDGE ( 'NONE', *, *, #223, .T. ) ;
#6 = CIRCLE ( 'NONE', #276, 0.1562500000000000000 ) ;
#7 = PRODUCT_DEFINITION_CONTEXT ( 'detailed design', #83, 'design' ) ;
#8 = ADVANCED_FACE ( 'NONE', ( #93 ), #148, .T. ) ;
#9 = DIRECTION ( 'NONE',  ( 0.0000000000000000000, 1.092739197462199400E-016, -1.000000000000000000 ) ) ;
#10 = VECTOR ( 'NONE', #326, 39.37007874015748100 ) ;
#11 = PRODUCT_DEFINITION ( 'UNKNOWN', '', #133, #7 ) ;
#12 = VECTOR ( 'NONE', #149, 39.37007874015748900 ) ;
#13 = DIRECTION ( 'NONE',  ( 1.000000000000000000, 0.0000000000000000000, 0.0000000000000000000 ) ) ;
#14 = FACE_OUTER_BOUND ( 'NONE', #187, .T. ) ;
#15 = ORIENTED_EDGE ( 'NONE', *, *, #219, .F. ) ;
#16 = CARTESIAN_POINT ( 'NONE',  ( 0.1372154511653543300, 0.0000000000000000000, 0.2500000000000000000 ) ) ;
#17 = CARTESIAN_POINT ( 'NONE',  ( 0.0000000000000000000, 0.0000000000000000000, 0.0000000000000000000 ) ) ;
#18 = CARTESIAN_POINT ( 'NONE',  ( 0.0000000000000000000, -1.290636847561417100E-018, 0.2499999999999069100 ) ) ;
#19 = ORIENTED_EDGE ( 'NONE', *, *, #37, .T. ) ;
#20 = VERTEX_POINT ( 'NONE', #325 ) ;
#21 = AXIS2_PLACEMENT_3D ( 'NONE', #17, #232, #279 ) ;
#22 = CARTESIAN_POINT ( 'NONE',  ( 0.1363651627788543300, 1.669991601123317300E-017, 0.0000000000000000000 ) ) ;
#23 = CARTESIAN_POINT ( 'NONE',  ( 0.1562500000000000000, 0.0000000000000000000, 0.2381889763779527500 ) ) ;
#24 = LENGTH_MEASURE_WITH_UNIT ( LENGTH_MEASURE( 0.02539999999999999900 ), #129 );
#25 = CARTESIAN_POINT ( 'NONE',  ( 0.0000000000000000000, 0.0000000000000000000, 0.2500000000000000000 ) ) ;
#26 = ORIENTED_EDGE ( 'NONE', *, *, #152, .F. ) ;
#27 = AXIS2_PLACEMENT_3D ( 'NONE', #104, #208, #236 ) ;
#28 = EDGE_LOOP ( 'NONE', ( #52, #245 ) ) ;
#29 =( LENGTH_UNIT ( ) NAMED_UNIT ( * ) SI_UNIT ( $, .METRE. ) );
#30 = FACE_BOUND ( 'NONE', #300, .T. ) ;
#31 = PRODUCT_RELATED_PRODUCT_CATEGORY ( 'part', '', ( #191 ) ) ;
#32 = VERTEX_POINT ( 'NONE', #36 ) ;
#33 = DIRECTION ( 'NONE',  ( -0.0000000000000000000, -0.0000000000000000000, -1.000000000000000000 ) ) ;
#34 =( LENGTH_UNIT ( ) NAMED_UNIT ( * ) SI_UNIT ( $, .METRE. ) );
#35 = EDGE_LOOP ( 'NONE', ( #312, #322, #118, #277 ) ) ;
#36 = CARTESIAN_POINT ( 'NONE',  ( 0.1250000000000000000, 0.0000000000000000000, 0.2500000000000000000 ) ) ;
#37 = EDGE_CURVE ( 'NONE', #305, #343, #6, .T. ) ;
#38 = CIRCLE ( 'NONE', #281, 0.1494309023295800900 ) ;
#39 = ORIENTED_EDGE ( 'NONE', *, *, #170, .T. ) ;
#40 = DIRECTION ( 'NONE',  ( 1.000000000000000000, 0.0000000000000000000, 0.0000000000000000000 ) ) ;
#41 = EDGE_CURVE ( 'NONE', #20, #305, #79, .T. ) ;
#42 = FACE_BOUND ( 'NONE', #28, .T. ) ;
#43 = ORIENTED_EDGE ( 'NONE', *, *, #55, .F. ) ;
#44 = DIRECTION ( 'NONE',  ( 1.000000000000000000, 0.0000000000000000000, 0.0000000000000000000 ) ) ;
#45 = VERTEX_POINT ( 'NONE', #90 ) ;
#46 = DIRECTION ( 'NONE',  ( 0.0000000000000000000, 0.0000000000000000000, 1.000000000000000000 ) ) ;
#47 = VECTOR ( 'NONE', #197, 39.37007874015748100 ) ;
#48 = VERTEX_POINT ( 'NONE', #271 ) ;
#49 = DIRECTION ( 'NONE',  ( 0.0000000000000000000, 1.000000000000000000, 0.0000000000000000000 ) ) ;
#50 =( CONVERSION_BASED_UNIT ( 'INCH', #24 ) LENGTH_UNIT ( ) NAMED_UNIT ( #290 ) );
#51 = VECTOR ( 'NONE', #228, 39.37007874015748100 ) ;
#52 = ORIENTED_EDGE ( 'NONE', *, *, #294, .T. ) ;
#53 = EDGE_LOOP ( 'NONE', ( #222, #15 ) ) ;
#54 = DIRECTION ( 'NONE',  ( 1.000000000000000000, 0.0000000000000000000, 0.0000000000000000000 ) ) ;
#55 = EDGE_CURVE ( 'NONE', #343, #212, #75, .T. ) ;
#56 = EDGE_CURVE ( 'NONE', #20, #125, #153, .T. ) ;
#57 = LINE ( 'NONE', #203, #51 ) ;
#58 = EDGE_CURVE ( 'NONE', #163, #343, #216, .T. ) ;
#59 = DIRECTION ( 'NONE',  ( 1.000000000000000000, 0.0000000000000000000, 0.0000000000000000000 ) ) ;
#60 = ORIENTED_EDGE ( 'NONE', *, *, #41, .T. ) ;
#61 = STYLED_ITEM ( 'NONE', ( #258 ), #2 ) ;
#62 = DIRECTION ( 'NONE',  ( 0.0000000000000000000, 0.0000000000000000000, 1.000000000000000000 ) ) ;
#63 = CIRCLE ( 'NONE', #126, 0.1562500000000000000 ) ;
#64 = DIRECTION ( 'NONE',  ( 1.000000000000000000, 0.0000000000000000000, 0.0000000000000000000 ) ) ;
#65 = DIRECTION ( 'NONE',  ( 0.0000000000000000000, 0.5000000001349960100, -0.8660254037064987200 ) ) ;
#66 = AXIS2_PLACEMENT_3D ( 'NONE', #330, #171, #40 ) ;
#67 = DIRECTION ( 'NONE',  ( 0.0000000000000000000, 0.0000000000000000000, 1.000000000000000000 ) ) ;
#68 = LINE ( 'NONE', #22, #12 ) ;
#69 = DIRECTION ( 'NONE',  ( 0.0000000000000000000, 1.000000000000000000, 0.0000000000000000000 ) ) ;
#70 = VERTEX_POINT ( 'NONE', #124 ) ;
#71 = ORIENTED_EDGE ( 'NONE', *, *, #229, .T. ) ;
#72 = DIRECTION ( 'NONE',  ( -0.5000000000375604000, 0.0000000000000000000, -0.8660254037627529400 ) ) ;
#73 =( NAMED_UNIT ( * ) SI_UNIT ( $, .STERADIAN. ) SOLID_ANGLE_UNIT ( ) );
#74 = EDGE_CURVE ( 'NONE', #105, #32, #3, .T. ) ;
#75 = CIRCLE ( 'NONE', #341, 0.1562500000000000000 ) ;
#76 = CARTESIAN_POINT ( 'NONE',  ( 0.0000000000000000000, 0.0000000000000000000, 0.01968503936737532300 ) ) ;
#77 = DIRECTION ( 'NONE',  ( -1.000000000000000000, 0.0000000000000000000, 0.0000000000000000000 ) ) ;
#78 = CARTESIAN_POINT ( 'NONE',  ( 0.1463075813897637700, 0.0000000000000000000, 0.0000000000000000000 ) ) ;
#79 = LINE ( 'NONE', #139, #10 ) ;
#80 = MECHANICAL_DESIGN_GEOMETRIC_PRESENTATION_REPRESENTATION (  '', ( #120 ), #116 ) ;
#81 = ORIENTED_EDGE ( 'NONE', *, *, #323, .F. ) ;
#82 =( GEOMETRIC_REPRESENTATION_CONTEXT ( 3 ) GLOBAL_UNCERTAINTY_ASSIGNED_CONTEXT ( ( #302 ) ) GLOBAL_UNIT_ASSIGNED_CONTEXT ( ( #50, #176, #73 ) ) REPRESENTATION_CONTEXT ( 'NONE', 'WORKASPACE' ) );
#83 = APPLICATION_CONTEXT ( 'automotive_design' ) ;
#84 = AXIS2_PLACEMENT_3D ( 'NONE', #311, #154, #54 ) ;
#85 = CONICAL_SURFACE ( 'NONE', #287, 0.1562500000005012900, 0.5235987757541786800 ) ;
#86 = ORIENTED_EDGE ( 'NONE', *, *, #294, .F. ) ;
#87 = DIRECTION ( 'NONE',  ( 6.123233997389989200E-017, -0.5000000001349957900, -0.8660254037064987200 ) ) ;
#88 = DIRECTION ( 'NONE',  ( 0.0000000000000000000, 1.000000000000000000, 0.0000000000000000000 ) ) ;
#89 = ORIENTED_EDGE ( 'NONE', *, *, #189, .T. ) ;
#90 = CARTESIAN_POINT ( 'NONE',  ( 0.0000000000000000000, 0.1494309023295800900, 0.2499999999999069100 ) ) ;
#91 = AXIS2_PLACEMENT_3D ( 'NONE', #119, #174, #251 ) ;
#92 = CARTESIAN_POINT ( 'NONE',  ( -0.1250000000000000000, 1.530808498934191500E-017, 0.1348425196850393800 ) ) ;
#93 = FACE_OUTER_BOUND ( 'NONE', #237, .T. ) ;
#94 = CARTESIAN_POINT ( 'NONE',  ( 0.0000000000000000000, 0.1562499999995751500, 0.2381889763779527500 ) ) ;
#95 = CARTESIAN_POINT ( 'NONE',  ( -0.1249999999999534500, 1.530808498933906500E-017, 0.01968503936737532300 ) ) ;
#96 = PRESENTATION_LAYER_ASSIGNMENT (  '', '', ( #120 ) ) ;
#97 = DIRECTION ( 'NONE',  ( -0.0000000000000000000, -0.0000000000000000000, -1.000000000000000000 ) ) ;
#98 = EDGE_LOOP ( 'NONE', ( #103, #143, #221, #175 ) ) ;
#99 = DIRECTION ( 'NONE',  ( 0.0000000000000000000, 1.000000000000000000, 0.0000000000000000000 ) ) ;
#100 = CARTESIAN_POINT ( 'NONE',  ( 0.0000000000000000000, 0.0000000000000000000, 0.1348425196850393800 ) ) ;
#101 = CONICAL_SURFACE ( 'NONE', #242, 0.1363651627788543300, 0.5235987756416700100 ) ;
#102 = EDGE_CURVE ( 'NONE', #138, #32, #230, .T. ) ;
#103 = ORIENTED_EDGE ( 'NONE', *, *, #235, .F. ) ;
#104 = CARTESIAN_POINT ( 'NONE',  ( 0.0000000000000000000, 0.0000000000000000000, 0.0000000000000000000 ) ) ;
#105 = VERTEX_POINT ( 'NONE', #199 ) ;
#106 = FILL_AREA_STYLE ('',( #130 ) ) ;
#107 =( NAMED_UNIT ( * ) SI_UNIT ( $, .STERADIAN. ) SOLID_ANGLE_UNIT ( ) );
#108 = AXIS2_PLACEMENT_3D ( 'NONE', #164, #62, #167 ) ;
#109 = APPLICATION_CONTEXT ( 'automotive_design' ) ;
#110 = FACE_OUTER_BOUND ( 'NONE', #98, .T. ) ;
#111 = ADVANCED_FACE ( 'NONE', ( #204 ), #184, .T. ) ;
#112 = VERTEX_POINT ( 'NONE', #95 ) ;
#113 = VECTOR ( 'NONE', #72, 39.37007874015748900 ) ;
#114 = FILL_AREA_STYLE_COLOUR ( '', #267 ) ;
#115 = ORIENTED_EDGE ( 'NONE', *, *, #223, .F. ) ;
#116 =( GEOMETRIC_REPRESENTATION_CONTEXT ( 3 ) GLOBAL_UNCERTAINTY_ASSIGNED_CONTEXT ( ( #286 ) ) GLOBAL_UNIT_ASSIGNED_CONTEXT ( ( #263, #155, #107 ) ) REPRESENTATION_CONTEXT ( 'NONE', 'WORKASPACE' ) );
#117 = CYLINDRICAL_SURFACE ( 'NONE', #299, 0.1250000000000000000 ) ;
#118 = ORIENTED_EDGE ( 'NONE', *, *, #102, .T. ) ;
#119 = CARTESIAN_POINT ( 'NONE',  ( 0.0000000000000000000, 0.0000000000000000000, 0.1190944881889763700 ) ) ;
#120 = STYLED_ITEM ( 'NONE', ( #333 ), #156 ) ;
#121 = FACE_OUTER_BOUND ( 'NONE', #231, .T. ) ;
#122 = EDGE_CURVE ( 'NONE', #160, #305, #247, .T. ) ;
#123 = ORIENTED_EDGE ( 'NONE', *, *, #235, .T. ) ;
#124 = CARTESIAN_POINT ( 'NONE',  ( 0.1363651627788543300, 1.669991601123317300E-017, 0.0000000000000000000 ) ) ;
#125 = VERTEX_POINT ( 'NONE', #278 ) ;
#126 = AXIS2_PLACEMENT_3D ( 'NONE', #275, #301, #44 ) ;
#127 = CARTESIAN_POINT ( 'NONE',  ( 0.0000000000000000000, 0.0000000000000000000, 0.0000000000000000000 ) ) ;
#128 = DIRECTION ( 'NONE',  ( -1.000000000000000000, 0.0000000000000000000, 0.0000000000000000000 ) ) ;
#129 =( LENGTH_UNIT ( ) NAMED_UNIT ( * ) SI_UNIT ( $, .METRE. ) );
#130 = FILL_AREA_STYLE_COLOUR ( '', #274 ) ;
#131 = ORIENTED_EDGE ( 'NONE', *, *, #58, .F. ) ;
#132 = APPLICATION_PROTOCOL_DEFINITION ( 'draft international standard', 'automotive_design', 1998, #109 ) ;
#133 = PRODUCT_DEFINITION_FORMATION_WITH_SPECIFIED_SOURCE ( 'ANY', '', #191, .NOT_KNOWN. ) ;
#134 = SURFACE_STYLE_FILL_AREA ( #106 ) ;
#135 = ADVANCED_FACE ( 'NONE', ( #314 ), #340, .T. ) ;
#136 = EDGE_CURVE ( 'NONE', #45, #160, #186, .T. ) ;
#137 = LINE ( 'NONE', #92, #47 ) ;
#138 = VERTEX_POINT ( 'NONE', #147 ) ;
#139 = CARTESIAN_POINT ( 'NONE',  ( 0.1562500000000000000, 0.0000000000000000000, 0.1190944881889763700 ) ) ;
#140 = CARTESIAN_POINT ( 'NONE',  ( 0.0000000000000000000, 0.0000000000000000000, 0.2381889763779527500 ) ) ;
#141 = FACE_OUTER_BOUND ( 'NONE', #35, .T. ) ;
#142 = DIRECTION ( 'NONE',  ( 1.000000000000000000, 0.0000000000000000000, 0.0000000000000000000 ) ) ;
#143 = ORIENTED_EDGE ( 'NONE', *, *, #323, .T. ) ;
#144 = ORIENTED_EDGE ( 'NONE', *, *, #37, .F. ) ;
#145 = DIRECTION ( 'NONE',  ( 1.000000000000000000, 0.0000000000000000000, 0.0000000000000000000 ) ) ;
#146 = DIRECTION ( 'NONE',  ( 0.0000000000000000000, 1.092739197462199400E-016, -1.000000000000000000 ) ) ;
#147 = CARTESIAN_POINT ( 'NONE',  ( 0.1249999999999534500, 0.0000000000000000000, 0.01968503936737532300 ) ) ;
#148 = CYLINDRICAL_SURFACE ( 'NONE', #108, 0.1562500000000000000 ) ;
#149 = DIRECTION ( 'NONE',  ( 0.5000000000375604000, 6.123233996196748400E-017, -0.8660254037627529400 ) ) ;
#150 = DIRECTION ( 'NONE',  ( -0.0000000000000000000, -0.0000000000000000000, -1.000000000000000000 ) ) ;
#151 = CARTESIAN_POINT ( 'NONE',  ( 1.913510623662536400E-017, -0.1562499999995751500, 0.2381889763779527500 ) ) ;
#152 = EDGE_CURVE ( 'NONE', #112, #138, #252, .T. ) ;
#153 = CIRCLE ( 'NONE', #329, 0.1562500000000000000 ) ;
#154 = DIRECTION ( 'NONE',  ( 0.0000000000000000000, 0.0000000000000000000, 1.000000000000000000 ) ) ;
#155 =( NAMED_UNIT ( * ) PLANE_ANGLE_UNIT ( ) SI_UNIT ( $, .RADIAN. ) );
#156 = ADVANCED_BREP_SHAPE_REPRESENTATION ( 'A-TSI-0405-04', ( #2, #84 ), #82 ) ;
#157 = SURFACE_STYLE_FILL_AREA ( #296 ) ;
#158 = AXIS2_PLACEMENT_3D ( 'NONE', #18, #177, #99 ) ;
#159 = CONICAL_SURFACE ( 'NONE', #27, 0.1363651627788543300, 0.5235987756416700100 ) ;
#160 = VERTEX_POINT ( 'NONE', #94 ) ;
#161 = EDGE_CURVE ( 'NONE', #112, #105, #137, .T. ) ;
#162 = SURFACE_SIDE_STYLE ('',( #157 ) ) ;
#163 = VERTEX_POINT ( 'NONE', #327 ) ;
#164 = CARTESIAN_POINT ( 'NONE',  ( 0.0000000000000000000, 0.0000000000000000000, 0.1190944881889763700 ) ) ;
#165 = CARTESIAN_POINT ( 'NONE',  ( 1.913510623673878400E-017, -0.1562500000005012900, 0.2381889763763486200 ) ) ;
#166 = CIRCLE ( 'NONE', #158, 0.1494309023295800900 ) ;
#167 = DIRECTION ( 'NONE',  ( 1.000000000000000000, 0.0000000000000000000, 0.0000000000000000000 ) ) ;
#168 = EDGE_LOOP ( 'NONE', ( #331, #39, #292, #338, #315 ) ) ;
#169 = CARTESIAN_POINT ( 'NONE',  ( 0.1250000000000000000, 0.0000000000000000000, 0.1348425196850393800 ) ) ;
#170 = EDGE_CURVE ( 'NONE', #125, #212, #57, .T. ) ;
#171 = DIRECTION ( 'NONE',  ( -0.0000000000000000000, -0.0000000000000000000, -1.000000000000000000 ) ) ;
#172 = PLANE ( 'NONE',  #335 ) ;
#173 = SHAPE_DEFINITION_REPRESENTATION ( #291, #156 ) ;
#174 = DIRECTION ( 'NONE',  ( 0.0000000000000000000, 0.0000000000000000000, 1.000000000000000000 ) ) ;
#175 = ORIENTED_EDGE ( 'NONE', *, *, #189, .F. ) ;
#176 =( NAMED_UNIT ( * ) PLANE_ANGLE_UNIT ( ) SI_UNIT ( $, .RADIAN. ) );
#177 = DIRECTION ( 'NONE',  ( 0.0000000000000000000, 1.092739197462199400E-016, -1.000000000000000000 ) ) ;
#178 = AXIS2_PLACEMENT_3D ( 'NONE', #308, #183, #77 ) ;
#179 = DIRECTION ( 'NONE',  ( -1.000000000000000000, 0.0000000000000000000, 0.0000000000000000000 ) ) ;
#180 = CIRCLE ( 'NONE', #270, 0.1249999999999534500 ) ;
#181 = DIRECTION ( 'NONE',  ( -0.0000000000000000000, -0.0000000000000000000, -1.000000000000000000 ) ) ;
#182 = ORIENTED_EDGE ( 'NONE', *, *, #122, .F. ) ;
#183 = DIRECTION ( 'NONE',  ( 0.0000000000000000000, 0.0000000000000000000, 1.000000000000000000 ) ) ;
#184 = CONICAL_SURFACE ( 'NONE', #313, 0.1562500000005012900, 0.5235987757541786800 ) ;
#185 = EDGE_CURVE ( 'NONE', #212, #160, #63, .T. ) ;
#186 = LINE ( 'NONE', #304, #211 ) ;
#187 = EDGE_LOOP ( 'NONE', ( #207, #285, #144, #182, #241 ) ) ;
#188 = DIMENSIONAL_EXPONENTS ( 1.000000000000000000, 0.0000000000000000000, 0.0000000000000000000, 0.0000000000000000000, 0.0000000000000000000, 0.0000000000000000000, 0.0000000000000000000 ) ;
#189 = EDGE_CURVE ( 'NONE', #112, #48, #316, .T. ) ;
#190 = CIRCLE ( 'NONE', #264, 0.1363651627788543300 ) ;
#191 = PRODUCT ( 'A-TSI-0405-04', 'A-TSI-0405-04', '', ( #239 ) ) ;
#192 = CARTESIAN_POINT ( 'NONE',  ( 0.0000000000000000000, 0.0000000000000000000, 0.2381889763779527500 ) ) ;
#193 = VECTOR ( 'NONE', #87, 39.37007874015748900 ) ;
#194 = EDGE_LOOP ( 'NONE', ( #81, #26, #89, #115 ) ) ;
#195 =( NAMED_UNIT ( * ) SI_UNIT ( $, .STERADIAN. ) SOLID_ANGLE_UNIT ( ) );
#196 = AXIS2_PLACEMENT_3D ( 'NONE', #25, #150, #255 ) ;
#197 = DIRECTION ( 'NONE',  ( 0.0000000000000000000, 0.0000000000000000000, 1.000000000000000000 ) ) ;
#198 = CARTESIAN_POINT ( 'NONE',  ( -0.1562500000000000000, 1.913510623667739500E-017, 0.2381889763779527500 ) ) ;
#199 = CARTESIAN_POINT ( 'NONE',  ( -0.1250000000000000000, 1.530808498934191500E-017, 0.2500000000000000000 ) ) ;
#200 = EDGE_LOOP ( 'NONE', ( #288, #233 ) ) ;
#201 = DIRECTION ( 'NONE',  ( 0.0000000000000000000, 0.0000000000000000000, 1.000000000000000000 ) ) ;
#202 = ORIENTED_EDGE ( 'NONE', *, *, #219, .T. ) ;
#203 = CARTESIAN_POINT ( 'NONE',  ( -0.1562500000000000000, 1.913510623667739500E-017, 0.1190944881889763700 ) ) ;
#204 = FACE_OUTER_BOUND ( 'NONE', #262, .T. ) ;
#205 = EDGE_CURVE ( 'NONE', #125, #20, #266, .T. ) ;
#206 = DIRECTION ( 'NONE',  ( 1.000000000000000000, 0.0000000000000000000, 0.0000000000000000000 ) ) ;
#207 = ORIENTED_EDGE ( 'NONE', *, *, #307, .T. ) ;
#208 = DIRECTION ( 'NONE',  ( -0.0000000000000000000, -0.0000000000000000000, -1.000000000000000000 ) ) ;
#209 = AXIS2_PLACEMENT_3D ( 'NONE', #280, #46, #257 ) ;
#210 = DIRECTION ( 'NONE',  ( 0.0000000000000000000, 1.092739197462199400E-016, -1.000000000000000000 ) ) ;
#211 = VECTOR ( 'NONE', #65, 39.37007874015748100 ) ;
#212 = VERTEX_POINT ( 'NONE', #198 ) ;
#213 = SURFACE_SIDE_STYLE ('',( #134 ) ) ;
#214 = CYLINDRICAL_SURFACE ( 'NONE', #209, 0.1250000000000000000 ) ;
#215 = SURFACE_STYLE_USAGE ( .BOTH. , #213 ) ;
#216 = LINE ( 'NONE', #165, #193 ) ;
#217 = ADVANCED_FACE ( 'NONE', ( #337, #42 ), #172, .T. ) ;
#218 = APPLICATION_PROTOCOL_DEFINITION ( 'draft international standard', 'automotive_design', 1998, #83 ) ;
#219 = EDGE_CURVE ( 'NONE', #163, #45, #166, .T. ) ;
#220 = DIMENSIONAL_EXPONENTS ( 1.000000000000000000, 0.0000000000000000000, 0.0000000000000000000, 0.0000000000000000000, 0.0000000000000000000, 0.0000000000000000000, 0.0000000000000000000 ) ;
#221 = ORIENTED_EDGE ( 'NONE', *, *, #229, .F. ) ;
#222 = ORIENTED_EDGE ( 'NONE', *, *, #307, .F. ) ;
#223 = EDGE_CURVE ( 'NONE', #70, #48, #190, .T. ) ;
#224 = AXIS2_PLACEMENT_3D ( 'NONE', #78, #309, #282 ) ;
#225 = LENGTH_MEASURE_WITH_UNIT ( LENGTH_MEASURE( 0.02539999999999999900 ), #34 );
#226 =( NAMED_UNIT ( * ) PLANE_ANGLE_UNIT ( ) SI_UNIT ( $, .RADIAN. ) );
#227 = CARTESIAN_POINT ( 'NONE',  ( -0.1363651627788543300, 0.0000000000000000000, 0.0000000000000000000 ) ) ;
#228 = DIRECTION ( 'NONE',  ( 0.0000000000000000000, 0.0000000000000000000, 1.000000000000000000 ) ) ;
#229 = EDGE_CURVE ( 'NONE', #48, #70, #256, .T. ) ;
#230 = LINE ( 'NONE', #169, #334 ) ;
#231 = EDGE_LOOP ( 'NONE', ( #123, #249, #86, #253 ) ) ;
#232 = DIRECTION ( 'NONE',  ( 0.0000000000000000000, 0.0000000000000000000, 1.000000000000000000 ) ) ;
#233 = ORIENTED_EDGE ( 'NONE', *, *, #205, .F. ) ;
#234 = DIRECTION ( 'NONE',  ( 0.0000000000000000000, 0.0000000000000000000, 1.000000000000000000 ) ) ;
#235 = EDGE_CURVE ( 'NONE', #138, #112, #180, .T. ) ;
#236 = DIRECTION ( 'NONE',  ( -1.000000000000000000, 0.0000000000000000000, 0.0000000000000000000 ) ) ;
#237 = EDGE_LOOP ( 'NONE', ( #318, #272, #60, #19, #339 ) ) ;
#238 = CLOSED_SHELL ( 'NONE', ( #135, #1, #244, #240, #8, #111, #342, #217, #289, #319 ) ) ;
#239 = PRODUCT_CONTEXT ( 'NONE', #109, 'mechanical' ) ;
#240 = ADVANCED_FACE ( 'NONE', ( #121 ), #214, .F. ) ;
#241 = ORIENTED_EDGE ( 'NONE', *, *, #136, .F. ) ;
#242 = AXIS2_PLACEMENT_3D ( 'NONE', #127, #259, #179 ) ;
#243 = FACE_OUTER_BOUND ( 'NONE', #194, .T. ) ;
#244 = ADVANCED_FACE ( 'NONE', ( #110 ), #101, .F. ) ;
#245 = ORIENTED_EDGE ( 'NONE', *, *, #74, .T. ) ;
#246 = CARTESIAN_POINT ( 'NONE',  ( 0.0000000000000000000, 0.0000000000000000000, 0.2381889763763486200 ) ) ;
#247 = CIRCLE ( 'NONE', #66, 0.1562500000000000000 ) ;
#248 = PRESENTATION_LAYER_ASSIGNMENT (  '', '', ( #61 ) ) ;
#249 = ORIENTED_EDGE ( 'NONE', *, *, #161, .T. ) ;
#250 = DIRECTION ( 'NONE',  ( -0.0000000000000000000, -0.0000000000000000000, -1.000000000000000000 ) ) ;
#251 = DIRECTION ( 'NONE',  ( 1.000000000000000000, 0.0000000000000000000, 0.0000000000000000000 ) ) ;
#252 = CIRCLE ( 'NONE', #4, 0.1249999999999534500 ) ;
#253 = ORIENTED_EDGE ( 'NONE', *, *, #102, .F. ) ;
#254 = DIRECTION ( 'NONE',  ( 0.0000000000000000000, 0.0000000000000000000, 1.000000000000000000 ) ) ;
#255 = DIRECTION ( 'NONE',  ( 1.000000000000000000, 0.0000000000000000000, 0.0000000000000000000 ) ) ;
#256 = CIRCLE ( 'NONE', #178, 0.1363651627788543300 ) ;
#257 = DIRECTION ( 'NONE',  ( 1.000000000000000000, 0.0000000000000000000, 0.0000000000000000000 ) ) ;
#258 = PRESENTATION_STYLE_ASSIGNMENT (( #269 ) ) ;
#259 = DIRECTION ( 'NONE',  ( -0.0000000000000000000, -0.0000000000000000000, -1.000000000000000000 ) ) ;
#260 =( GEOMETRIC_REPRESENTATION_CONTEXT ( 3 ) GLOBAL_UNCERTAINTY_ASSIGNED_CONTEXT ( ( #265 ) ) GLOBAL_UNIT_ASSIGNED_CONTEXT ( ( #298, #226, #195 ) ) REPRESENTATION_CONTEXT ( 'NONE', 'WORKASPACE' ) );
#261 = DIRECTION ( 'NONE',  ( 1.000000000000000000, 0.0000000000000000000, 0.0000000000000000000 ) ) ;
#262 = EDGE_LOOP ( 'NONE', ( #131, #202, #295, #297, #43 ) ) ;
#263 =( CONVERSION_BASED_UNIT ( 'INCH', #324 ) LENGTH_UNIT ( ) NAMED_UNIT ( #188 ) );
#264 = AXIS2_PLACEMENT_3D ( 'NONE', #284, #254, #128 ) ;
#265 = UNCERTAINTY_MEASURE_WITH_UNIT (LENGTH_MEASURE( 1.000000000000000100E-005 ), #298, 'distance_accuracy_value', 'NONE');
#266 = CIRCLE ( 'NONE', #21, 0.1562500000000000000 ) ;
#267 = COLOUR_RGB ( '',0.5098039215686274200, 0.5098039215686274200, 0.5490196078431373000 ) ;
#268 = CARTESIAN_POINT ( 'NONE',  ( 0.0000000000000000000, 0.0000000000000000000, 0.0000000000000000000 ) ) ;
#269 = SURFACE_STYLE_USAGE ( .BOTH. , #162 ) ;
#270 = AXIS2_PLACEMENT_3D ( 'NONE', #76, #181, #206 ) ;
#271 = CARTESIAN_POINT ( 'NONE',  ( -0.1363651627788543300, 0.0000000000000000000, 0.0000000000000000000 ) ) ;
#272 = ORIENTED_EDGE ( 'NONE', *, *, #205, .T. ) ;
#273 = CARTESIAN_POINT ( 'NONE',  ( 0.0000000000000000000, 0.0000000000000000000, 0.2381889763763486200 ) ) ;
#274 = COLOUR_RGB ( '',0.5098039215686274200, 0.5098039215686274200, 0.5490196078431373000 ) ;
#275 = CARTESIAN_POINT ( 'NONE',  ( 0.0000000000000000000, 0.0000000000000000000, 0.2381889763779527500 ) ) ;
#276 = AXIS2_PLACEMENT_3D ( 'NONE', #192, #321, #64 ) ;
#277 = ORIENTED_EDGE ( 'NONE', *, *, #74, .F. ) ;
#278 = CARTESIAN_POINT ( 'NONE',  ( -0.1562500000000000000, 1.913510623667739500E-017, 0.0000000000000000000 ) ) ;
#279 = DIRECTION ( 'NONE',  ( 1.000000000000000000, 0.0000000000000000000, 0.0000000000000000000 ) ) ;
#280 = CARTESIAN_POINT ( 'NONE',  ( 0.0000000000000000000, 0.0000000000000000000, 0.1348425196850393800 ) ) ;
#281 = AXIS2_PLACEMENT_3D ( 'NONE', #336, #210, #49 ) ;
#282 = DIRECTION ( 'NONE',  ( -1.000000000000000000, 0.0000000000000000000, -0.0000000000000000000 ) ) ;
#283 = PLANE ( 'NONE',  #224 ) ;
#284 = CARTESIAN_POINT ( 'NONE',  ( 0.0000000000000000000, 0.0000000000000000000, 0.0000000000000000000 ) ) ;
#285 = ORIENTED_EDGE ( 'NONE', *, *, #58, .T. ) ;
#286 = UNCERTAINTY_MEASURE_WITH_UNIT (LENGTH_MEASURE( 1.000000000000000100E-005 ), #263, 'distance_accuracy_value', 'NONE');
#287 = AXIS2_PLACEMENT_3D ( 'NONE', #246, #9, #88 ) ;
#288 = ORIENTED_EDGE ( 'NONE', *, *, #56, .F. ) ;
#289 = ADVANCED_FACE ( 'NONE', ( #243 ), #159, .F. ) ;
#290 = DIMENSIONAL_EXPONENTS ( 1.000000000000000000, 0.0000000000000000000, 0.0000000000000000000, 0.0000000000000000000, 0.0000000000000000000, 0.0000000000000000000, 0.0000000000000000000 ) ;
#291 = PRODUCT_DEFINITION_SHAPE ( 'NONE', 'NONE',  #11 ) ;
#292 = ORIENTED_EDGE ( 'NONE', *, *, #185, .T. ) ;
#293 = AXIS2_PLACEMENT_3D ( 'NONE', #306, #97, #145 ) ;
#294 = EDGE_CURVE ( 'NONE', #32, #105, #310, .T. ) ;
#295 = ORIENTED_EDGE ( 'NONE', *, *, #136, .T. ) ;
#296 = FILL_AREA_STYLE ('',( #114 ) ) ;
#297 = ORIENTED_EDGE ( 'NONE', *, *, #185, .F. ) ;
#298 =( CONVERSION_BASED_UNIT ( 'INCH', #225 ) LENGTH_UNIT ( ) NAMED_UNIT ( #220 ) );
#299 = AXIS2_PLACEMENT_3D ( 'NONE', #100, #234, #261 ) ;
#300 = EDGE_LOOP ( 'NONE', ( #71, #5 ) ) ;
#301 = DIRECTION ( 'NONE',  ( -0.0000000000000000000, -0.0000000000000000000, -1.000000000000000000 ) ) ;
#302 = UNCERTAINTY_MEASURE_WITH_UNIT (LENGTH_MEASURE( 1.000000000000000100E-005 ), #50, 'distance_accuracy_value', 'NONE');
#303 = CARTESIAN_POINT ( 'NONE',  ( 0.0000000000000000000, 0.0000000000000000000, 0.01968503936737532300 ) ) ;
#304 = CARTESIAN_POINT ( 'NONE',  ( 0.0000000000000000000, 0.1562500000005012900, 0.2381889763763486200 ) ) ;
#305 = VERTEX_POINT ( 'NONE', #23 ) ;
#306 = CARTESIAN_POINT ( 'NONE',  ( 0.0000000000000000000, 0.0000000000000000000, 0.2500000000000000000 ) ) ;
#307 = EDGE_CURVE ( 'NONE', #45, #163, #38, .T. ) ;
#308 = CARTESIAN_POINT ( 'NONE',  ( 0.0000000000000000000, 0.0000000000000000000, 0.0000000000000000000 ) ) ;
#309 = DIRECTION ( 'NONE',  ( 0.0000000000000000000, 0.0000000000000000000, -1.000000000000000000 ) ) ;
#310 = CIRCLE ( 'NONE', #196, 0.1250000000000000000 ) ;
#311 = CARTESIAN_POINT ( 'NONE',  ( 0.0000000000000000000, 0.0000000000000000000, 0.0000000000000000000 ) ) ;
#312 = ORIENTED_EDGE ( 'NONE', *, *, #161, .F. ) ;
#313 = AXIS2_PLACEMENT_3D ( 'NONE', #273, #146, #69 ) ;
#314 = FACE_OUTER_BOUND ( 'NONE', #168, .T. ) ;
#315 = ORIENTED_EDGE ( 'NONE', *, *, #41, .F. ) ;
#316 = LINE ( 'NONE', #227, #113 ) ;
#317 = MECHANICAL_DESIGN_GEOMETRIC_PRESENTATION_REPRESENTATION (  '', ( #61 ), #260 ) ;
#318 = ORIENTED_EDGE ( 'NONE', *, *, #170, .F. ) ;
#319 = ADVANCED_FACE ( 'NONE', ( #141 ), #117, .F. ) ;
#320 = FACE_OUTER_BOUND ( 'NONE', #200, .T. ) ;
#321 = DIRECTION ( 'NONE',  ( -0.0000000000000000000, -0.0000000000000000000, -1.000000000000000000 ) ) ;
#322 = ORIENTED_EDGE ( 'NONE', *, *, #152, .T. ) ;
#323 = EDGE_CURVE ( 'NONE', #138, #70, #68, .T. ) ;
#324 = LENGTH_MEASURE_WITH_UNIT ( LENGTH_MEASURE( 0.02539999999999999900 ), #29 );
#325 = CARTESIAN_POINT ( 'NONE',  ( 0.1562500000000000000, 0.0000000000000000000, 0.0000000000000000000 ) ) ;
#326 = DIRECTION ( 'NONE',  ( 0.0000000000000000000, 0.0000000000000000000, 1.000000000000000000 ) ) ;
#327 = CARTESIAN_POINT ( 'NONE',  ( 1.871755692989373200E-017, -0.1494309023295800900, 0.2499999999999069100 ) ) ;
#328 = DIRECTION ( 'NONE',  ( 0.0000000000000000000, 0.0000000000000000000, 1.000000000000000000 ) ) ;
#329 = AXIS2_PLACEMENT_3D ( 'NONE', #268, #328, #142 ) ;
#330 = CARTESIAN_POINT ( 'NONE',  ( 0.0000000000000000000, 0.0000000000000000000, 0.2381889763779527500 ) ) ;
#331 = ORIENTED_EDGE ( 'NONE', *, *, #56, .T. ) ;
#332 = DIRECTION ( 'NONE',  ( 1.000000000000000000, 0.0000000000000000000, -0.0000000000000000000 ) ) ;
#333 = PRESENTATION_STYLE_ASSIGNMENT (( #215 ) ) ;
#334 = VECTOR ( 'NONE', #67, 39.37007874015748100 ) ;
#335 = AXIS2_PLACEMENT_3D ( 'NONE', #16, #201, #332 ) ;
#336 = CARTESIAN_POINT ( 'NONE',  ( 0.0000000000000000000, -1.290636847561417100E-018, 0.2499999999999069100 ) ) ;
#337 = FACE_OUTER_BOUND ( 'NONE', #53, .T. ) ;
#338 = ORIENTED_EDGE ( 'NONE', *, *, #122, .T. ) ;
#339 = ORIENTED_EDGE ( 'NONE', *, *, #55, .T. ) ;
#340 = CYLINDRICAL_SURFACE ( 'NONE', #91, 0.1562500000000000000 ) ;
#341 = AXIS2_PLACEMENT_3D ( 'NONE', #140, #33, #59 ) ;
#342 = ADVANCED_FACE ( 'NONE', ( #30, #320 ), #283, .T. ) ;
#343 = VERTEX_POINT ( 'NONE', #151 ) ;
ENDSEC;
END-ISO-10303-21;
