ISO-10303-21;
HEADER;
FILE_DESCRIPTION (( 'STEP AP214' ),
    '1' );
FILE_NAME ('A-TSI-0809-08.step',
    '2017-11-29T20:26:06',
    ( '' ),
    ( '' ),
    'SwSTEP 2.0',
    'SolidWorks 2017',
    '' );
FILE_SCHEMA (( 'AUTOMOTIVE_DESIGN' ));
ENDSEC;

DATA;
#1 = ORIENTED_EDGE ( 'NONE', *, *, #229, .F. ) ;
#2 = PRESENTATION_LAYER_ASSIGNMENT (  '', '', ( #208 ) ) ;
#3 = ADVANCED_FACE ( 'NONE', ( #287 ), #255, .F. ) ;
#4 = ORIENTED_EDGE ( 'NONE', *, *, #257, .T. ) ;
#5 = EDGE_CURVE ( 'NONE', #207, #26, #90, .T. ) ;
#6 = CARTESIAN_POINT ( 'NONE',  ( 0.0000000000000000000, 0.0000000000000000000, 0.4803149606299212400 ) ) ;
#7 = LINE ( 'NONE', #66, #36 ) ;
#8 = ADVANCED_BREP_SHAPE_REPRESENTATION ( 'A-TSI-0809-08', ( #322, #304 ), #169 ) ;
#9 = AXIS2_PLACEMENT_3D ( 'NONE', #189, #108, #163 ) ;
#10 = CARTESIAN_POINT ( 'NONE',  ( 0.0000000000000000000, 0.0000000000000000000, 0.5000000000000000000 ) ) ;
#11 = ORIENTED_EDGE ( 'NONE', *, *, #27, .T. ) ;
#12 = ORIENTED_EDGE ( 'NONE', *, *, #248, .T. ) ;
#13 = DIRECTION ( 'NONE',  ( 1.000000000000000000, 0.0000000000000000000, 0.0000000000000000000 ) ) ;
#14 = UNCERTAINTY_MEASURE_WITH_UNIT (LENGTH_MEASURE( 1.000000000000000100E-005 ), #173, 'distance_accuracy_value', 'NONE');
#15 = CARTESIAN_POINT ( 'NONE',  ( 0.0000000000000000000, 0.0000000000000000000, 0.5000000000000000000 ) ) ;
#16 = PRODUCT_DEFINITION_SHAPE ( 'NONE', 'NONE',  #214 ) ;
#17 = CONICAL_SURFACE ( 'NONE', #31, 0.2613651627788077800, 0.5235987755924421700 ) ;
#18 = CYLINDRICAL_SURFACE ( 'NONE', #215, 0.2968750000000000000 ) ;
#19 = SURFACE_STYLE_USAGE ( .BOTH. , #246 ) ;
#20 = AXIS2_PLACEMENT_3D ( 'NONE', #35, #162, #295 ) ;
#21 = CARTESIAN_POINT ( 'NONE',  ( 0.0000000000000000000, 0.0000000000000000000, 0.5000000000000000000 ) ) ;
#22 = ORIENTED_EDGE ( 'NONE', *, *, #263, .F. ) ;
#23 = CARTESIAN_POINT ( 'NONE',  ( -0.2855098372204724600, 0.0000000000000000000, 0.5000000000000000000 ) ) ;
#24 = CARTESIAN_POINT ( 'NONE',  ( 0.2500000000000000000, 0.0000000000000000000, 0.5000000000000000000 ) ) ;
#25 = CYLINDRICAL_SURFACE ( 'NONE', #180, 0.2500000000000000000 ) ;
#26 = VERTEX_POINT ( 'NONE', #201 ) ;
#27 = EDGE_CURVE ( 'NONE', #210, #145, #182, .T. ) ;
#28 = LINE ( 'NONE', #82, #122 ) ;
#29 = AXIS2_PLACEMENT_3D ( 'NONE', #118, #314, #147 ) ;
#30 = VERTEX_POINT ( 'NONE', #24 ) ;
#31 = AXIS2_PLACEMENT_3D ( 'NONE', #95, #125, #152 ) ;
#32 = ORIENTED_EDGE ( 'NONE', *, *, #240, .T. ) ;
#33 = EDGE_CURVE ( 'NONE', #98, #210, #7, .T. ) ;
#34 = COLOUR_RGB ( '',0.5098039215686274200, 0.5098039215686274200, 0.5490196078431373000 ) ;
#35 = CARTESIAN_POINT ( 'NONE',  ( 0.0000000000000000000, 0.0000000000000000000, 0.2598425196850393500 ) ) ;
#36 = VECTOR ( 'NONE', #67, 39.37007874015748100 ) ;
#37 = CARTESIAN_POINT ( 'NONE',  ( 0.0000000000000000000, 0.0000000000000000000, 0.01968503936961325100 ) ) ;
#38 = DIRECTION ( 'NONE',  ( -0.0000000000000000000, -0.0000000000000000000, -1.000000000000000000 ) ) ;
#39 = CARTESIAN_POINT ( 'NONE',  ( 0.0000000000000000000, 0.0000000000000000000, 0.0000000000000000000 ) ) ;
#40 = DIRECTION ( 'NONE',  ( -1.000000000000000000, 0.0000000000000000000, 0.0000000000000000000 ) ) ;
#41 = APPLICATION_PROTOCOL_DEFINITION ( 'draft international standard', 'automotive_design', 1998, #266 ) ;
#42 = FILL_AREA_STYLE ('',( #272 ) ) ;
#43 = ORIENTED_EDGE ( 'NONE', *, *, #33, .F. ) ;
#44 = DIRECTION ( 'NONE',  ( 0.0000000000000000000, 0.0000000000000000000, 1.000000000000000000 ) ) ;
#45 = ADVANCED_FACE ( 'NONE', ( #155 ), #217, .T. ) ;
#46 = VECTOR ( 'NONE', #218, 39.37007874015748100 ) ;
#47 = CARTESIAN_POINT ( 'NONE',  ( 0.2855098372204724600, 3.566078633870019500E-017, 0.5000000000000000000 ) ) ;
#48 = DIMENSIONAL_EXPONENTS ( 1.000000000000000000, 0.0000000000000000000, 0.0000000000000000000, 0.0000000000000000000, 0.0000000000000000000, 0.0000000000000000000, 0.0000000000000000000 ) ;
#49 = MECHANICAL_DESIGN_GEOMETRIC_PRESENTATION_REPRESENTATION (  '', ( #208 ), #222 ) ;
#50 = CONICAL_SURFACE ( 'NONE', #9, 0.2968750000000000000, 0.5235987756060790400 ) ;
#51 = EDGE_LOOP ( 'NONE', ( #283, #138, #259, #256 ) ) ;
#52 = PRESENTATION_STYLE_ASSIGNMENT (( #19 ) ) ;
#53 = FACE_OUTER_BOUND ( 'NONE', #56, .T. ) ;
#54 = DIRECTION ( 'NONE',  ( 1.000000000000000000, 0.0000000000000000000, 0.0000000000000000000 ) ) ;
#55 = DIRECTION ( 'NONE',  ( -0.0000000000000000000, -0.0000000000000000000, -1.000000000000000000 ) ) ;
#56 = EDGE_LOOP ( 'NONE', ( #70, #106 ) ) ;
#57 = EDGE_LOOP ( 'NONE', ( #74, #252 ) ) ;
#58 = CARTESIAN_POINT ( 'NONE',  ( 0.0000000000000000000, 0.0000000000000000000, 0.01968503936961325100 ) ) ;
#59 = DIRECTION ( 'NONE',  ( 0.0000000000000000000, 0.0000000000000000000, 1.000000000000000000 ) ) ;
#60 = ORIENTED_EDGE ( 'NONE', *, *, #205, .F. ) ;
#61 = EDGE_CURVE ( 'NONE', #26, #210, #228, .T. ) ;
#62 = CARTESIAN_POINT ( 'NONE',  ( 0.0000000000000000000, 0.0000000000000000000, 0.2598425196850393500 ) ) ;
#63 =( NAMED_UNIT ( * ) PLANE_ANGLE_UNIT ( ) SI_UNIT ( $, .RADIAN. ) );
#64 = CARTESIAN_POINT ( 'NONE',  ( 0.0000000000000000000, 0.0000000000000000000, 0.5000000000000000000 ) ) ;
#65 = ORIENTED_EDGE ( 'NONE', *, *, #101, .T. ) ;
#66 = CARTESIAN_POINT ( 'NONE',  ( 0.2968750000000000000, 3.635670184968705300E-017, 0.4803149606299212400 ) ) ;
#67 = DIRECTION ( 'NONE',  ( 0.5000000000067378300, 6.123233995819280900E-017, -0.8660254037805486000 ) ) ;
#68 = ADVANCED_FACE ( 'NONE', ( #127 ), #18, .T. ) ;
#69 = DIRECTION ( 'NONE',  ( 0.0000000000000000000, 0.0000000000000000000, -1.000000000000000000 ) ) ;
#70 = ORIENTED_EDGE ( 'NONE', *, *, #101, .F. ) ;
#71 = EDGE_LOOP ( 'NONE', ( #224, #153 ) ) ;
#72 = ORIENTED_EDGE ( 'NONE', *, *, #305, .T. ) ;
#73 = CIRCLE ( 'NONE', #158, 0.2500000000000000000 ) ;
#74 = ORIENTED_EDGE ( 'NONE', *, *, #305, .F. ) ;
#75 = AXIS2_PLACEMENT_3D ( 'NONE', #235, #288, #13 ) ;
#76 = DIRECTION ( 'NONE',  ( 0.0000000000000000000, -0.0000000000000000000, 1.000000000000000000 ) ) ;
#77 = ORIENTED_EDGE ( 'NONE', *, *, #27, .F. ) ;
#78 = DIRECTION ( 'NONE',  ( 0.0000000000000000000, -0.0000000000000000000, 1.000000000000000000 ) ) ;
#79 = DIRECTION ( 'NONE',  ( -1.000000000000000000, 0.0000000000000000000, 0.0000000000000000000 ) ) ;
#80 = MECHANICAL_DESIGN_GEOMETRIC_PRESENTATION_REPRESENTATION (  '', ( #193 ), #141 ) ;
#81 = CARTESIAN_POINT ( 'NONE',  ( -0.2968750000000000000, 0.0000000000000000000, 0.4803149606299212400 ) ) ;
#82 = CARTESIAN_POINT ( 'NONE',  ( -0.2968750000000000000, 0.0000000000000000000, 0.4803149606299212400 ) ) ;
#83 = LINE ( 'NONE', #165, #102 ) ;
#84 = ORIENTED_EDGE ( 'NONE', *, *, #257, .F. ) ;
#85 = APPLICATION_PROTOCOL_DEFINITION ( 'draft international standard', 'automotive_design', 1998, #166 ) ;
#86 =( NAMED_UNIT ( * ) SI_UNIT ( $, .STERADIAN. ) SOLID_ANGLE_UNIT ( ) );
#87 = FILL_AREA_STYLE ('',( #293 ) ) ;
#88 = AXIS2_PLACEMENT_3D ( 'NONE', #203, #247, #149 ) ;
#89 = CIRCLE ( 'NONE', #161, 0.2499999999999069100 ) ;
#90 = CIRCLE ( 'NONE', #285, 0.2968750000000000000 ) ;
#91 =( LENGTH_UNIT ( ) NAMED_UNIT ( * ) SI_UNIT ( $, .METRE. ) );
#92 = AXIS2_PLACEMENT_3D ( 'NONE', #39, #76, #79 ) ;
#93 = PRESENTATION_LAYER_ASSIGNMENT (  '', '', ( #193 ) ) ;
#94 = DIRECTION ( 'NONE',  ( -0.0000000000000000000, 0.0000000000000000000, -1.000000000000000000 ) ) ;
#95 = CARTESIAN_POINT ( 'NONE',  ( 0.0000000000000000000, 0.0000000000000000000, 0.0000000000000000000 ) ) ;
#96 = PLANE ( 'NONE',  #269 ) ;
#97 = LINE ( 'NONE', #113, #185 ) ;
#98 = VERTEX_POINT ( 'NONE', #47 ) ;
#99 = DIRECTION ( 'NONE',  ( -1.000000000000000000, 0.0000000000000000000, -0.0000000000000000000 ) ) ;
#100 = ADVANCED_FACE ( 'NONE', ( #220, #135 ), #177, .T. ) ;
#101 = EDGE_CURVE ( 'NONE', #26, #207, #313, .T. ) ;
#102 = VECTOR ( 'NONE', #309, 39.37007874015748100 ) ;
#103 = EDGE_LOOP ( 'NONE', ( #22, #12, #232, #84 ) ) ;
#104 = PRESENTATION_STYLE_ASSIGNMENT (( #245 ) ) ;
#105 = ORIENTED_EDGE ( 'NONE', *, *, #183, .T. ) ;
#106 = ORIENTED_EDGE ( 'NONE', *, *, #5, .F. ) ;
#107 = DIRECTION ( 'NONE',  ( 1.000000000000000000, 0.0000000000000000000, 0.0000000000000000000 ) ) ;
#108 = DIRECTION ( 'NONE',  ( -0.0000000000000000000, 0.0000000000000000000, -1.000000000000000000 ) ) ;
#109 = PRODUCT_DEFINITION_CONTEXT ( 'detailed design', #266, 'design' ) ;
#110 = CIRCLE ( 'NONE', #75, 0.2968750000000000000 ) ;
#111 = VERTEX_POINT ( 'NONE', #298 ) ;
#112 = CARTESIAN_POINT ( 'NONE',  ( -0.2500000000000000000, 3.061616997868383000E-017, 0.5000000000000000000 ) ) ;
#113 = CARTESIAN_POINT ( 'NONE',  ( -0.2613651627788077800, 0.0000000000000000000, 0.0000000000000000000 ) ) ;
#114 = CIRCLE ( 'NONE', #281, 0.2855098372204724600 ) ;
#115 = ORIENTED_EDGE ( 'NONE', *, *, #160, .T. ) ;
#116 = PRODUCT_RELATED_PRODUCT_CATEGORY ( 'part', '', ( #254 ) ) ;
#117 = DIRECTION ( 'NONE',  ( 0.0000000000000000000, 0.0000000000000000000, 1.000000000000000000 ) ) ;
#118 = CARTESIAN_POINT ( 'NONE',  ( 0.0000000000000000000, 0.0000000000000000000, 0.2401574803149606200 ) ) ;
#119 = CARTESIAN_POINT ( 'NONE',  ( 0.0000000000000000000, 0.0000000000000000000, 0.0000000000000000000 ) ) ;
#120 =( CONVERSION_BASED_UNIT ( 'INCH', #251 ) LENGTH_UNIT ( ) NAMED_UNIT ( #250 ) );
#121 = CARTESIAN_POINT ( 'NONE',  ( 0.0000000000000000000, 0.0000000000000000000, 0.0000000000000000000 ) ) ;
#122 = VECTOR ( 'NONE', #136, 39.37007874015748100 ) ;
#123 = DIRECTION ( 'NONE',  ( 0.0000000000000000000, 0.0000000000000000000, 1.000000000000000000 ) ) ;
#124 = DIRECTION ( 'NONE',  ( 1.000000000000000000, 0.0000000000000000000, -0.0000000000000000000 ) ) ;
#125 = DIRECTION ( 'NONE',  ( -0.0000000000000000000, 0.0000000000000000000, -1.000000000000000000 ) ) ;
#126 = EDGE_CURVE ( 'NONE', #230, #30, #278, .T. ) ;
#127 = FACE_OUTER_BOUND ( 'NONE', #262, .T. ) ;
#128 = ORIENTED_EDGE ( 'NONE', *, *, #279, .T. ) ;
#129 = ADVANCED_FACE ( 'NONE', ( #197, #53 ), #96, .T. ) ;
#130 = ADVANCED_FACE ( 'NONE', ( #186 ), #17, .F. ) ;
#131 = SHAPE_DEFINITION_REPRESENTATION ( #16, #8 ) ;
#132 = VERTEX_POINT ( 'NONE', #112 ) ;
#133 = CLOSED_SHELL ( 'NONE', ( #301, #45, #3, #320, #68, #174, #129, #100, #130, #297 ) ) ;
#134 = LENGTH_MEASURE_WITH_UNIT ( LENGTH_MEASURE( 0.02539999999999999900 ), #221 );
#135 = FACE_BOUND ( 'NONE', #264, .T. ) ;
#136 = DIRECTION ( 'NONE',  ( -0.5000000000067378300, 0.0000000000000000000, -0.8660254037805486000 ) ) ;
#137 = ORIENTED_EDGE ( 'NONE', *, *, #160, .F. ) ;
#138 = ORIENTED_EDGE ( 'NONE', *, *, #263, .T. ) ;
#139 = CARTESIAN_POINT ( 'NONE',  ( 0.2499999999999069100, 0.0000000000000000000, 0.01968503936961325100 ) ) ;
#140 = CARTESIAN_POINT ( 'NONE',  ( 0.2968750000000000000, 3.635670184968705300E-017, 0.4803149606299212400 ) ) ;
#141 =( GEOMETRIC_REPRESENTATION_CONTEXT ( 3 ) GLOBAL_UNCERTAINTY_ASSIGNED_CONTEXT ( ( #14 ) ) GLOBAL_UNIT_ASSIGNED_CONTEXT ( ( #173, #200, #244 ) ) REPRESENTATION_CONTEXT ( 'NONE', 'WORKASPACE' ) );
#142 = ORIENTED_EDGE ( 'NONE', *, *, #154, .F. ) ;
#143 = DIRECTION ( 'NONE',  ( -0.0000000000000000000, 0.0000000000000000000, -1.000000000000000000 ) ) ;
#144 = DIRECTION ( 'NONE',  ( 0.0000000000000000000, 0.0000000000000000000, 1.000000000000000000 ) ) ;
#145 = VERTEX_POINT ( 'NONE', #81 ) ;
#146 = AXIS2_PLACEMENT_3D ( 'NONE', #58, #236, #310 ) ;
#147 = DIRECTION ( 'NONE',  ( 1.000000000000000000, 0.0000000000000000000, 0.0000000000000000000 ) ) ;
#148 = DIRECTION ( 'NONE',  ( -1.000000000000000000, 0.0000000000000000000, 0.0000000000000000000 ) ) ;
#149 = DIRECTION ( 'NONE',  ( -1.000000000000000000, 0.0000000000000000000, 0.0000000000000000000 ) ) ;
#150 = CARTESIAN_POINT ( 'NONE',  ( 0.2791200813897638000, 0.0000000000000000000, 0.0000000000000000000 ) ) ;
#151 = VECTOR ( 'NONE', #216, 39.37007874015748100 ) ;
#152 = DIRECTION ( 'NONE',  ( -1.000000000000000000, 0.0000000000000000000, 0.0000000000000000000 ) ) ;
#153 = ORIENTED_EDGE ( 'NONE', *, *, #154, .T. ) ;
#154 = EDGE_CURVE ( 'NONE', #176, #267, #243, .T. ) ;
#155 = FACE_OUTER_BOUND ( 'NONE', #299, .T. ) ;
#156 = EDGE_LOOP ( 'NONE', ( #60, #294, #105, #142 ) ) ;
#157 = FACE_OUTER_BOUND ( 'NONE', #237, .T. ) ;
#158 = AXIS2_PLACEMENT_3D ( 'NONE', #64, #270, #316 ) ;
#159 = ORIENTED_EDGE ( 'NONE', *, *, #194, .F. ) ;
#160 = EDGE_CURVE ( 'NONE', #317, #145, #28, .T. ) ;
#161 = AXIS2_PLACEMENT_3D ( 'NONE', #37, #38, #54 ) ;
#162 = DIRECTION ( 'NONE',  ( 0.0000000000000000000, 0.0000000000000000000, 1.000000000000000000 ) ) ;
#163 = DIRECTION ( 'NONE',  ( -1.000000000000000000, 0.0000000000000000000, 0.0000000000000000000 ) ) ;
#164 = AXIS2_PLACEMENT_3D ( 'NONE', #179, #44, #204 ) ;
#165 = CARTESIAN_POINT ( 'NONE',  ( -0.2500000000000000000, 3.061616997868383000E-017, 0.2598425196850393500 ) ) ;
#166 = APPLICATION_CONTEXT ( 'automotive_design' ) ;
#167 = DIRECTION ( 'NONE',  ( 1.000000000000000000, 0.0000000000000000000, 0.0000000000000000000 ) ) ;
#168 = EDGE_CURVE ( 'NONE', #145, #210, #110, .T. ) ;
#169 =( GEOMETRIC_REPRESENTATION_CONTEXT ( 3 ) GLOBAL_UNCERTAINTY_ASSIGNED_CONTEXT ( ( #239 ) ) GLOBAL_UNIT_ASSIGNED_CONTEXT ( ( #198, #225, #86 ) ) REPRESENTATION_CONTEXT ( 'NONE', 'WORKASPACE' ) );
#170 = LINE ( 'NONE', #291, #151 ) ;
#171 = VECTOR ( 'NONE', #300, 39.37007874015748100 ) ;
#172 = PRODUCT_CONTEXT ( 'NONE', #166, 'mechanical' ) ;
#173 =( CONVERSION_BASED_UNIT ( 'INCH', #134 ) LENGTH_UNIT ( ) NAMED_UNIT ( #178 ) );
#174 = ADVANCED_FACE ( 'NONE', ( #157 ), #50, .T. ) ;
#175 = COLOUR_RGB ( '',0.5098039215686274200, 0.5098039215686274200, 0.5490196078431373000 ) ;
#176 = VERTEX_POINT ( 'NONE', #188 ) ;
#177 = PLANE ( 'NONE',  #187 ) ;
#178 = DIMENSIONAL_EXPONENTS ( 1.000000000000000000, 0.0000000000000000000, 0.0000000000000000000, 0.0000000000000000000, 0.0000000000000000000, 0.0000000000000000000, 0.0000000000000000000 ) ;
#179 = CARTESIAN_POINT ( 'NONE',  ( 0.0000000000000000000, 0.0000000000000000000, 0.0000000000000000000 ) ) ;
#180 = AXIS2_PLACEMENT_3D ( 'NONE', #62, #117, #167 ) ;
#181 = CIRCLE ( 'NONE', #146, 0.2499999999999069100 ) ;
#182 = CIRCLE ( 'NONE', #211, 0.2968750000000000000 ) ;
#183 = EDGE_CURVE ( 'NONE', #111, #267, #97, .T. ) ;
#184 = AXIS2_PLACEMENT_3D ( 'NONE', #15, #55, #107 ) ;
#185 = VECTOR ( 'NONE', #191, 39.37007874015748100 ) ;
#186 = FACE_OUTER_BOUND ( 'NONE', #156, .T. ) ;
#187 = AXIS2_PLACEMENT_3D ( 'NONE', #321, #206, #124 ) ;
#188 = CARTESIAN_POINT ( 'NONE',  ( 0.2613651627788077800, 3.200800100056939000E-017, 0.0000000000000000000 ) ) ;
#189 = CARTESIAN_POINT ( 'NONE',  ( 0.0000000000000000000, 0.0000000000000000000, 0.4803149606299212400 ) ) ;
#190 = ORIENTED_EDGE ( 'NONE', *, *, #240, .F. ) ;
#191 = DIRECTION ( 'NONE',  ( -0.4999999999949279500, 0.0000000000000000000, -0.8660254037873670300 ) ) ;
#192 = CARTESIAN_POINT ( 'NONE',  ( 0.0000000000000000000, 0.0000000000000000000, 0.0000000000000000000 ) ) ;
#193 = STYLED_ITEM ( 'NONE', ( #52 ), #322 ) ;
#194 = EDGE_CURVE ( 'NONE', #230, #111, #89, .T. ) ;
#195 =( NAMED_UNIT ( * ) SI_UNIT ( $, .STERADIAN. ) SOLID_ANGLE_UNIT ( ) );
#196 = LINE ( 'NONE', #308, #46 ) ;
#197 = FACE_BOUND ( 'NONE', #71, .T. ) ;
#198 =( CONVERSION_BASED_UNIT ( 'INCH', #290 ) LENGTH_UNIT ( ) NAMED_UNIT ( #48 ) );
#199 = SURFACE_SIDE_STYLE ('',( #311 ) ) ;
#200 =( NAMED_UNIT ( * ) PLANE_ANGLE_UNIT ( ) SI_UNIT ( $, .RADIAN. ) );
#201 = CARTESIAN_POINT ( 'NONE',  ( 0.2968750000000000000, 0.0000000000000000000, 0.0000000000000000000 ) ) ;
#202 = EDGE_LOOP ( 'NONE', ( #65, #32, #286, #231 ) ) ;
#203 = CARTESIAN_POINT ( 'NONE',  ( 0.0000000000000000000, 0.0000000000000000000, 0.4803149606299212400 ) ) ;
#204 = DIRECTION ( 'NONE',  ( 1.000000000000000000, 0.0000000000000000000, 0.0000000000000000000 ) ) ;
#205 = EDGE_CURVE ( 'NONE', #230, #176, #170, .T. ) ;
#206 = DIRECTION ( 'NONE',  ( 0.0000000000000000000, 0.0000000000000000000, 1.000000000000000000 ) ) ;
#207 = VERTEX_POINT ( 'NONE', #233 ) ;
#208 = STYLED_ITEM ( 'NONE', ( #104 ), #8 ) ;
#209 = ORIENTED_EDGE ( 'NONE', *, *, #168, .F. ) ;
#210 = VERTEX_POINT ( 'NONE', #140 ) ;
#211 = AXIS2_PLACEMENT_3D ( 'NONE', #6, #227, #323 ) ;
#212 = CIRCLE ( 'NONE', #306, 0.2855098372204724600 ) ;
#213 = VECTOR ( 'NONE', #123, 39.37007874015748100 ) ;
#214 = PRODUCT_DEFINITION ( 'UNKNOWN', '', #241, #109 ) ;
#215 = AXIS2_PLACEMENT_3D ( 'NONE', #319, #275, #249 ) ;
#216 = DIRECTION ( 'NONE',  ( 0.4999999999949279500, 6.123233995674651900E-017, -0.8660254037873670300 ) ) ;
#217 = CONICAL_SURFACE ( 'NONE', #88, 0.2968750000000000000, 0.5235987756060790400 ) ;
#218 = DIRECTION ( 'NONE',  ( 0.0000000000000000000, 0.0000000000000000000, 1.000000000000000000 ) ) ;
#219 = CARTESIAN_POINT ( 'NONE',  ( -0.2613651627788077800, 0.0000000000000000000, 0.0000000000000000000 ) ) ;
#220 = FACE_OUTER_BOUND ( 'NONE', #57, .T. ) ;
#221 =( LENGTH_UNIT ( ) NAMED_UNIT ( * ) SI_UNIT ( $, .METRE. ) );
#222 =( GEOMETRIC_REPRESENTATION_CONTEXT ( 3 ) GLOBAL_UNCERTAINTY_ASSIGNED_CONTEXT ( ( #312 ) ) GLOBAL_UNIT_ASSIGNED_CONTEXT ( ( #120, #63, #195 ) ) REPRESENTATION_CONTEXT ( 'NONE', 'WORKASPACE' ) );
#223 = FACE_OUTER_BOUND ( 'NONE', #51, .T. ) ;
#224 = ORIENTED_EDGE ( 'NONE', *, *, #229, .T. ) ;
#225 =( NAMED_UNIT ( * ) PLANE_ANGLE_UNIT ( ) SI_UNIT ( $, .RADIAN. ) );
#226 = DIRECTION ( 'NONE',  ( 1.000000000000000000, 0.0000000000000000000, 0.0000000000000000000 ) ) ;
#227 = DIRECTION ( 'NONE',  ( -0.0000000000000000000, -0.0000000000000000000, -1.000000000000000000 ) ) ;
#228 = LINE ( 'NONE', #276, #171 ) ;
#229 = EDGE_CURVE ( 'NONE', #267, #176, #284, .T. ) ;
#230 = VERTEX_POINT ( 'NONE', #139 ) ;
#231 = ORIENTED_EDGE ( 'NONE', *, *, #61, .F. ) ;
#232 = ORIENTED_EDGE ( 'NONE', *, *, #126, .T. ) ;
#233 = CARTESIAN_POINT ( 'NONE',  ( -0.2968750000000000000, 3.635670184968705300E-017, 0.0000000000000000000 ) ) ;
#234 = DIRECTION ( 'NONE',  ( -0.0000000000000000000, 0.0000000000000000000, -1.000000000000000000 ) ) ;
#235 = CARTESIAN_POINT ( 'NONE',  ( 0.0000000000000000000, 0.0000000000000000000, 0.4803149606299212400 ) ) ;
#236 = DIRECTION ( 'NONE',  ( -0.0000000000000000000, -0.0000000000000000000, -1.000000000000000000 ) ) ;
#237 = EDGE_LOOP ( 'NONE', ( #43, #303, #115, #77 ) ) ;
#238 = DIRECTION ( 'NONE',  ( 1.000000000000000000, 0.0000000000000000000, 0.0000000000000000000 ) ) ;
#239 = UNCERTAINTY_MEASURE_WITH_UNIT (LENGTH_MEASURE( 1.000000000000000100E-005 ), #198, 'distance_accuracy_value', 'NONE');
#240 = EDGE_CURVE ( 'NONE', #207, #145, #196, .T. ) ;
#241 = PRODUCT_DEFINITION_FORMATION_WITH_SPECIFIED_SOURCE ( 'ANY', '', #254, .NOT_KNOWN. ) ;
#242 = FACE_OUTER_BOUND ( 'NONE', #202, .T. ) ;
#243 = CIRCLE ( 'NONE', #92, 0.2613651627788077800 ) ;
#244 =( NAMED_UNIT ( * ) SI_UNIT ( $, .STERADIAN. ) SOLID_ANGLE_UNIT ( ) );
#245 = SURFACE_STYLE_USAGE ( .BOTH. , #199 ) ;
#246 = SURFACE_SIDE_STYLE ('',( #282 ) ) ;
#247 = DIRECTION ( 'NONE',  ( -0.0000000000000000000, 0.0000000000000000000, -1.000000000000000000 ) ) ;
#248 = EDGE_CURVE ( 'NONE', #111, #230, #181, .T. ) ;
#249 = DIRECTION ( 'NONE',  ( 1.000000000000000000, 0.0000000000000000000, 0.0000000000000000000 ) ) ;
#250 = DIMENSIONAL_EXPONENTS ( 1.000000000000000000, 0.0000000000000000000, 0.0000000000000000000, 0.0000000000000000000, 0.0000000000000000000, 0.0000000000000000000, 0.0000000000000000000 ) ;
#251 = LENGTH_MEASURE_WITH_UNIT ( LENGTH_MEASURE( 0.02539999999999999900 ), #91 );
#252 = ORIENTED_EDGE ( 'NONE', *, *, #265, .F. ) ;
#253 = AXIS2_PLACEMENT_3D ( 'NONE', #121, #94, #148 ) ;
#254 = PRODUCT ( 'A-TSI-0809-08', 'A-TSI-0809-08', '', ( #172 ) ) ;
#255 = CONICAL_SURFACE ( 'NONE', #253, 0.2613651627788077800, 0.5235987755924421700 ) ;
#256 = ORIENTED_EDGE ( 'NONE', *, *, #126, .F. ) ;
#257 = EDGE_CURVE ( 'NONE', #132, #30, #277, .T. ) ;
#258 = CYLINDRICAL_SURFACE ( 'NONE', #29, 0.2968750000000000000 ) ;
#259 = ORIENTED_EDGE ( 'NONE', *, *, #279, .F. ) ;
#260 = EDGE_LOOP ( 'NONE', ( #159, #280, #1, #318 ) ) ;
#261 = DIRECTION ( 'NONE',  ( -1.000000000000000000, 0.0000000000000000000, 0.0000000000000000000 ) ) ;
#262 = EDGE_LOOP ( 'NONE', ( #190, #271, #315, #11 ) ) ;
#263 = EDGE_CURVE ( 'NONE', #111, #132, #83, .T. ) ;
#264 = EDGE_LOOP ( 'NONE', ( #128, #4 ) ) ;
#265 = EDGE_CURVE ( 'NONE', #98, #317, #212, .T. ) ;
#266 = APPLICATION_CONTEXT ( 'automotive_design' ) ;
#267 = VERTEX_POINT ( 'NONE', #219 ) ;
#268 =( LENGTH_UNIT ( ) NAMED_UNIT ( * ) SI_UNIT ( $, .METRE. ) );
#269 = AXIS2_PLACEMENT_3D ( 'NONE', #150, #69, #99 ) ;
#270 = DIRECTION ( 'NONE',  ( -0.0000000000000000000, -0.0000000000000000000, -1.000000000000000000 ) ) ;
#271 = ORIENTED_EDGE ( 'NONE', *, *, #5, .T. ) ;
#272 = FILL_AREA_STYLE_COLOUR ( '', #175 ) ;
#273 = ORIENTED_EDGE ( 'NONE', *, *, #33, .T. ) ;
#274 = CARTESIAN_POINT ( 'NONE',  ( 0.2500000000000000000, 0.0000000000000000000, 0.2598425196850393500 ) ) ;
#275 = DIRECTION ( 'NONE',  ( 0.0000000000000000000, 0.0000000000000000000, 1.000000000000000000 ) ) ;
#276 = CARTESIAN_POINT ( 'NONE',  ( 0.2968750000000000000, 0.0000000000000000000, 0.2401574803149606200 ) ) ;
#277 = CIRCLE ( 'NONE', #184, 0.2500000000000000000 ) ;
#278 = LINE ( 'NONE', #274, #213 ) ;
#279 = EDGE_CURVE ( 'NONE', #30, #132, #73, .T. ) ;
#280 = ORIENTED_EDGE ( 'NONE', *, *, #205, .T. ) ;
#281 = AXIS2_PLACEMENT_3D ( 'NONE', #21, #143, #296 ) ;
#282 = SURFACE_STYLE_FILL_AREA ( #87 ) ;
#283 = ORIENTED_EDGE ( 'NONE', *, *, #194, .T. ) ;
#284 = CIRCLE ( 'NONE', #292, 0.2613651627788077800 ) ;
#285 = AXIS2_PLACEMENT_3D ( 'NONE', #119, #144, #226 ) ;
#286 = ORIENTED_EDGE ( 'NONE', *, *, #168, .T. ) ;
#287 = FACE_OUTER_BOUND ( 'NONE', #260, .T. ) ;
#288 = DIRECTION ( 'NONE',  ( -0.0000000000000000000, -0.0000000000000000000, -1.000000000000000000 ) ) ;
#289 = CARTESIAN_POINT ( 'NONE',  ( 0.0000000000000000000, 0.0000000000000000000, 0.0000000000000000000 ) ) ;
#290 = LENGTH_MEASURE_WITH_UNIT ( LENGTH_MEASURE( 0.02539999999999999900 ), #268 );
#291 = CARTESIAN_POINT ( 'NONE',  ( 0.2613651627788077800, 3.200800100056939000E-017, 0.0000000000000000000 ) ) ;
#292 = AXIS2_PLACEMENT_3D ( 'NONE', #289, #78, #261 ) ;
#293 = FILL_AREA_STYLE_COLOUR ( '', #34 ) ;
#294 = ORIENTED_EDGE ( 'NONE', *, *, #248, .F. ) ;
#295 = DIRECTION ( 'NONE',  ( 1.000000000000000000, 0.0000000000000000000, 0.0000000000000000000 ) ) ;
#296 = DIRECTION ( 'NONE',  ( -1.000000000000000000, 0.0000000000000000000, 0.0000000000000000000 ) ) ;
#297 = ADVANCED_FACE ( 'NONE', ( #302 ), #307, .F. ) ;
#298 = CARTESIAN_POINT ( 'NONE',  ( -0.2499999999999069100, 3.061616997867812900E-017, 0.01968503936961325100 ) ) ;
#299 = EDGE_LOOP ( 'NONE', ( #72, #273, #209, #137 ) ) ;
#300 = DIRECTION ( 'NONE',  ( 0.0000000000000000000, 0.0000000000000000000, 1.000000000000000000 ) ) ;
#301 = ADVANCED_FACE ( 'NONE', ( #242 ), #258, .T. ) ;
#302 = FACE_OUTER_BOUND ( 'NONE', #103, .T. ) ;
#303 = ORIENTED_EDGE ( 'NONE', *, *, #265, .T. ) ;
#304 = AXIS2_PLACEMENT_3D ( 'NONE', #192, #59, #238 ) ;
#305 = EDGE_CURVE ( 'NONE', #317, #98, #114, .T. ) ;
#306 = AXIS2_PLACEMENT_3D ( 'NONE', #10, #234, #40 ) ;
#307 = CYLINDRICAL_SURFACE ( 'NONE', #20, 0.2500000000000000000 ) ;
#308 = CARTESIAN_POINT ( 'NONE',  ( -0.2968750000000000000, 3.635670184968705300E-017, 0.2401574803149606200 ) ) ;
#309 = DIRECTION ( 'NONE',  ( 0.0000000000000000000, 0.0000000000000000000, 1.000000000000000000 ) ) ;
#310 = DIRECTION ( 'NONE',  ( 1.000000000000000000, 0.0000000000000000000, 0.0000000000000000000 ) ) ;
#311 = SURFACE_STYLE_FILL_AREA ( #42 ) ;
#312 = UNCERTAINTY_MEASURE_WITH_UNIT (LENGTH_MEASURE( 1.000000000000000100E-005 ), #120, 'distance_accuracy_value', 'NONE');
#313 = CIRCLE ( 'NONE', #164, 0.2968750000000000000 ) ;
#314 = DIRECTION ( 'NONE',  ( 0.0000000000000000000, 0.0000000000000000000, 1.000000000000000000 ) ) ;
#315 = ORIENTED_EDGE ( 'NONE', *, *, #61, .T. ) ;
#316 = DIRECTION ( 'NONE',  ( 1.000000000000000000, 0.0000000000000000000, 0.0000000000000000000 ) ) ;
#317 = VERTEX_POINT ( 'NONE', #23 ) ;
#318 = ORIENTED_EDGE ( 'NONE', *, *, #183, .F. ) ;
#319 = CARTESIAN_POINT ( 'NONE',  ( 0.0000000000000000000, 0.0000000000000000000, 0.2401574803149606200 ) ) ;
#320 = ADVANCED_FACE ( 'NONE', ( #223 ), #25, .F. ) ;
#321 = CARTESIAN_POINT ( 'NONE',  ( 0.2677549186102362600, 0.0000000000000000000, 0.5000000000000000000 ) ) ;
#322 = MANIFOLD_SOLID_BREP ( '2017_10_02__20-02-50-484', #133 ) ;
#323 = DIRECTION ( 'NONE',  ( 1.000000000000000000, 0.0000000000000000000, 0.0000000000000000000 ) ) ;
ENDSEC;
END-ISO-10303-21;
