ISO-10303-21;
HEADER;
FILE_DESCRIPTION (( 'STEP AP214' ),
    '1' );
FILE_NAME ('A-TSI-1214-12.step',
    '2017-11-29T20:26:20',
    ( '' ),
    ( '' ),
    'SwSTEP 2.0',
    'SolidWorks 2017',
    '' );
FILE_SCHEMA (( 'AUTOMOTIVE_DESIGN' ));
ENDSEC;

DATA;
#1 = SURFACE_SIDE_STYLE ('',( #226 ) ) ;
#2 = PRESENTATION_STYLE_ASSIGNMENT (( #244 ) ) ;
#3 = AXIS2_PLACEMENT_3D ( 'NONE', #62, #49, #64 ) ;
#4 = EDGE_LOOP ( 'NONE', ( #250, #283, #105, #277 ) ) ;
#5 = VERTEX_POINT ( 'NONE', #14 ) ;
#6 = LINE ( 'NONE', #269, #265 ) ;
#7 = ORIENTED_EDGE ( 'NONE', *, *, #19, .T. ) ;
#8 = AXIS2_PLACEMENT_3D ( 'NONE', #60, #167, #193 ) ;
#9 = CARTESIAN_POINT ( 'NONE',  ( 0.0000000000000000000, 0.0000000000000000000, 0.3848425196850394100 ) ) ;
#10 = FACE_OUTER_BOUND ( 'NONE', #180, .T. ) ;
#11 = ORIENTED_EDGE ( 'NONE', *, *, #106, .T. ) ;
#12 = DIRECTION ( 'NONE',  ( 1.000000000000000000, 0.0000000000000000000, 0.0000000000000000000 ) ) ;
#13 = ORIENTED_EDGE ( 'NONE', *, *, #201, .T. ) ;
#14 = CARTESIAN_POINT ( 'NONE',  ( 0.4375000000000000600, 5.357829746269670700E-017, 0.7185039370078739600 ) ) ;
#15 = FACE_OUTER_BOUND ( 'NONE', #323, .T. ) ;
#16 = AXIS2_PLACEMENT_3D ( 'NONE', #91, #264, #268 ) ;
#17 = VERTEX_POINT ( 'NONE', #209 ) ;
#18 = DIRECTION ( 'NONE',  ( 0.0000000000000000000, 0.0000000000000000000, 1.000000000000000000 ) ) ;
#19 = EDGE_CURVE ( 'NONE', #175, #5, #78, .T. ) ;
#20 = CONICAL_SURFACE ( 'NONE', #16, 0.4375000000000000600, 0.5235987756435795900 ) ;
#21 = DIRECTION ( 'NONE',  ( -1.000000000000000000, 0.0000000000000000000, -0.0000000000000000000 ) ) ;
#22 = PRESENTATION_LAYER_ASSIGNMENT (  '', '', ( #297 ) ) ;
#23 = DIRECTION ( 'NONE',  ( 0.0000000000000000000, 0.0000000000000000000, 1.000000000000000000 ) ) ;
#24 =( LENGTH_UNIT ( ) NAMED_UNIT ( * ) SI_UNIT ( $, .METRE. ) );
#25 = CARTESIAN_POINT ( 'NONE',  ( -0.3750000000000000600, 4.592425496802575500E-017, 0.7500000000000001100 ) ) ;
#26 = SURFACE_SIDE_STYLE ('',( #200 ) ) ;
#27 = ORIENTED_EDGE ( 'NONE', *, *, #102, .T. ) ;
#28 = CARTESIAN_POINT ( 'NONE',  ( 0.0000000000000000000, 0.0000000000000000000, 0.0000000000000000000 ) ) ;
#29 = AXIS2_PLACEMENT_3D ( 'NONE', #290, #190, #240 ) ;
#30 = COLOUR_RGB ( '',0.5098039215686274200, 0.5098039215686274200, 0.5490196078431373000 ) ;
#31 = ORIENTED_EDGE ( 'NONE', *, *, #295, .T. ) ;
#32 = ORIENTED_EDGE ( 'NONE', *, *, #189, .T. ) ;
#33 = ORIENTED_EDGE ( 'NONE', *, *, #295, .F. ) ;
#34 =( GEOMETRIC_REPRESENTATION_CONTEXT ( 3 ) GLOBAL_UNCERTAINTY_ASSIGNED_CONTEXT ( ( #128 ) ) GLOBAL_UNIT_ASSIGNED_CONTEXT ( ( #176, #75, #258 ) ) REPRESENTATION_CONTEXT ( 'NONE', 'WORKASPACE' ) );
#35 = CIRCLE ( 'NONE', #202, 0.4193157395511811200 ) ;
#36 = FACE_OUTER_BOUND ( 'NONE', #162, .T. ) ;
#37 = EDGE_CURVE ( 'NONE', #284, #59, #178, .T. ) ;
#38 = AXIS2_PLACEMENT_3D ( 'NONE', #87, #272, #169 ) ;
#39 = ORIENTED_EDGE ( 'NONE', *, *, #206, .T. ) ;
#40 = EDGE_LOOP ( 'NONE', ( #230, #32, #225, #301 ) ) ;
#41 = CARTESIAN_POINT ( 'NONE',  ( -0.3863651627795275900, 0.0000000000000000000, 0.0000000000000000000 ) ) ;
#42 = DIRECTION ( 'NONE',  ( 1.000000000000000000, 0.0000000000000000000, 0.0000000000000000000 ) ) ;
#43 = STYLED_ITEM ( 'NONE', ( #242 ), #151 ) ;
#44 =( NAMED_UNIT ( * ) PLANE_ANGLE_UNIT ( ) SI_UNIT ( $, .RADIAN. ) );
#45 = DIRECTION ( 'NONE',  ( 1.000000000000000000, 0.0000000000000000000, -5.691349986800549600E-017 ) ) ;
#46 = CARTESIAN_POINT ( 'NONE',  ( 0.4375000000000000600, 0.0000000000000000000, 0.0000000000000000000 ) ) ;
#47 = CARTESIAN_POINT ( 'NONE',  ( 0.0000000000000000000, 0.0000000000000000000, 0.7500000000000001100 ) ) ;
#48 = FILL_AREA_STYLE_COLOUR ( '', #263 ) ;
#49 = DIRECTION ( 'NONE',  ( -0.0000000000000000000, -0.0000000000000000000, -1.000000000000000000 ) ) ;
#50 = VERTEX_POINT ( 'NONE', #208 ) ;
#51 = CONICAL_SURFACE ( 'NONE', #117, 0.4375000000000000600, 0.5235987756435795900 ) ;
#52 = ADVANCED_FACE ( 'NONE', ( #192 ), #86, .F. ) ;
#53 = ADVANCED_FACE ( 'NONE', ( #156 ), #51, .T. ) ;
#54 = AXIS2_PLACEMENT_3D ( 'NONE', #224, #121, #281 ) ;
#55 = CIRCLE ( 'NONE', #147, 0.3863651627795275900 ) ;
#56 = EDGE_LOOP ( 'NONE', ( #130, #11 ) ) ;
#57 = LENGTH_MEASURE_WITH_UNIT ( LENGTH_MEASURE( 0.02539999999999999900 ), #24 );
#58 = CONICAL_SURFACE ( 'NONE', #8, 0.3863651627795275900, 0.5235987756060794800 ) ;
#59 = VERTEX_POINT ( 'NONE', #243 ) ;
#60 = CARTESIAN_POINT ( 'NONE',  ( 0.0000000000000000000, 0.0000000000000000000, -8.537024980200822600E-018 ) ) ;
#61 = EDGE_LOOP ( 'NONE', ( #98, #219, #13, #146 ) ) ;
#62 = CARTESIAN_POINT ( 'NONE',  ( 0.0000000000000000000, 0.0000000000000000000, 0.01968503937007875700 ) ) ;
#63 = CARTESIAN_POINT ( 'NONE',  ( 0.0000000000000000000, 0.0000000000000000000, 0.7185039370078739600 ) ) ;
#64 = DIRECTION ( 'NONE',  ( 1.000000000000000000, 0.0000000000000000000, -5.691349986800549600E-017 ) ) ;
#65 = CARTESIAN_POINT ( 'NONE',  ( 0.0000000000000000000, 0.0000000000000000000, 0.3848425196850394100 ) ) ;
#66 = CYLINDRICAL_SURFACE ( 'NONE', #285, 0.4375000000000000600 ) ;
#67 = ORIENTED_EDGE ( 'NONE', *, *, #19, .F. ) ;
#68 = ORIENTED_EDGE ( 'NONE', *, *, #201, .F. ) ;
#69 = CYLINDRICAL_SURFACE ( 'NONE', #306, 0.4375000000000000600 ) ;
#70 = PRODUCT_DEFINITION_SHAPE ( 'NONE', 'NONE',  #256 ) ;
#71 = ADVANCED_FACE ( 'NONE', ( #158, #217 ), #116, .T. ) ;
#72 = EDGE_CURVE ( 'NONE', #185, #287, #288, .T. ) ;
#73 = SURFACE_STYLE_USAGE ( .BOTH. , #1 ) ;
#74 = EDGE_LOOP ( 'NONE', ( #267, #233 ) ) ;
#75 =( NAMED_UNIT ( * ) PLANE_ANGLE_UNIT ( ) SI_UNIT ( $, .RADIAN. ) );
#76 = AXIS2_PLACEMENT_3D ( 'NONE', #293, #88, #140 ) ;
#77 =( CONVERSION_BASED_UNIT ( 'INCH', #57 ) LENGTH_UNIT ( ) NAMED_UNIT ( #198 ) );
#78 = LINE ( 'NONE', #85, #124 ) ;
#79 = CIRCLE ( 'NONE', #289, 0.3750000000000000600 ) ;
#80 = AXIS2_PLACEMENT_3D ( 'NONE', #252, #159, #113 ) ;
#81 = ORIENTED_EDGE ( 'NONE', *, *, #115, .F. ) ;
#82 = DIMENSIONAL_EXPONENTS ( 1.000000000000000000, 0.0000000000000000000, 0.0000000000000000000, 0.0000000000000000000, 0.0000000000000000000, 0.0000000000000000000, 0.0000000000000000000 ) ;
#83 = VECTOR ( 'NONE', #141, 39.37007874015748100 ) ;
#84 = EDGE_CURVE ( 'NONE', #5, #59, #254, .T. ) ;
#85 = CARTESIAN_POINT ( 'NONE',  ( 0.4375000000000000600, 5.357829746269670700E-017, 0.7185039370078739600 ) ) ;
#86 = CYLINDRICAL_SURFACE ( 'NONE', #127, 0.3750000000000000600 ) ;
#87 = CARTESIAN_POINT ( 'NONE',  ( 0.0000000000000000000, 0.0000000000000000000, 0.7500000000000001100 ) ) ;
#88 = DIRECTION ( 'NONE',  ( -0.0000000000000000000, -0.0000000000000000000, -1.000000000000000000 ) ) ;
#89 = LENGTH_MEASURE_WITH_UNIT ( LENGTH_MEASURE( 0.02539999999999999900 ), #228 );
#90 = LINE ( 'NONE', #174, #83 ) ;
#91 = CARTESIAN_POINT ( 'NONE',  ( 0.0000000000000000000, 0.0000000000000000000, 0.7185039370078739600 ) ) ;
#92 = DIRECTION ( 'NONE',  ( -1.000000000000000000, 0.0000000000000000000, 0.0000000000000000000 ) ) ;
#93 = DIRECTION ( 'NONE',  ( 0.0000000000000000000, 0.0000000000000000000, 1.000000000000000000 ) ) ;
#94 = CARTESIAN_POINT ( 'NONE',  ( 0.0000000000000000000, 0.0000000000000000000, 0.7500000000000001100 ) ) ;
#95 = ORIENTED_EDGE ( 'NONE', *, *, #206, .F. ) ;
#96 = PLANE ( 'NONE',  #172 ) ;
#97 = DIRECTION ( 'NONE',  ( 0.0000000000000000000, 0.0000000000000000000, -1.000000000000000000 ) ) ;
#98 = ORIENTED_EDGE ( 'NONE', *, *, #237, .F. ) ;
#99 = DIRECTION ( 'NONE',  ( -1.000000000000000000, 0.0000000000000000000, 0.0000000000000000000 ) ) ;
#100 = FACE_OUTER_BOUND ( 'NONE', #74, .T. ) ;
#101 = ADVANCED_FACE ( 'NONE', ( #36 ), #145, .F. ) ;
#102 = EDGE_CURVE ( 'NONE', #314, #203, #122, .T. ) ;
#103 = APPLICATION_PROTOCOL_DEFINITION ( 'draft international standard', 'automotive_design', 1998, #253 ) ;
#104 = ADVANCED_FACE ( 'NONE', ( #149 ), #20, .T. ) ;
#105 = ORIENTED_EDGE ( 'NONE', *, *, #123, .T. ) ;
#106 = EDGE_CURVE ( 'NONE', #50, #142, #166, .T. ) ;
#107 = CIRCLE ( 'NONE', #229, 0.3749999999999999400 ) ;
#108 = VECTOR ( 'NONE', #168, 39.37007874015748100 ) ;
#109 = ORIENTED_EDGE ( 'NONE', *, *, #189, .F. ) ;
#110 = PRODUCT ( 'A-TSI-1214-12', 'A-TSI-1214-12', '', ( #305 ) ) ;
#111 = DIRECTION ( 'NONE',  ( 1.000000000000000000, 0.0000000000000000000, 0.0000000000000000000 ) ) ;
#112 = CARTESIAN_POINT ( 'NONE',  ( -0.4375000000000000600, 5.357829746269670700E-017, 0.0000000000000000000 ) ) ;
#113 = DIRECTION ( 'NONE',  ( -1.000000000000000000, 0.0000000000000000000, 0.0000000000000000000 ) ) ;
#114 = DIRECTION ( 'NONE',  ( -0.0000000000000000000, -0.0000000000000000000, -1.000000000000000000 ) ) ;
#115 = EDGE_CURVE ( 'NONE', #59, #5, #282, .T. ) ;
#116 = PLANE ( 'NONE',  #307 ) ;
#117 = AXIS2_PLACEMENT_3D ( 'NONE', #63, #245, #138 ) ;
#118 =( CONVERSION_BASED_UNIT ( 'INCH', #235 ) LENGTH_UNIT ( ) NAMED_UNIT ( #257 ) );
#119 = ORIENTED_EDGE ( 'NONE', *, *, #72, .T. ) ;
#120 = FILL_AREA_STYLE ('',( #48 ) ) ;
#121 = DIRECTION ( 'NONE',  ( 0.0000000000000000000, 0.0000000000000000000, 1.000000000000000000 ) ) ;
#122 = CIRCLE ( 'NONE', #29, 0.4375000000000000600 ) ;
#123 = EDGE_CURVE ( 'NONE', #214, #185, #223, .T. ) ;
#124 = VECTOR ( 'NONE', #313, 39.37007874015748100 ) ;
#125 = EDGE_LOOP ( 'NONE', ( #119, #161 ) ) ;
#126 = VECTOR ( 'NONE', #319, 39.37007874015748100 ) ;
#127 = AXIS2_PLACEMENT_3D ( 'NONE', #9, #182, #12 ) ;
#128 = UNCERTAINTY_MEASURE_WITH_UNIT (LENGTH_MEASURE( 1.000000000000000100E-005 ), #176, 'distance_accuracy_value', 'NONE');
#129 = EDGE_CURVE ( 'NONE', #287, #185, #79, .T. ) ;
#130 = ORIENTED_EDGE ( 'NONE', *, *, #310, .T. ) ;
#131 =( GEOMETRIC_REPRESENTATION_CONTEXT ( 3 ) GLOBAL_UNCERTAINTY_ASSIGNED_CONTEXT ( ( #213 ) ) GLOBAL_UNIT_ASSIGNED_CONTEXT ( ( #118, #44, #170 ) ) REPRESENTATION_CONTEXT ( 'NONE', 'WORKASPACE' ) );
#132 = ORIENTED_EDGE ( 'NONE', *, *, #152, .T. ) ;
#133 = LINE ( 'NONE', #273, #309 ) ;
#134 = DIRECTION ( 'NONE',  ( 0.0000000000000000000, 0.0000000000000000000, 1.000000000000000000 ) ) ;
#135 = EDGE_LOOP ( 'NONE', ( #95, #33 ) ) ;
#136 = CARTESIAN_POINT ( 'NONE',  ( 0.0000000000000000000, 0.0000000000000000000, 0.3592519685039369800 ) ) ;
#137 = CARTESIAN_POINT ( 'NONE',  ( 0.4193157395511811200, 5.246483264502130900E-017, 0.7500000000000001100 ) ) ;
#138 = DIRECTION ( 'NONE',  ( -1.000000000000000000, 0.0000000000000000000, 0.0000000000000000000 ) ) ;
#139 = CARTESIAN_POINT ( 'NONE',  ( 0.0000000000000000000, 0.0000000000000000000, 0.3592519685039369800 ) ) ;
#140 = DIRECTION ( 'NONE',  ( 1.000000000000000000, 0.0000000000000000000, 0.0000000000000000000 ) ) ;
#141 = DIRECTION ( 'NONE',  ( 0.5000000000067381700, 6.123233995819284600E-017, -0.8660254037805483800 ) ) ;
#142 = VERTEX_POINT ( 'NONE', #41 ) ;
#143 = CARTESIAN_POINT ( 'NONE',  ( 0.0000000000000000000, 0.0000000000000000000, 0.7500000000000001100 ) ) ;
#144 = CARTESIAN_POINT ( 'NONE',  ( -0.4193157395511811200, 0.0000000000000000000, 0.7500000000000001100 ) ) ;
#145 = CYLINDRICAL_SURFACE ( 'NONE', #276, 0.3750000000000000600 ) ;
#146 = ORIENTED_EDGE ( 'NONE', *, *, #84, .T. ) ;
#147 = AXIS2_PLACEMENT_3D ( 'NONE', #28, #227, #99 ) ;
#148 = ADVANCED_FACE ( 'NONE', ( #15 ), #66, .T. ) ;
#149 = FACE_OUTER_BOUND ( 'NONE', #308, .T. ) ;
#150 = ADVANCED_FACE ( 'NONE', ( #207 ), #58, .F. ) ;
#151 = ADVANCED_BREP_SHAPE_REPRESENTATION ( 'A-TSI-1214-12', ( #232, #54 ), #260 ) ;
#152 = EDGE_CURVE ( 'NONE', #214, #17, #107, .T. ) ;
#153 = ADVANCED_FACE ( 'NONE', ( #10 ), #196, .F. ) ;
#154 = ORIENTED_EDGE ( 'NONE', *, *, #84, .F. ) ;
#155 = AXIS2_PLACEMENT_3D ( 'NONE', #94, #114, #92 ) ;
#156 = FACE_OUTER_BOUND ( 'NONE', #231, .T. ) ;
#157 = UNCERTAINTY_MEASURE_WITH_UNIT (LENGTH_MEASURE( 1.000000000000000100E-005 ), #77, 'distance_accuracy_value', 'NONE');
#158 = FACE_OUTER_BOUND ( 'NONE', #135, .T. ) ;
#159 = DIRECTION ( 'NONE',  ( -0.0000000000000000000, -0.0000000000000000000, -1.000000000000000000 ) ) ;
#160 = PRODUCT_DEFINITION_FORMATION_WITH_SPECIFIED_SOURCE ( 'ANY', '', #110, .NOT_KNOWN. ) ;
#161 = ORIENTED_EDGE ( 'NONE', *, *, #129, .T. ) ;
#162 = EDGE_LOOP ( 'NONE', ( #132, #303, #291, #298 ) ) ;
#163 = CARTESIAN_POINT ( 'NONE',  ( 0.3971578697755905300, 0.0000000000000000000, 0.7500000000000001100 ) ) ;
#164 = MECHANICAL_DESIGN_GEOMETRIC_PRESENTATION_REPRESENTATION (  '', ( #43 ), #34 ) ;
#165 = DIRECTION ( 'NONE',  ( -1.000000000000000000, 0.0000000000000000000, 0.0000000000000000000 ) ) ;
#166 = CIRCLE ( 'NONE', #312, 0.3863651627795275900 ) ;
#167 = DIRECTION ( 'NONE',  ( -0.0000000000000000000, -0.0000000000000000000, -1.000000000000000000 ) ) ;
#168 = DIRECTION ( 'NONE',  ( -0.5000000000067381700, 0.0000000000000000000, -0.8660254037805483800 ) ) ;
#169 = DIRECTION ( 'NONE',  ( 1.000000000000000000, 0.0000000000000000000, 0.0000000000000000000 ) ) ;
#170 =( NAMED_UNIT ( * ) SI_UNIT ( $, .STERADIAN. ) SOLID_ANGLE_UNIT ( ) );
#171 = EDGE_CURVE ( 'NONE', #17, #214, #210, .T. ) ;
#172 = AXIS2_PLACEMENT_3D ( 'NONE', #215, #97, #21 ) ;
#173 = DIRECTION ( 'NONE',  ( -1.000000000000000000, 0.0000000000000000000, 0.0000000000000000000 ) ) ;
#174 = CARTESIAN_POINT ( 'NONE',  ( 0.3863651627795275900, 4.731608598999945100E-017, -8.537024980200822600E-018 ) ) ;
#175 = VERTEX_POINT ( 'NONE', #137 ) ;
#176 =( CONVERSION_BASED_UNIT ( 'INCH', #89 ) LENGTH_UNIT ( ) NAMED_UNIT ( #82 ) );
#177 = FACE_BOUND ( 'NONE', #56, .T. ) ;
#178 = LINE ( 'NONE', #236, #187 ) ;
#179 = APPLICATION_PROTOCOL_DEFINITION ( 'draft international standard', 'automotive_design', 1998, #302 ) ;
#180 = EDGE_LOOP ( 'NONE', ( #109, #259, #197, #195 ) ) ;
#181 = CIRCLE ( 'NONE', #184, 0.4375000000000000600 ) ;
#182 = DIRECTION ( 'NONE',  ( 0.0000000000000000000, 0.0000000000000000000, 1.000000000000000000 ) ) ;
#183 = EDGE_CURVE ( 'NONE', #17, #287, #6, .T. ) ;
#184 = AXIS2_PLACEMENT_3D ( 'NONE', #296, #248, #249 ) ;
#185 = VERTEX_POINT ( 'NONE', #194 ) ;
#186 = CARTESIAN_POINT ( 'NONE',  ( 0.0000000000000000000, 0.0000000000000000000, 0.7185039370078739600 ) ) ;
#187 = VECTOR ( 'NONE', #311, 39.37007874015748100 ) ;
#188 = CARTESIAN_POINT ( 'NONE',  ( 0.3750000000000000600, 0.0000000000000000000, 0.3848425196850394100 ) ) ;
#189 = EDGE_CURVE ( 'NONE', #214, #50, #90, .T. ) ;
#190 = DIRECTION ( 'NONE',  ( 0.0000000000000000000, 0.0000000000000000000, 1.000000000000000000 ) ) ;
#191 = CARTESIAN_POINT ( 'NONE',  ( 0.0000000000000000000, 0.0000000000000000000, 0.0000000000000000000 ) ) ;
#192 = FACE_OUTER_BOUND ( 'NONE', #4, .T. ) ;
#193 = DIRECTION ( 'NONE',  ( -1.000000000000000000, 0.0000000000000000000, 0.0000000000000000000 ) ) ;
#194 = CARTESIAN_POINT ( 'NONE',  ( 0.3750000000000000600, 0.0000000000000000000, 0.7500000000000001100 ) ) ;
#195 = ORIENTED_EDGE ( 'NONE', *, *, #106, .F. ) ;
#196 = CONICAL_SURFACE ( 'NONE', #80, 0.3863651627795275900, 0.5235987756060794800 ) ;
#197 = ORIENTED_EDGE ( 'NONE', *, *, #280, .T. ) ;
#198 = DIMENSIONAL_EXPONENTS ( 1.000000000000000000, 0.0000000000000000000, 0.0000000000000000000, 0.0000000000000000000, 0.0000000000000000000, 0.0000000000000000000, 0.0000000000000000000 ) ;
#199 =( NAMED_UNIT ( * ) PLANE_ANGLE_UNIT ( ) SI_UNIT ( $, .RADIAN. ) );
#200 = SURFACE_STYLE_FILL_AREA ( #299 ) ;
#201 = EDGE_CURVE ( 'NONE', #314, #5, #261, .T. ) ;
#202 = AXIS2_PLACEMENT_3D ( 'NONE', #143, #320, #173 ) ;
#203 = VERTEX_POINT ( 'NONE', #112 ) ;
#204 = VECTOR ( 'NONE', #23, 39.37007874015748100 ) ;
#205 = ORIENTED_EDGE ( 'NONE', *, *, #37, .F. ) ;
#206 = EDGE_CURVE ( 'NONE', #284, #175, #275, .T. ) ;
#207 = FACE_OUTER_BOUND ( 'NONE', #40, .T. ) ;
#208 = CARTESIAN_POINT ( 'NONE',  ( 0.3863651627795275900, 4.731608598999945100E-017, 0.0000000000000000000 ) ) ;
#209 = CARTESIAN_POINT ( 'NONE',  ( -0.3750000000000000600, 4.592425496802576100E-017, 0.01968503937007875700 ) ) ;
#210 = CIRCLE ( 'NONE', #3, 0.3749999999999999400 ) ;
#211 = PRODUCT_DEFINITION_CONTEXT ( 'detailed design', #302, 'design' ) ;
#212 = DIRECTION ( 'NONE',  ( 1.000000000000000000, 0.0000000000000000000, -0.0000000000000000000 ) ) ;
#213 = UNCERTAINTY_MEASURE_WITH_UNIT (LENGTH_MEASURE( 1.000000000000000100E-005 ), #118, 'distance_accuracy_value', 'NONE');
#214 = VERTEX_POINT ( 'NONE', #247 ) ;
#215 = CARTESIAN_POINT ( 'NONE',  ( 0.4119325813897638500, 0.0000000000000000000, 0.0000000000000000000 ) ) ;
#216 = DIRECTION ( 'NONE',  ( -0.0000000000000000000, -0.0000000000000000000, -1.000000000000000000 ) ) ;
#217 = FACE_BOUND ( 'NONE', #125, .T. ) ;
#218 = EDGE_CURVE ( 'NONE', #203, #314, #181, .T. ) ;
#219 = ORIENTED_EDGE ( 'NONE', *, *, #218, .T. ) ;
#220 = DIRECTION ( 'NONE',  ( 1.000000000000000000, 0.0000000000000000000, 0.0000000000000000000 ) ) ;
#221 = PRESENTATION_LAYER_ASSIGNMENT (  '', '', ( #43 ) ) ;
#222 = DIRECTION ( 'NONE',  ( 0.0000000000000000000, 0.0000000000000000000, 1.000000000000000000 ) ) ;
#223 = LINE ( 'NONE', #188, #204 ) ;
#224 = CARTESIAN_POINT ( 'NONE',  ( 0.0000000000000000000, 0.0000000000000000000, 0.0000000000000000000 ) ) ;
#225 = ORIENTED_EDGE ( 'NONE', *, *, #310, .F. ) ;
#226 = SURFACE_STYLE_FILL_AREA ( #120 ) ;
#227 = DIRECTION ( 'NONE',  ( 0.0000000000000000000, 0.0000000000000000000, 1.000000000000000000 ) ) ;
#228 =( LENGTH_UNIT ( ) NAMED_UNIT ( * ) SI_UNIT ( $, .METRE. ) );
#229 = AXIS2_PLACEMENT_3D ( 'NONE', #304, #216, #45 ) ;
#230 = ORIENTED_EDGE ( 'NONE', *, *, #152, .F. ) ;
#231 = EDGE_LOOP ( 'NONE', ( #39, #7, #81, #205 ) ) ;
#232 = MANIFOLD_SOLID_BREP ( '2017_10_02__20-04-10-406', #238 ) ;
#233 = ORIENTED_EDGE ( 'NONE', *, *, #218, .F. ) ;
#234 = FACE_OUTER_BOUND ( 'NONE', #61, .T. ) ;
#235 = LENGTH_MEASURE_WITH_UNIT ( LENGTH_MEASURE( 0.02539999999999999900 ), #271 );
#236 = CARTESIAN_POINT ( 'NONE',  ( -0.4375000000000000600, 0.0000000000000000000, 0.7185039370078739600 ) ) ;
#237 = EDGE_CURVE ( 'NONE', #203, #59, #133, .T. ) ;
#238 = CLOSED_SHELL ( 'NONE', ( #148, #53, #150, #101, #278, #104, #255, #71, #153, #52 ) ) ;
#239 = PRODUCT_RELATED_PRODUCT_CATEGORY ( 'part', '', ( #110 ) ) ;
#240 = DIRECTION ( 'NONE',  ( 1.000000000000000000, 0.0000000000000000000, 0.0000000000000000000 ) ) ;
#241 = DIRECTION ( 'NONE',  ( 0.0000000000000000000, 0.0000000000000000000, 1.000000000000000000 ) ) ;
#242 = PRESENTATION_STYLE_ASSIGNMENT (( #73 ) ) ;
#243 = CARTESIAN_POINT ( 'NONE',  ( -0.4375000000000000600, 0.0000000000000000000, 0.7185039370078739600 ) ) ;
#244 = SURFACE_STYLE_USAGE ( .BOTH. , #26 ) ;
#245 = DIRECTION ( 'NONE',  ( -0.0000000000000000000, -0.0000000000000000000, -1.000000000000000000 ) ) ;
#246 = AXIS2_PLACEMENT_3D ( 'NONE', #186, #270, #318 ) ;
#247 = CARTESIAN_POINT ( 'NONE',  ( 0.3749999999999999400, 0.0000000000000000000, 0.01968503937007873600 ) ) ;
#248 = DIRECTION ( 'NONE',  ( 0.0000000000000000000, 0.0000000000000000000, 1.000000000000000000 ) ) ;
#249 = DIRECTION ( 'NONE',  ( 1.000000000000000000, 0.0000000000000000000, 0.0000000000000000000 ) ) ;
#250 = ORIENTED_EDGE ( 'NONE', *, *, #183, .F. ) ;
#251 = ORIENTED_EDGE ( 'NONE', *, *, #237, .T. ) ;
#252 = CARTESIAN_POINT ( 'NONE',  ( 0.0000000000000000000, 0.0000000000000000000, -8.537024980200822600E-018 ) ) ;
#253 = APPLICATION_CONTEXT ( 'automotive_design' ) ;
#254 = CIRCLE ( 'NONE', #76, 0.4375000000000000600 ) ;
#255 = ADVANCED_FACE ( 'NONE', ( #177, #100 ), #96, .T. ) ;
#256 = PRODUCT_DEFINITION ( 'UNKNOWN', '', #160, #211 ) ;
#257 = DIMENSIONAL_EXPONENTS ( 1.000000000000000000, 0.0000000000000000000, 0.0000000000000000000, 0.0000000000000000000, 0.0000000000000000000, 0.0000000000000000000, 0.0000000000000000000 ) ;
#258 =( NAMED_UNIT ( * ) SI_UNIT ( $, .STERADIAN. ) SOLID_ANGLE_UNIT ( ) );
#259 = ORIENTED_EDGE ( 'NONE', *, *, #171, .F. ) ;
#260 =( GEOMETRIC_REPRESENTATION_CONTEXT ( 3 ) GLOBAL_UNCERTAINTY_ASSIGNED_CONTEXT ( ( #157 ) ) GLOBAL_UNIT_ASSIGNED_CONTEXT ( ( #77, #199, #279 ) ) REPRESENTATION_CONTEXT ( 'NONE', 'WORKASPACE' ) );
#261 = LINE ( 'NONE', #317, #126 ) ;
#262 = ORIENTED_EDGE ( 'NONE', *, *, #115, .T. ) ;
#263 = COLOUR_RGB ( '',0.5098039215686274200, 0.5098039215686274200, 0.5490196078431373000 ) ;
#264 = DIRECTION ( 'NONE',  ( -0.0000000000000000000, -0.0000000000000000000, -1.000000000000000000 ) ) ;
#265 = VECTOR ( 'NONE', #222, 39.37007874015748100 ) ;
#266 = DIRECTION ( 'NONE',  ( -0.0000000000000000000, -0.0000000000000000000, -1.000000000000000000 ) ) ;
#267 = ORIENTED_EDGE ( 'NONE', *, *, #102, .F. ) ;
#268 = DIRECTION ( 'NONE',  ( -1.000000000000000000, 0.0000000000000000000, 0.0000000000000000000 ) ) ;
#269 = CARTESIAN_POINT ( 'NONE',  ( -0.3750000000000000600, 4.592425496802575500E-017, 0.3848425196850394100 ) ) ;
#270 = DIRECTION ( 'NONE',  ( -0.0000000000000000000, -0.0000000000000000000, -1.000000000000000000 ) ) ;
#271 =( LENGTH_UNIT ( ) NAMED_UNIT ( * ) SI_UNIT ( $, .METRE. ) );
#272 = DIRECTION ( 'NONE',  ( -0.0000000000000000000, -0.0000000000000000000, -1.000000000000000000 ) ) ;
#273 = CARTESIAN_POINT ( 'NONE',  ( -0.4375000000000000600, 5.357829746269670700E-017, 0.3592519685039369800 ) ) ;
#274 = FILL_AREA_STYLE_COLOUR ( '', #30 ) ;
#275 = CIRCLE ( 'NONE', #155, 0.4193157395511811200 ) ;
#276 = AXIS2_PLACEMENT_3D ( 'NONE', #65, #241, #316 ) ;
#277 = ORIENTED_EDGE ( 'NONE', *, *, #129, .F. ) ;
#278 = ADVANCED_FACE ( 'NONE', ( #234 ), #69, .T. ) ;
#279 =( NAMED_UNIT ( * ) SI_UNIT ( $, .STERADIAN. ) SOLID_ANGLE_UNIT ( ) );
#280 = EDGE_CURVE ( 'NONE', #17, #142, #322, .T. ) ;
#281 = DIRECTION ( 'NONE',  ( 1.000000000000000000, 0.0000000000000000000, 0.0000000000000000000 ) ) ;
#282 = CIRCLE ( 'NONE', #246, 0.4375000000000000600 ) ;
#283 = ORIENTED_EDGE ( 'NONE', *, *, #171, .T. ) ;
#284 = VERTEX_POINT ( 'NONE', #144 ) ;
#285 = AXIS2_PLACEMENT_3D ( 'NONE', #136, #292, #42 ) ;
#286 = ORIENTED_EDGE ( 'NONE', *, *, #37, .T. ) ;
#287 = VERTEX_POINT ( 'NONE', #25 ) ;
#288 = CIRCLE ( 'NONE', #38, 0.3750000000000000600 ) ;
#289 = AXIS2_PLACEMENT_3D ( 'NONE', #47, #266, #111 ) ;
#290 = CARTESIAN_POINT ( 'NONE',  ( 0.0000000000000000000, 0.0000000000000000000, 0.0000000000000000000 ) ) ;
#291 = ORIENTED_EDGE ( 'NONE', *, *, #72, .F. ) ;
#292 = DIRECTION ( 'NONE',  ( 0.0000000000000000000, 0.0000000000000000000, 1.000000000000000000 ) ) ;
#293 = CARTESIAN_POINT ( 'NONE',  ( 0.0000000000000000000, 0.0000000000000000000, 0.7185039370078739600 ) ) ;
#294 = CARTESIAN_POINT ( 'NONE',  ( -0.3863651627795275900, 0.0000000000000000000, -8.537024980200822600E-018 ) ) ;
#295 = EDGE_CURVE ( 'NONE', #175, #284, #35, .T. ) ;
#296 = CARTESIAN_POINT ( 'NONE',  ( 0.0000000000000000000, 0.0000000000000000000, 0.0000000000000000000 ) ) ;
#297 = STYLED_ITEM ( 'NONE', ( #2 ), #232 ) ;
#298 = ORIENTED_EDGE ( 'NONE', *, *, #123, .F. ) ;
#299 = FILL_AREA_STYLE ('',( #274 ) ) ;
#300 = DIRECTION ( 'NONE',  ( 0.0000000000000000000, 0.0000000000000000000, 1.000000000000000000 ) ) ;
#301 = ORIENTED_EDGE ( 'NONE', *, *, #280, .F. ) ;
#302 = APPLICATION_CONTEXT ( 'automotive_design' ) ;
#303 = ORIENTED_EDGE ( 'NONE', *, *, #183, .T. ) ;
#304 = CARTESIAN_POINT ( 'NONE',  ( 0.0000000000000000000, 0.0000000000000000000, 0.01968503937007875700 ) ) ;
#305 = PRODUCT_CONTEXT ( 'NONE', #253, 'mechanical' ) ;
#306 = AXIS2_PLACEMENT_3D ( 'NONE', #139, #300, #220 ) ;
#307 = AXIS2_PLACEMENT_3D ( 'NONE', #163, #93, #212 ) ;
#308 = EDGE_LOOP ( 'NONE', ( #67, #31, #286, #154 ) ) ;
#309 = VECTOR ( 'NONE', #18, 39.37007874015748100 ) ;
#310 = EDGE_CURVE ( 'NONE', #142, #50, #55, .T. ) ;
#311 = DIRECTION ( 'NONE',  ( -0.5000000000392143000, 0.0000000000000000000, -0.8660254037617981500 ) ) ;
#312 = AXIS2_PLACEMENT_3D ( 'NONE', #191, #134, #165 ) ;
#313 = DIRECTION ( 'NONE',  ( 0.5000000000392143000, 6.123233996217002400E-017, -0.8660254037617981500 ) ) ;
#314 = VERTEX_POINT ( 'NONE', #46 ) ;
#315 = SHAPE_DEFINITION_REPRESENTATION ( #70, #151 ) ;
#316 = DIRECTION ( 'NONE',  ( 1.000000000000000000, 0.0000000000000000000, 0.0000000000000000000 ) ) ;
#317 = CARTESIAN_POINT ( 'NONE',  ( 0.4375000000000000600, 0.0000000000000000000, 0.3592519685039369800 ) ) ;
#318 = DIRECTION ( 'NONE',  ( 1.000000000000000000, 0.0000000000000000000, 0.0000000000000000000 ) ) ;
#319 = DIRECTION ( 'NONE',  ( 0.0000000000000000000, 0.0000000000000000000, 1.000000000000000000 ) ) ;
#320 = DIRECTION ( 'NONE',  ( -0.0000000000000000000, -0.0000000000000000000, -1.000000000000000000 ) ) ;
#321 = MECHANICAL_DESIGN_GEOMETRIC_PRESENTATION_REPRESENTATION (  '', ( #297 ), #131 ) ;
#322 = LINE ( 'NONE', #294, #108 ) ;
#323 = EDGE_LOOP ( 'NONE', ( #27, #251, #262, #68 ) ) ;
ENDSEC;
END-ISO-10303-21;
