ISO-10303-21;
HEADER;
FILE_DESCRIPTION (( 'STEP AP214' ),
    '1' );
FILE_NAME ('A-TSI-1618-16.step',
    '2017-11-29T20:26:34',
    ( '' ),
    ( '' ),
    'SwSTEP 2.0',
    'SolidWorks 2017',
    '' );
FILE_SCHEMA (( 'AUTOMOTIVE_DESIGN' ));
ENDSEC;

DATA;
#1 = ORIENTED_EDGE ( 'NONE', *, *, #294, .F. ) ;
#2 = CARTESIAN_POINT ( 'NONE',  ( 0.0000000000000000000, 0.0000000000000000000, 0.9685039370078740700 ) ) ;
#3 = CARTESIAN_POINT ( 'NONE',  ( 0.0000000000000000000, 0.0000000000000000000, 0.9685039370078740700 ) ) ;
#4 = EDGE_CURVE ( 'NONE', #232, #139, #45, .T. ) ;
#5 = CARTESIAN_POINT ( 'NONE',  ( 6.777291763436323400E-017, -0.5443157395511811800, 1.000000000000000000 ) ) ;
#6 = CARTESIAN_POINT ( 'NONE',  ( 0.5113651627795275900, 6.262417097934137600E-017, 0.0000000000000000000 ) ) ;
#7 = ORIENTED_EDGE ( 'NONE', *, *, #305, .T. ) ;
#8 = DIRECTION ( 'NONE',  ( -1.000000000000000000, 0.0000000000000000000, 0.0000000000000000000 ) ) ;
#9 = CONICAL_SURFACE ( 'NONE', #79, 0.5625000000000000000, 0.5235987756435798200 ) ;
#10 = DIRECTION ( 'NONE',  ( 0.0000000000000000000, 0.0000000000000000000, 1.000000000000000000 ) ) ;
#11 = PRODUCT_DEFINITION_FORMATION_WITH_SPECIFIED_SOURCE ( 'ANY', '', #311, .NOT_KNOWN. ) ;
#12 = ORIENTED_EDGE ( 'NONE', *, *, #57, .F. ) ;
#13 = DIRECTION ( 'NONE',  ( 0.0000000000000000000, 0.0000000000000000000, 1.000000000000000000 ) ) ;
#14 = CARTESIAN_POINT ( 'NONE',  ( 0.0000000000000000000, 0.0000000000000000000, 0.0000000000000000000 ) ) ;
#15 = ADVANCED_BREP_SHAPE_REPRESENTATION ( 'A-TSI-1618-16', ( #203, #264 ), #76 ) ;
#16 = CIRCLE ( 'NONE', #116, 0.5625000000000000000 ) ;
#17 = APPLICATION_CONTEXT ( 'automotive_design' ) ;
#18 = DIRECTION ( 'NONE',  ( 0.0000000000000000000, 1.000000000000000000, 2.428309327701567300E-016 ) ) ;
#19 =( NAMED_UNIT ( * ) PLANE_ANGLE_UNIT ( ) SI_UNIT ( $, .RADIAN. ) );
#20 = ORIENTED_EDGE ( 'NONE', *, *, #310, .F. ) ;
#21 =( GEOMETRIC_REPRESENTATION_CONTEXT ( 3 ) GLOBAL_UNCERTAINTY_ASSIGNED_CONTEXT ( ( #54 ) ) GLOBAL_UNIT_ASSIGNED_CONTEXT ( ( #88, #61, #137 ) ) REPRESENTATION_CONTEXT ( 'NONE', 'WORKASPACE' ) );
#22 = CIRCLE ( 'NONE', #287, 0.5625000000000000000 ) ;
#23 = AXIS2_PLACEMENT_3D ( 'NONE', #330, #152, #18 ) ;
#24 = CIRCLE ( 'NONE', #270, 0.5113651627795275900 ) ;
#25 = AXIS2_PLACEMENT_3D ( 'NONE', #2, #165, #86 ) ;
#26 = EDGE_CURVE ( 'NONE', #215, #164, #321, .T. ) ;
#27 = VERTEX_POINT ( 'NONE', #158 ) ;
#28 = DIRECTION ( 'NONE',  ( 0.0000000000000000000, 0.0000000000000000000, 1.000000000000000000 ) ) ;
#29 = FACE_OUTER_BOUND ( 'NONE', #255, .T. ) ;
#30 = CARTESIAN_POINT ( 'NONE',  ( 0.0000000000000000000, -3.824109177482777300E-018, 1.000000000000000000 ) ) ;
#31 = ADVANCED_FACE ( 'NONE', ( #36 ), #334, .F. ) ;
#32 = PRODUCT_DEFINITION_SHAPE ( 'NONE', 'NONE',  #196 ) ;
#33 = CARTESIAN_POINT ( 'NONE',  ( -0.5625000000000000000, 6.888638245203861900E-017, 0.9685039370078740700 ) ) ;
#34 = VERTEX_POINT ( 'NONE', #161 ) ;
#35 = CARTESIAN_POINT ( 'NONE',  ( 0.0000000000000000000, 0.5625000000000001100, 0.9685039370078740700 ) ) ;
#36 = FACE_OUTER_BOUND ( 'NONE', #276, .T. ) ;
#37 = LENGTH_MEASURE_WITH_UNIT ( LENGTH_MEASURE( 0.02539999999999999900 ), #251 );
#38 = CARTESIAN_POINT ( 'NONE',  ( -0.5000000000000000000, 6.123233995736766000E-017, 0.5098425196850393500 ) ) ;
#39 = DIRECTION ( 'NONE',  ( 0.0000000000000000000, -0.0000000000000000000, 1.000000000000000000 ) ) ;
#40 = ORIENTED_EDGE ( 'NONE', *, *, #112, .F. ) ;
#41 = VECTOR ( 'NONE', #80, 39.37007874015748100 ) ;
#42 = AXIS2_PLACEMENT_3D ( 'NONE', #115, #87, #269 ) ;
#43 = AXIS2_PLACEMENT_3D ( 'NONE', #275, #10, #302 ) ;
#44 = DIRECTION ( 'NONE',  ( -1.000000000000000000, 0.0000000000000000000, -0.0000000000000000000 ) ) ;
#45 = CIRCLE ( 'NONE', #227, 0.5625000000000000000 ) ;
#46 = DIRECTION ( 'NONE',  ( -0.0000000000000000000, -0.0000000000000000000, -1.000000000000000000 ) ) ;
#47 = AXIS2_PLACEMENT_3D ( 'NONE', #3, #244, #188 ) ;
#48 =( LENGTH_UNIT ( ) NAMED_UNIT ( * ) SI_UNIT ( $, .METRE. ) );
#49 = VECTOR ( 'NONE', #136, 39.37007874015748100 ) ;
#50 = SHAPE_DEFINITION_REPRESENTATION ( #32, #15 ) ;
#51 = MECHANICAL_DESIGN_GEOMETRIC_PRESENTATION_REPRESENTATION (  '', ( #145 ), #179 ) ;
#52 = LINE ( 'NONE', #82, #41 ) ;
#53 = AXIS2_PLACEMENT_3D ( 'NONE', #192, #186, #8 ) ;
#54 = UNCERTAINTY_MEASURE_WITH_UNIT (LENGTH_MEASURE( 1.000000000000000100E-005 ), #88, 'distance_accuracy_value', 'NONE');
#55 = ORIENTED_EDGE ( 'NONE', *, *, #26, .F. ) ;
#56 = DIRECTION ( 'NONE',  ( 1.000000000000000000, 0.0000000000000000000, 0.0000000000000000000 ) ) ;
#57 = EDGE_CURVE ( 'NONE', #102, #106, #292, .T. ) ;
#58 = PRESENTATION_STYLE_ASSIGNMENT (( #324 ) ) ;
#59 = DIRECTION ( 'NONE',  ( 1.000000000000000000, 0.0000000000000000000, 0.0000000000000000000 ) ) ;
#60 = CARTESIAN_POINT ( 'NONE',  ( 0.0000000000000000000, 0.0000000000000000000, 0.0000000000000000000 ) ) ;
#61 =( NAMED_UNIT ( * ) PLANE_ANGLE_UNIT ( ) SI_UNIT ( $, .RADIAN. ) );
#62 = EDGE_CURVE ( 'NONE', #232, #89, #52, .T. ) ;
#63 = VECTOR ( 'NONE', #120, 39.37007874015748100 ) ;
#64 = SURFACE_SIDE_STYLE ('',( #127 ) ) ;
#65 = ORIENTED_EDGE ( 'NONE', *, *, #105, .F. ) ;
#66 = DIRECTION ( 'NONE',  ( 0.0000000000000000000, 1.214154663850783900E-016, -1.000000000000000000 ) ) ;
#67 = ORIENTED_EDGE ( 'NONE', *, *, #62, .T. ) ;
#68 = PLANE ( 'NONE',  #91 ) ;
#69 = ORIENTED_EDGE ( 'NONE', *, *, #233, .T. ) ;
#70 = CIRCLE ( 'NONE', #219, 0.5443157395511811800 ) ;
#71 = DIRECTION ( 'NONE',  ( -0.0000000000000000000, -0.0000000000000000000, -1.000000000000000000 ) ) ;
#72 = EDGE_CURVE ( 'NONE', #106, #337, #221, .T. ) ;
#73 = PRODUCT_CONTEXT ( 'NONE', #17, 'mechanical' ) ;
#74 = CIRCLE ( 'NONE', #122, 0.5000000000000000000 ) ;
#75 = PRESENTATION_STYLE_ASSIGNMENT (( #331 ) ) ;
#76 =( GEOMETRIC_REPRESENTATION_CONTEXT ( 3 ) GLOBAL_UNCERTAINTY_ASSIGNED_CONTEXT ( ( #236 ) ) GLOBAL_UNIT_ASSIGNED_CONTEXT ( ( #101, #19, #230 ) ) REPRESENTATION_CONTEXT ( 'NONE', 'WORKASPACE' ) );
#77 = ORIENTED_EDGE ( 'NONE', *, *, #138, .T. ) ;
#78 = FACE_OUTER_BOUND ( 'NONE', #123, .T. ) ;
#79 = AXIS2_PLACEMENT_3D ( 'NONE', #170, #66, #218 ) ;
#80 = DIRECTION ( 'NONE',  ( 0.0000000000000000000, 0.0000000000000000000, 1.000000000000000000 ) ) ;
#81 = CIRCLE ( 'NONE', #47, 0.5625000000000000000 ) ;
#82 = CARTESIAN_POINT ( 'NONE',  ( -0.5625000000000000000, 6.888638245203861900E-017, 0.4842519685039370400 ) ) ;
#83 = VERTEX_POINT ( 'NONE', #35 ) ;
#84 = AXIS2_PLACEMENT_3D ( 'NONE', #149, #71, #99 ) ;
#85 = CONICAL_SURFACE ( 'NONE', #110, 0.5113651627795275900, 0.5235987756060800400 ) ;
#86 = DIRECTION ( 'NONE',  ( 1.000000000000000000, 0.0000000000000000000, 0.0000000000000000000 ) ) ;
#87 = DIRECTION ( 'NONE',  ( 0.0000000000000000000, 0.0000000000000000000, 1.000000000000000000 ) ) ;
#88 =( CONVERSION_BASED_UNIT ( 'INCH', #211 ) LENGTH_UNIT ( ) NAMED_UNIT ( #314 ) );
#89 = VERTEX_POINT ( 'NONE', #33 ) ;
#90 = CARTESIAN_POINT ( 'NONE',  ( 0.0000000000000000000, 0.0000000000000000000, -8.537024980200822600E-018 ) ) ;
#91 = AXIS2_PLACEMENT_3D ( 'NONE', #273, #198, #44 ) ;
#92 = CIRCLE ( 'NONE', #323, 0.5000000000000000000 ) ;
#93 = DIRECTION ( 'NONE',  ( -0.0000000000000000000, -0.0000000000000000000, -1.000000000000000000 ) ) ;
#94 = UNCERTAINTY_MEASURE_WITH_UNIT (LENGTH_MEASURE( 1.000000000000000100E-005 ), #175, 'distance_accuracy_value', 'NONE');
#95 = AXIS2_PLACEMENT_3D ( 'NONE', #174, #200, #124 ) ;
#96 = CARTESIAN_POINT ( 'NONE',  ( 6.888638245203861900E-017, -0.5625000000000000000, 0.9685039370078739600 ) ) ;
#97 = ORIENTED_EDGE ( 'NONE', *, *, #138, .F. ) ;
#98 = CARTESIAN_POINT ( 'NONE',  ( 0.5000000000000000000, 0.0000000000000000000, 0.5098425196850393500 ) ) ;
#99 = DIRECTION ( 'NONE',  ( 1.000000000000000000, 0.0000000000000000000, 0.0000000000000000000 ) ) ;
#100 = MECHANICAL_DESIGN_GEOMETRIC_PRESENTATION_REPRESENTATION (  '', ( #243 ), #21 ) ;
#101 =( CONVERSION_BASED_UNIT ( 'INCH', #261 ) LENGTH_UNIT ( ) NAMED_UNIT ( #131 ) );
#102 = VERTEX_POINT ( 'NONE', #184 ) ;
#103 = ORIENTED_EDGE ( 'NONE', *, *, #72, .F. ) ;
#104 = FILL_AREA_STYLE ('',( #333 ) ) ;
#105 = EDGE_CURVE ( 'NONE', #27, #34, #74, .T. ) ;
#106 = VERTEX_POINT ( 'NONE', #108 ) ;
#107 = ORIENTED_EDGE ( 'NONE', *, *, #105, .T. ) ;
#108 = CARTESIAN_POINT ( 'NONE',  ( -0.5000000000000001100, 6.123233995736767300E-017, 0.01968503937007875700 ) ) ;
#109 = CARTESIAN_POINT ( 'NONE',  ( 0.0000000000000000000, 0.0000000000000000000, 0.01968503937007875700 ) ) ;
#110 = AXIS2_PLACEMENT_3D ( 'NONE', #90, #190, #146 ) ;
#111 = ORIENTED_EDGE ( 'NONE', *, *, #233, .F. ) ;
#112 = EDGE_CURVE ( 'NONE', #128, #89, #306, .T. ) ;
#113 = CONICAL_SURFACE ( 'NONE', #181, 0.5113651627795275900, 0.5235987756060800400 ) ;
#114 = FILL_AREA_STYLE_COLOUR ( '', #263 ) ;
#115 = CARTESIAN_POINT ( 'NONE',  ( 0.0000000000000000000, 0.0000000000000000000, 0.4842519685039370400 ) ) ;
#116 = AXIS2_PLACEMENT_3D ( 'NONE', #274, #327, #300 ) ;
#117 = ORIENTED_EDGE ( 'NONE', *, *, #126, .F. ) ;
#118 = CARTESIAN_POINT ( 'NONE',  ( 0.5625000000000000000, 0.0000000000000000000, 0.9685039370078740700 ) ) ;
#119 = ORIENTED_EDGE ( 'NONE', *, *, #294, .T. ) ;
#120 = DIRECTION ( 'NONE',  ( 6.123233996217003600E-017, -0.5000000000392143000, -0.8660254037617981500 ) ) ;
#121 = APPLICATION_PROTOCOL_DEFINITION ( 'draft international standard', 'automotive_design', 1998, #282 ) ;
#122 = AXIS2_PLACEMENT_3D ( 'NONE', #132, #159, #59 ) ;
#123 = EDGE_LOOP ( 'NONE', ( #193, #7, #272, #295, #20 ) ) ;
#124 = DIRECTION ( 'NONE',  ( 1.000000000000000000, 0.0000000000000000000, -0.0000000000000000000 ) ) ;
#125 = ORIENTED_EDGE ( 'NONE', *, *, #4, .F. ) ;
#126 = EDGE_CURVE ( 'NONE', #154, #337, #234, .T. ) ;
#127 = SURFACE_STYLE_FILL_AREA ( #291 ) ;
#128 = VERTEX_POINT ( 'NONE', #212 ) ;
#129 = VECTOR ( 'NONE', #271, 39.37007874015748100 ) ;
#130 = EDGE_CURVE ( 'NONE', #106, #34, #169, .T. ) ;
#131 = DIMENSIONAL_EXPONENTS ( 1.000000000000000000, 0.0000000000000000000, 0.0000000000000000000, 0.0000000000000000000, 0.0000000000000000000, 0.0000000000000000000, 0.0000000000000000000 ) ;
#132 = CARTESIAN_POINT ( 'NONE',  ( 0.0000000000000000000, 0.0000000000000000000, 1.000000000000000000 ) ) ;
#133 = VERTEX_POINT ( 'NONE', #118 ) ;
#134 = DIRECTION ( 'NONE',  ( 0.0000000000000000000, 0.0000000000000000000, 1.000000000000000000 ) ) ;
#135 = PRODUCT_DEFINITION_CONTEXT ( 'detailed design', #282, 'design' ) ;
#136 = DIRECTION ( 'NONE',  ( -0.5000000000067387200, 0.0000000000000000000, -0.8660254037805480400 ) ) ;
#137 =( NAMED_UNIT ( * ) SI_UNIT ( $, .STERADIAN. ) SOLID_ANGLE_UNIT ( ) );
#138 = EDGE_CURVE ( 'NONE', #34, #27, #315, .T. ) ;
#139 = VERTEX_POINT ( 'NONE', #296 ) ;
#140 = LINE ( 'NONE', #98, #129 ) ;
#141 = DIRECTION ( 'NONE',  ( -0.0000000000000000000, 0.0000000000000000000, -1.000000000000000000 ) ) ;
#142 = DIRECTION ( 'NONE',  ( 0.0000000000000000000, 0.0000000000000000000, 1.000000000000000000 ) ) ;
#143 = FACE_OUTER_BOUND ( 'NONE', #319, .T. ) ;
#144 = DIRECTION ( 'NONE',  ( 1.000000000000000000, 0.0000000000000000000, 0.0000000000000000000 ) ) ;
#145 = STYLED_ITEM ( 'NONE', ( #75 ), #15 ) ;
#146 = DIRECTION ( 'NONE',  ( -1.000000000000000000, 0.0000000000000000000, 0.0000000000000000000 ) ) ;
#147 = ORIENTED_EDGE ( 'NONE', *, *, #72, .T. ) ;
#148 = FACE_OUTER_BOUND ( 'NONE', #185, .T. ) ;
#149 = CARTESIAN_POINT ( 'NONE',  ( 0.0000000000000000000, 0.0000000000000000000, 0.9685039370078740700 ) ) ;
#150 = FACE_OUTER_BOUND ( 'NONE', #199, .T. ) ;
#151 = EDGE_CURVE ( 'NONE', #337, #154, #24, .T. ) ;
#152 = DIRECTION ( 'NONE',  ( 0.0000000000000000000, 1.214154663850783900E-016, -1.000000000000000000 ) ) ;
#153 = EDGE_LOOP ( 'NONE', ( #177, #111, #147, #117 ) ) ;
#154 = VERTEX_POINT ( 'NONE', #6 ) ;
#155 = LINE ( 'NONE', #299, #216 ) ;
#156 = FACE_BOUND ( 'NONE', #313, .T. ) ;
#157 = DIMENSIONAL_EXPONENTS ( 1.000000000000000000, 0.0000000000000000000, 0.0000000000000000000, 0.0000000000000000000, 0.0000000000000000000, 0.0000000000000000000, 0.0000000000000000000 ) ;
#158 = CARTESIAN_POINT ( 'NONE',  ( 0.5000000000000000000, 0.0000000000000000000, 1.000000000000000000 ) ) ;
#159 = DIRECTION ( 'NONE',  ( -0.0000000000000000000, -0.0000000000000000000, -1.000000000000000000 ) ) ;
#160 = FACE_OUTER_BOUND ( 'NONE', #303, .T. ) ;
#161 = CARTESIAN_POINT ( 'NONE',  ( -0.5000000000000000000, 6.123233995736766000E-017, 1.000000000000000000 ) ) ;
#162 = PRESENTATION_LAYER_ASSIGNMENT (  '', '', ( #145 ) ) ;
#163 = EDGE_CURVE ( 'NONE', #102, #154, #326, .T. ) ;
#164 = VERTEX_POINT ( 'NONE', #5 ) ;
#165 = DIRECTION ( 'NONE',  ( -0.0000000000000000000, -0.0000000000000000000, -1.000000000000000000 ) ) ;
#166 = DIRECTION ( 'NONE',  ( 1.000000000000000000, 0.0000000000000000000, 0.0000000000000000000 ) ) ;
#167 = PRESENTATION_LAYER_ASSIGNMENT (  '', '', ( #243 ) ) ;
#168 = DIRECTION ( 'NONE',  ( 1.000000000000000000, 0.0000000000000000000, 0.0000000000000000000 ) ) ;
#169 = LINE ( 'NONE', #38, #308 ) ;
#170 = CARTESIAN_POINT ( 'NONE',  ( 0.0000000000000000000, 0.0000000000000000000, 0.9685039370078740700 ) ) ;
#171 = ORIENTED_EDGE ( 'NONE', *, *, #130, .T. ) ;
#172 = DIRECTION ( 'NONE',  ( 0.0000000000000000000, 1.000000000000000000, 0.0000000000000000000 ) ) ;
#173 = DIRECTION ( 'NONE',  ( 0.0000000000000000000, 0.5000000000392145200, -0.8660254037617980400 ) ) ;
#174 = CARTESIAN_POINT ( 'NONE',  ( 0.5221578697755905300, 0.0000000000000000000, 1.000000000000000000 ) ) ;
#175 =( CONVERSION_BASED_UNIT ( 'INCH', #37 ) LENGTH_UNIT ( ) NAMED_UNIT ( #157 ) );
#176 = ORIENTED_EDGE ( 'NONE', *, *, #332, .T. ) ;
#177 = ORIENTED_EDGE ( 'NONE', *, *, #163, .F. ) ;
#178 = CARTESIAN_POINT ( 'NONE',  ( -0.5113651627795275900, 0.0000000000000000000, 0.0000000000000000000 ) ) ;
#179 =( GEOMETRIC_REPRESENTATION_CONTEXT ( 3 ) GLOBAL_UNCERTAINTY_ASSIGNED_CONTEXT ( ( #94 ) ) GLOBAL_UNIT_ASSIGNED_CONTEXT ( ( #175, #278, #257 ) ) REPRESENTATION_CONTEXT ( 'NONE', 'WORKASPACE' ) );
#180 = FACE_OUTER_BOUND ( 'NONE', #153, .T. ) ;
#181 = AXIS2_PLACEMENT_3D ( 'NONE', #247, #141, #322 ) ;
#182 = ADVANCED_FACE ( 'NONE', ( #225 ), #9, .T. ) ;
#183 = EDGE_LOOP ( 'NONE', ( #325, #119, #259, #248, #40 ) ) ;
#184 = CARTESIAN_POINT ( 'NONE',  ( 0.5000000000000000000, 0.0000000000000000000, 0.01968503937007876400 ) ) ;
#185 = EDGE_LOOP ( 'NONE', ( #204, #125 ) ) ;
#186 = DIRECTION ( 'NONE',  ( 0.0000000000000000000, -0.0000000000000000000, 1.000000000000000000 ) ) ;
#187 = EDGE_CURVE ( 'NONE', #89, #83, #81, .T. ) ;
#188 = DIRECTION ( 'NONE',  ( 1.000000000000000000, 0.0000000000000000000, 0.0000000000000000000 ) ) ;
#189 = ORIENTED_EDGE ( 'NONE', *, *, #187, .T. ) ;
#190 = DIRECTION ( 'NONE',  ( -0.0000000000000000000, 0.0000000000000000000, -1.000000000000000000 ) ) ;
#191 = DIRECTION ( 'NONE',  ( 0.5000000000067387200, 6.123233995819292000E-017, -0.8660254037805480400 ) ) ;
#192 = CARTESIAN_POINT ( 'NONE',  ( 0.0000000000000000000, 0.0000000000000000000, 0.0000000000000000000 ) ) ;
#193 = ORIENTED_EDGE ( 'NONE', *, *, #26, .T. ) ;
#194 = VECTOR ( 'NONE', #191, 39.37007874015748100 ) ;
#195 = CONICAL_SURFACE ( 'NONE', #23, 0.5625000000000000000, 0.5235987756435798200 ) ;
#196 = PRODUCT_DEFINITION ( 'UNKNOWN', '', #11, #135 ) ;
#197 = DIRECTION ( 'NONE',  ( 1.000000000000000000, 0.0000000000000000000, 8.537024980200822600E-018 ) ) ;
#198 = DIRECTION ( 'NONE',  ( 0.0000000000000000000, 0.0000000000000000000, -1.000000000000000000 ) ) ;
#199 = EDGE_LOOP ( 'NONE', ( #55, #1 ) ) ;
#200 = DIRECTION ( 'NONE',  ( 0.0000000000000000000, 0.0000000000000000000, 1.000000000000000000 ) ) ;
#201 = FACE_OUTER_BOUND ( 'NONE', #246, .T. ) ;
#202 = AXIS2_PLACEMENT_3D ( 'NONE', #109, #290, #341 ) ;
#203 = MANIFOLD_SOLID_BREP ( '2017_10_02__20-05-46-094', #265 ) ;
#204 = ORIENTED_EDGE ( 'NONE', *, *, #284, .F. ) ;
#205 = ADVANCED_FACE ( 'NONE', ( #160 ), #229, .T. ) ;
#206 = ORIENTED_EDGE ( 'NONE', *, *, #316, .T. ) ;
#207 = VECTOR ( 'NONE', #173, 39.37007874015748900 ) ;
#208 = ADVANCED_FACE ( 'NONE', ( #29 ), #113, .F. ) ;
#209 = DIRECTION ( 'NONE',  ( 0.0000000000000000000, 1.000000000000000000, 0.0000000000000000000 ) ) ;
#210 = ORIENTED_EDGE ( 'NONE', *, *, #231, .T. ) ;
#211 = LENGTH_MEASURE_WITH_UNIT ( LENGTH_MEASURE( 0.02539999999999999900 ), #293 );
#212 = CARTESIAN_POINT ( 'NONE',  ( 6.888638245203860700E-017, -0.5624999999999998900, 0.9685039370078740700 ) ) ;
#213 = PRODUCT_RELATED_PRODUCT_CATEGORY ( 'part', '', ( #311 ) ) ;
#214 = DIRECTION ( 'NONE',  ( 1.000000000000000000, 0.0000000000000000000, 0.0000000000000000000 ) ) ;
#215 = VERTEX_POINT ( 'NONE', #220 ) ;
#216 = VECTOR ( 'NONE', #249, 39.37007874015748100 ) ;
#217 = CARTESIAN_POINT ( 'NONE',  ( 0.0000000000000000000, 0.0000000000000000000, 1.000000000000000000 ) ) ;
#218 = DIRECTION ( 'NONE',  ( 0.0000000000000000000, 1.000000000000000000, 2.428309327701567300E-016 ) ) ;
#219 = AXIS2_PLACEMENT_3D ( 'NONE', #222, #277, #172 ) ;
#220 = CARTESIAN_POINT ( 'NONE',  ( 0.0000000000000000000, 0.5443157395511811800, 1.000000000000000000 ) ) ;
#221 = LINE ( 'NONE', #239, #49 ) ;
#222 = CARTESIAN_POINT ( 'NONE',  ( 0.0000000000000000000, -3.824109177482777300E-018, 1.000000000000000000 ) ) ;
#223 = ORIENTED_EDGE ( 'NONE', *, *, #151, .T. ) ;
#224 = CARTESIAN_POINT ( 'NONE',  ( 0.0000000000000000000, 0.0000000000000000000, 0.5098425196850393500 ) ) ;
#225 = FACE_OUTER_BOUND ( 'NONE', #183, .T. ) ;
#226 = DIRECTION ( 'NONE',  ( 0.0000000000000000000, 0.0000000000000000000, 1.000000000000000000 ) ) ;
#227 = AXIS2_PLACEMENT_3D ( 'NONE', #60, #134, #56 ) ;
#228 = ORIENTED_EDGE ( 'NONE', *, *, #254, .F. ) ;
#229 = CYLINDRICAL_SURFACE ( 'NONE', #42, 0.5625000000000000000 ) ;
#230 =( NAMED_UNIT ( * ) SI_UNIT ( $, .STERADIAN. ) SOLID_ANGLE_UNIT ( ) );
#231 = EDGE_CURVE ( 'NONE', #83, #133, #22, .T. ) ;
#232 = VERTEX_POINT ( 'NONE', #318 ) ;
#233 = EDGE_CURVE ( 'NONE', #106, #102, #92, .T. ) ;
#234 = CIRCLE ( 'NONE', #53, 0.5113651627795275900 ) ;
#235 = ADVANCED_FACE ( 'NONE', ( #180 ), #85, .F. ) ;
#236 = UNCERTAINTY_MEASURE_WITH_UNIT (LENGTH_MEASURE( 1.000000000000000100E-005 ), #101, 'distance_accuracy_value', 'NONE');
#237 = ADVANCED_FACE ( 'NONE', ( #143 ), #267, .F. ) ;
#238 = ORIENTED_EDGE ( 'NONE', *, *, #57, .T. ) ;
#239 = CARTESIAN_POINT ( 'NONE',  ( -0.5113651627795275900, 0.0000000000000000000, -8.537024980200822600E-018 ) ) ;
#240 = ORIENTED_EDGE ( 'NONE', *, *, #112, .T. ) ;
#241 = COLOUR_RGB ( '',0.5098039215686274200, 0.5098039215686274200, 0.5490196078431373000 ) ;
#242 = CARTESIAN_POINT ( 'NONE',  ( 0.0000000000000000000, 0.0000000000000000000, 0.0000000000000000000 ) ) ;
#243 = STYLED_ITEM ( 'NONE', ( #58 ), #203 ) ;
#244 = DIRECTION ( 'NONE',  ( -0.0000000000000000000, -0.0000000000000000000, -1.000000000000000000 ) ) ;
#245 = ORIENTED_EDGE ( 'NONE', *, *, #62, .F. ) ;
#246 = EDGE_LOOP ( 'NONE', ( #253, #67, #189, #210, #228 ) ) ;
#247 = CARTESIAN_POINT ( 'NONE',  ( 0.0000000000000000000, 0.0000000000000000000, -8.537024980200822600E-018 ) ) ;
#248 = ORIENTED_EDGE ( 'NONE', *, *, #187, .F. ) ;
#249 = DIRECTION ( 'NONE',  ( 0.0000000000000000000, 0.0000000000000000000, 1.000000000000000000 ) ) ;
#250 = CARTESIAN_POINT ( 'NONE',  ( 0.0000000000000000000, 0.0000000000000000000, 0.01968503937007875700 ) ) ;
#251 =( LENGTH_UNIT ( ) NAMED_UNIT ( * ) SI_UNIT ( $, .METRE. ) );
#252 = DIRECTION ( 'NONE',  ( 1.000000000000000000, 0.0000000000000000000, 0.0000000000000000000 ) ) ;
#253 = ORIENTED_EDGE ( 'NONE', *, *, #284, .T. ) ;
#254 = EDGE_CURVE ( 'NONE', #139, #133, #155, .T. ) ;
#255 = EDGE_LOOP ( 'NONE', ( #12, #285, #283, #103 ) ) ;
#256 = SURFACE_SIDE_STYLE ('',( #328 ) ) ;
#257 =( NAMED_UNIT ( * ) SI_UNIT ( $, .STERADIAN. ) SOLID_ANGLE_UNIT ( ) );
#258 = ORIENTED_EDGE ( 'NONE', *, *, #126, .T. ) ;
#259 = ORIENTED_EDGE ( 'NONE', *, *, #310, .T. ) ;
#260 = ADVANCED_FACE ( 'NONE', ( #297, #148 ), #68, .T. ) ;
#261 = LENGTH_MEASURE_WITH_UNIT ( LENGTH_MEASURE( 0.02539999999999999900 ), #48 );
#262 = EDGE_LOOP ( 'NONE', ( #223, #258 ) ) ;
#263 = COLOUR_RGB ( '',0.5098039215686274200, 0.5098039215686274200, 0.5490196078431373000 ) ;
#264 = AXIS2_PLACEMENT_3D ( 'NONE', #14, #226, #252 ) ;
#265 = CLOSED_SHELL ( 'NONE', ( #309, #336, #208, #31, #205, #182, #260, #342, #235, #237 ) ) ;
#266 = DIRECTION ( 'NONE',  ( -1.000000000000000000, 0.0000000000000000000, 0.0000000000000000000 ) ) ;
#267 = CYLINDRICAL_SURFACE ( 'NONE', #335, 0.5000000000000000000 ) ;
#268 = CIRCLE ( 'NONE', #84, 0.5625000000000000000 ) ;
#269 = DIRECTION ( 'NONE',  ( 1.000000000000000000, 0.0000000000000000000, 0.0000000000000000000 ) ) ;
#270 = AXIS2_PLACEMENT_3D ( 'NONE', #242, #39, #266 ) ;
#271 = DIRECTION ( 'NONE',  ( 0.0000000000000000000, 0.0000000000000000000, 1.000000000000000000 ) ) ;
#272 = ORIENTED_EDGE ( 'NONE', *, *, #332, .F. ) ;
#273 = CARTESIAN_POINT ( 'NONE',  ( 0.5369325813897638500, 0.0000000000000000000, 0.0000000000000000000 ) ) ;
#274 = CARTESIAN_POINT ( 'NONE',  ( 0.0000000000000000000, 0.0000000000000000000, 0.0000000000000000000 ) ) ;
#275 = CARTESIAN_POINT ( 'NONE',  ( 0.0000000000000000000, 0.0000000000000000000, 0.4842519685039370400 ) ) ;
#276 = EDGE_LOOP ( 'NONE', ( #238, #171, #65, #288 ) ) ;
#277 = DIRECTION ( 'NONE',  ( 0.0000000000000000000, 1.214154663850783900E-016, -1.000000000000000000 ) ) ;
#278 =( NAMED_UNIT ( * ) PLANE_ANGLE_UNIT ( ) SI_UNIT ( $, .RADIAN. ) );
#279 = AXIS2_PLACEMENT_3D ( 'NONE', #217, #93, #168 ) ;
#280 = LINE ( 'NONE', #329, #207 ) ;
#281 = PLANE ( 'NONE',  #95 ) ;
#282 = APPLICATION_CONTEXT ( 'automotive_design' ) ;
#283 = ORIENTED_EDGE ( 'NONE', *, *, #151, .F. ) ;
#284 = EDGE_CURVE ( 'NONE', #139, #232, #16, .T. ) ;
#285 = ORIENTED_EDGE ( 'NONE', *, *, #163, .T. ) ;
#286 = CYLINDRICAL_SURFACE ( 'NONE', #43, 0.5625000000000000000 ) ;
#287 = AXIS2_PLACEMENT_3D ( 'NONE', #317, #320, #166 ) ;
#288 = ORIENTED_EDGE ( 'NONE', *, *, #316, .F. ) ;
#289 = ORIENTED_EDGE ( 'NONE', *, *, #4, .T. ) ;
#290 = DIRECTION ( 'NONE',  ( -0.0000000000000000000, -0.0000000000000000000, -1.000000000000000000 ) ) ;
#291 = FILL_AREA_STYLE ('',( #114 ) ) ;
#292 = CIRCLE ( 'NONE', #202, 0.5000000000000000000 ) ;
#293 =( LENGTH_UNIT ( ) NAMED_UNIT ( * ) SI_UNIT ( $, .METRE. ) );
#294 = EDGE_CURVE ( 'NONE', #164, #215, #70, .T. ) ;
#295 = ORIENTED_EDGE ( 'NONE', *, *, #231, .F. ) ;
#296 = CARTESIAN_POINT ( 'NONE',  ( 0.5625000000000000000, 0.0000000000000000000, 0.0000000000000000000 ) ) ;
#297 = FACE_BOUND ( 'NONE', #262, .T. ) ;
#298 = CARTESIAN_POINT ( 'NONE',  ( 0.5113651627795275900, 6.262417097934137600E-017, -8.537024980200822600E-018 ) ) ;
#299 = CARTESIAN_POINT ( 'NONE',  ( 0.5625000000000000000, 0.0000000000000000000, 0.4842519685039370400 ) ) ;
#300 = DIRECTION ( 'NONE',  ( 1.000000000000000000, 0.0000000000000000000, 0.0000000000000000000 ) ) ;
#301 = AXIS2_PLACEMENT_3D ( 'NONE', #30, #312, #209 ) ;
#302 = DIRECTION ( 'NONE',  ( 1.000000000000000000, 0.0000000000000000000, 0.0000000000000000000 ) ) ;
#303 = EDGE_LOOP ( 'NONE', ( #245, #289, #307, #176, #240 ) ) ;
#304 = APPLICATION_PROTOCOL_DEFINITION ( 'draft international standard', 'automotive_design', 1998, #17 ) ;
#305 = EDGE_CURVE ( 'NONE', #164, #128, #338, .T. ) ;
#306 = CIRCLE ( 'NONE', #25, 0.5625000000000000000 ) ;
#307 = ORIENTED_EDGE ( 'NONE', *, *, #254, .T. ) ;
#308 = VECTOR ( 'NONE', #142, 39.37007874015748100 ) ;
#309 = ADVANCED_FACE ( 'NONE', ( #201 ), #286, .T. ) ;
#310 = EDGE_CURVE ( 'NONE', #215, #83, #280, .T. ) ;
#311 = PRODUCT ( 'A-TSI-1618-16', 'A-TSI-1618-16', '', ( #73 ) ) ;
#312 = DIRECTION ( 'NONE',  ( 0.0000000000000000000, 1.214154663850783900E-016, -1.000000000000000000 ) ) ;
#313 = EDGE_LOOP ( 'NONE', ( #107, #77 ) ) ;
#314 = DIMENSIONAL_EXPONENTS ( 1.000000000000000000, 0.0000000000000000000, 0.0000000000000000000, 0.0000000000000000000, 0.0000000000000000000, 0.0000000000000000000, 0.0000000000000000000 ) ;
#315 = CIRCLE ( 'NONE', #279, 0.5000000000000000000 ) ;
#316 = EDGE_CURVE ( 'NONE', #102, #27, #140, .T. ) ;
#317 = CARTESIAN_POINT ( 'NONE',  ( 0.0000000000000000000, 0.0000000000000000000, 0.9685039370078740700 ) ) ;
#318 = CARTESIAN_POINT ( 'NONE',  ( -0.5625000000000000000, 6.888638245203861900E-017, 0.0000000000000000000 ) ) ;
#319 = EDGE_LOOP ( 'NONE', ( #343, #69, #206, #97 ) ) ;
#320 = DIRECTION ( 'NONE',  ( -0.0000000000000000000, -0.0000000000000000000, -1.000000000000000000 ) ) ;
#321 = CIRCLE ( 'NONE', #301, 0.5443157395511811800 ) ;
#322 = DIRECTION ( 'NONE',  ( -1.000000000000000000, 0.0000000000000000000, 0.0000000000000000000 ) ) ;
#323 = AXIS2_PLACEMENT_3D ( 'NONE', #250, #46, #197 ) ;
#324 = SURFACE_STYLE_USAGE ( .BOTH. , #64 ) ;
#325 = ORIENTED_EDGE ( 'NONE', *, *, #305, .F. ) ;
#326 = LINE ( 'NONE', #298, #194 ) ;
#327 = DIRECTION ( 'NONE',  ( 0.0000000000000000000, 0.0000000000000000000, 1.000000000000000000 ) ) ;
#328 = SURFACE_STYLE_FILL_AREA ( #104 ) ;
#329 = CARTESIAN_POINT ( 'NONE',  ( 0.0000000000000000000, 0.5625000000000000000, 0.9685039370078741800 ) ) ;
#330 = CARTESIAN_POINT ( 'NONE',  ( 0.0000000000000000000, 0.0000000000000000000, 0.9685039370078740700 ) ) ;
#331 = SURFACE_STYLE_USAGE ( .BOTH. , #256 ) ;
#332 = EDGE_CURVE ( 'NONE', #133, #128, #268, .T. ) ;
#333 = FILL_AREA_STYLE_COLOUR ( '', #241 ) ;
#334 = CYLINDRICAL_SURFACE ( 'NONE', #340, 0.5000000000000000000 ) ;
#335 = AXIS2_PLACEMENT_3D ( 'NONE', #224, #13, #144 ) ;
#336 = ADVANCED_FACE ( 'NONE', ( #78 ), #195, .T. ) ;
#337 = VERTEX_POINT ( 'NONE', #178 ) ;
#338 = LINE ( 'NONE', #96, #63 ) ;
#339 = CARTESIAN_POINT ( 'NONE',  ( 0.0000000000000000000, 0.0000000000000000000, 0.5098425196850393500 ) ) ;
#340 = AXIS2_PLACEMENT_3D ( 'NONE', #339, #28, #214 ) ;
#341 = DIRECTION ( 'NONE',  ( 1.000000000000000000, 0.0000000000000000000, 8.537024980200822600E-018 ) ) ;
#342 = ADVANCED_FACE ( 'NONE', ( #150, #156 ), #281, .T. ) ;
#343 = ORIENTED_EDGE ( 'NONE', *, *, #130, .F. ) ;
ENDSEC;
END-ISO-10303-21;
