ISO-10303-21;
HEADER;
FILE_DESCRIPTION (( 'STEP AP214' ),
    '1' );
FILE_NAME ('ABP-2016-P10.STEP',
    '2019-02-22T20:02:07',
    ( '' ),
    ( '' ),
    'SwSTEP 2.0',
    'SolidWorks 2018',
    '' );
FILE_SCHEMA (( 'AUTOMOTIVE_DESIGN' ));
ENDSEC;

DATA;
#1 = FACE_BOUND ( 'NONE', #241, .T. ) ;
#2 = ORIENTED_EDGE ( 'NONE', *, *, #41, .F. ) ;
#3 = AXIS2_PLACEMENT_3D ( 'NONE', #9, #45, #201 ) ;
#4 = LINE ( 'NONE', #20, #177 ) ;
#5 = ORIENTED_EDGE ( 'NONE', *, *, #29, .T. ) ;
#6 = EDGE_LOOP ( 'NONE', ( #212 ) ) ;
#7 = CARTESIAN_POINT ( 'NONE',  ( 7.440000000000000391, 0.0000000000000000000, -9.439999999999999503 ) ) ;
#8 = DIRECTION ( 'NONE',  ( -1.000000000000000000, -0.0000000000000000000, -0.0000000000000000000 ) ) ;
#9 = CARTESIAN_POINT ( 'NONE',  ( 7.125000000000000000, 0.0000000000000000000, 9.125000000000000000 ) ) ;
#10 = VERTEX_POINT ( 'NONE', #85 ) ;
#11 = DIRECTION ( 'NONE',  ( 0.0000000000000000000, 0.0000000000000000000, -1.000000000000000000 ) ) ;
#12 = AXIS2_PLACEMENT_3D ( 'NONE', #7, #172, #199 ) ;
#13 = CARTESIAN_POINT ( 'NONE',  ( 7.125000000000000000, -0.08000000000000000167, 8.999999999999998224 ) ) ;
#14 = CARTESIAN_POINT ( 'NONE',  ( 0.0000000000000000000, 0.0000000000000000000, 0.0000000000000000000 ) ) ;
#15 = CARTESIAN_POINT ( 'NONE',  ( 7.440000000000000391, 0.0000000000000000000, 0.0000000000000000000 ) ) ;
#16 =( CONVERSION_BASED_UNIT ( 'INCH', #262 ) LENGTH_UNIT ( ) NAMED_UNIT ( #26 ) );
#17 = CARTESIAN_POINT ( 'NONE',  ( 7.125000000000000000, 0.0000000000000000000, -9.250000000000000000 ) ) ;
#18 = VECTOR ( 'NONE', #121, 39.37007874015748143 ) ;
#19 = DIRECTION ( 'NONE',  ( 0.0000000000000000000, 0.0000000000000000000, -1.000000000000000000 ) ) ;
#20 = CARTESIAN_POINT ( 'NONE',  ( -7.440000000000000391, 0.0000000000000000000, 0.0000000000000000000 ) ) ;
#21 = LENGTH_MEASURE_WITH_UNIT ( LENGTH_MEASURE( 0.02539999999999999897 ), #341 );
#22 = CYLINDRICAL_SURFACE ( 'NONE', #343, 0.1250000000000004441 ) ;
#23 = EDGE_LOOP ( 'NONE', ( #220, #307, #42, #61 ) ) ;
#24 = VERTEX_POINT ( 'NONE', #281 ) ;
#25 = FILL_AREA_STYLE ('',( #296 ) ) ;
#26 = DIMENSIONAL_EXPONENTS ( 1.000000000000000000, 0.0000000000000000000, 0.0000000000000000000, 0.0000000000000000000, 0.0000000000000000000, 0.0000000000000000000, 0.0000000000000000000 ) ;
#27 = LINE ( 'NONE', #15, #219 ) ;
#28 = ADVANCED_FACE ( 'NONE', ( #283 ), #221, .T. ) ;
#29 = EDGE_CURVE ( 'NONE', #168, #10, #77, .T. ) ;
#30 = ORIENTED_EDGE ( 'NONE', *, *, #298, .F. ) ;
#31 = VERTEX_POINT ( 'NONE', #141 ) ;
#32 = MECHANICAL_DESIGN_GEOMETRIC_PRESENTATION_REPRESENTATION (  '', ( #232 ), #335 ) ;
#33 = PRODUCT ( 'ABP-2016-P10', 'ABP-2016-P10', '', ( #50 ) ) ;
#34 = CIRCLE ( 'NONE', #300, 0.1250000000000004441 ) ;
#35 = ORIENTED_EDGE ( 'NONE', *, *, #164, .T. ) ;
#36 = CARTESIAN_POINT ( 'NONE',  ( 7.440000000000000391, -0.08000000000000000167, -9.439999999999999503 ) ) ;
#37 = AXIS2_PLACEMENT_3D ( 'NONE', #180, #268, #154 ) ;
#38 = DIRECTION ( 'NONE',  ( 0.0000000000000000000, -1.000000000000000000, 0.0000000000000000000 ) ) ;
#39 = PRESENTATION_STYLE_ASSIGNMENT (( #314 ) ) ;
#40 = SURFACE_STYLE_FILL_AREA ( #25 ) ;
#41 = EDGE_CURVE ( 'NONE', #222, #222, #294, .T. ) ;
#42 = ORIENTED_EDGE ( 'NONE', *, *, #275, .F. ) ;
#43 = CARTESIAN_POINT ( 'NONE',  ( 7.125000000000000000, 0.0000000000000000000, -9.125000000000000000 ) ) ;
#44 = CARTESIAN_POINT ( 'NONE',  ( -7.440000000000000391, -0.08000000000000000167, -9.439999999999999503 ) ) ;
#45 = DIRECTION ( 'NONE',  ( 0.0000000000000000000, -1.000000000000000000, 0.0000000000000000000 ) ) ;
#46 = FACE_OUTER_BOUND ( 'NONE', #58, .T. ) ;
#47 =( NAMED_UNIT ( * ) PLANE_ANGLE_UNIT ( ) SI_UNIT ( $, .RADIAN. ) );
#48 = AXIS2_PLACEMENT_3D ( 'NONE', #14, #64, #206 ) ;
#49 = FACE_BOUND ( 'NONE', #84, .T. ) ;
#50 = PRODUCT_CONTEXT ( 'NONE', #242, 'mechanical' ) ;
#51 = EDGE_LOOP ( 'NONE', ( #90 ) ) ;
#52 = PRESENTATION_LAYER_ASSIGNMENT (  '', '', ( #200 ) ) ;
#53 = FACE_BOUND ( 'NONE', #224, .T. ) ;
#54 = SURFACE_SIDE_STYLE ('',( #40 ) ) ;
#55 = EDGE_LOOP ( 'NONE', ( #284 ) ) ;
#56 = CLOSED_SHELL ( 'NONE', ( #106, #82, #215, #132, #270, #273, #28, #190, #193, #131 ) ) ;
#57 = FACE_BOUND ( 'NONE', #6, .T. ) ;
#58 = EDGE_LOOP ( 'NONE', ( #210, #120, #332, #173 ) ) ;
#59 = EDGE_CURVE ( 'NONE', #238, #238, #194, .T. ) ;
#60 = LINE ( 'NONE', #44, #104 ) ;
#61 = ORIENTED_EDGE ( 'NONE', *, *, #164, .F. ) ;
#62 = ORIENTED_EDGE ( 'NONE', *, *, #191, .T. ) ;
#63 = CARTESIAN_POINT ( 'NONE',  ( -7.125000000000000000, 0.0000000000000000000, 9.125000000000000000 ) ) ;
#64 = DIRECTION ( 'NONE',  ( -0.0000000000000000000, 1.000000000000000000, 0.0000000000000000000 ) ) ;
#65 = PLANE ( 'NONE',  #282 ) ;
#66 = VERTEX_POINT ( 'NONE', #13 ) ;
#67 = CARTESIAN_POINT ( 'NONE',  ( 7.440000000000000391, -0.08000000000000000167, -9.439999999999999503 ) ) ;
#68 = EDGE_LOOP ( 'NONE', ( #327 ) ) ;
#69 = MECHANICAL_DESIGN_GEOMETRIC_PRESENTATION_REPRESENTATION (  '', ( #200 ), #246 ) ;
#70 = DIRECTION ( 'NONE',  ( -0.0000000000000000000, 1.000000000000000000, -0.0000000000000000000 ) ) ;
#71 = CARTESIAN_POINT ( 'NONE',  ( -7.125000000000000000, 0.0000000000000000000, 8.999999999999998224 ) ) ;
#72 = FILL_AREA_STYLE ('',( #334 ) ) ;
#73 = DIRECTION ( 'NONE',  ( 0.0000000000000000000, -0.0000000000000000000, 1.000000000000000000 ) ) ;
#74 = ORIENTED_EDGE ( 'NONE', *, *, #81, .T. ) ;
#75 =( LENGTH_UNIT ( ) NAMED_UNIT ( * ) SI_UNIT ( $, .METRE. ) );
#76 = CYLINDRICAL_SURFACE ( 'NONE', #318, 0.1250000000000004441 ) ;
#77 = LINE ( 'NONE', #36, #187 ) ;
#78 = EDGE_LOOP ( 'NONE', ( #230 ) ) ;
#79 = DIRECTION ( 'NONE',  ( 1.000000000000000000, 0.0000000000000000000, 0.0000000000000000000 ) ) ;
#80 = ORIENTED_EDGE ( 'NONE', *, *, #255, .T. ) ;
#81 = EDGE_CURVE ( 'NONE', #66, #66, #109, .T. ) ;
#82 = ADVANCED_FACE ( 'NONE', ( #129, #305 ), #113, .F. ) ;
#83 = DIRECTION ( 'NONE',  ( -1.000000000000000000, 0.0000000000000000000, -0.0000000000000000000 ) ) ;
#84 = EDGE_LOOP ( 'NONE', ( #317 ) ) ;
#85 = CARTESIAN_POINT ( 'NONE',  ( -7.440000000000000391, -0.08000000000000000167, -9.439999999999999503 ) ) ;
#86 = COLOUR_RGB ( '',0.7921568627450980005, 0.8196078431372548767, 0.9333333333333333481 ) ;
#87 = DIRECTION ( 'NONE',  ( 0.0000000000000000000, 0.0000000000000000000, -1.000000000000000000 ) ) ;
#88 = DIRECTION ( 'NONE',  ( 0.0000000000000000000, -0.0000000000000000000, 1.000000000000000000 ) ) ;
#89 = CARTESIAN_POINT ( 'NONE',  ( 0.0000000000000000000, 0.0000000000000000000, 9.439999999999999503 ) ) ;
#90 = ORIENTED_EDGE ( 'NONE', *, *, #298, .T. ) ;
#91 = CARTESIAN_POINT ( 'NONE',  ( 7.125000000000000000, 0.0000000000000000000, 9.125000000000000000 ) ) ;
#92 = DIRECTION ( 'NONE',  ( 0.0000000000000000000, 0.0000000000000000000, -1.000000000000000000 ) ) ;
#93 = CARTESIAN_POINT ( 'NONE',  ( -7.125000000000000000, 0.0000000000000000000, -9.250000000000000000 ) ) ;
#94 = CARTESIAN_POINT ( 'NONE',  ( 7.440000000000000391, 0.0000000000000000000, 9.439999999999999503 ) ) ;
#95 = CARTESIAN_POINT ( 'NONE',  ( -7.125000000000000000, 0.0000000000000000000, -9.125000000000000000 ) ) ;
#96 = FACE_OUTER_BOUND ( 'NONE', #78, .T. ) ;
#97 =( NAMED_UNIT ( * ) SI_UNIT ( $, .STERADIAN. ) SOLID_ANGLE_UNIT ( ) );
#98 = AXIS2_PLACEMENT_3D ( 'NONE', #265, #70, #292 ) ;
#99 = CARTESIAN_POINT ( 'NONE',  ( -7.125000000000000000, 0.0000000000000000000, 9.125000000000000000 ) ) ;
#100 = DIRECTION ( 'NONE',  ( 1.000000000000000000, 0.0000000000000000000, -0.0000000000000000000 ) ) ;
#101 = VERTEX_POINT ( 'NONE', #93 ) ;
#102 = ORIENTED_EDGE ( 'NONE', *, *, #275, .T. ) ;
#103 = AXIS2_PLACEMENT_3D ( 'NONE', #290, #243, #79 ) ;
#104 = VECTOR ( 'NONE', #111, 39.37007874015748143 ) ;
#105 = EDGE_CURVE ( 'NONE', #339, #10, #326, .T. ) ;
#106 = ADVANCED_FACE ( 'NONE', ( #344, #245, #57, #1, #46 ), #152, .T. ) ;
#107 = ORIENTED_EDGE ( 'NONE', *, *, #41, .T. ) ;
#108 = DIRECTION ( 'NONE',  ( 0.0000000000000000000, 0.0000000000000000000, 1.000000000000000000 ) ) ;
#109 = CIRCLE ( 'NONE', #309, 0.1250000000000004441 ) ;
#110 =( GEOMETRIC_REPRESENTATION_CONTEXT ( 3 ) GLOBAL_UNCERTAINTY_ASSIGNED_CONTEXT ( ( #340 ) ) GLOBAL_UNIT_ASSIGNED_CONTEXT ( ( #217, #240, #185 ) ) REPRESENTATION_CONTEXT ( 'NONE', 'WORKASPACE' ) );
#111 = DIRECTION ( 'NONE',  ( 0.0000000000000000000, 0.0000000000000000000, 1.000000000000000000 ) ) ;
#112 = EDGE_CURVE ( 'NONE', #182, #272, #166, .T. ) ;
#113 = CYLINDRICAL_SURFACE ( 'NONE', #321, 0.1250000000000004441 ) ;
#114 = CARTESIAN_POINT ( 'NONE',  ( 7.125000000000000000, -0.08000000000000000167, 9.125000000000000000 ) ) ;
#115 = EDGE_LOOP ( 'NONE', ( #74 ) ) ;
#116 = DIRECTION ( 'NONE',  ( 0.0000000000000000000, 0.0000000000000000000, -1.000000000000000000 ) ) ;
#117 = DIRECTION ( 'NONE',  ( 0.0000000000000000000, -1.000000000000000000, 0.0000000000000000000 ) ) ;
#118 = PRODUCT_DEFINITION_FORMATION_WITH_SPECIFIED_SOURCE ( 'ANY', '', #33, .NOT_KNOWN. ) ;
#119 = CYLINDRICAL_SURFACE ( 'NONE', #3, 0.1250000000000004441 ) ;
#120 = ORIENTED_EDGE ( 'NONE', *, *, #112, .T. ) ;
#121 = DIRECTION ( 'NONE',  ( 0.0000000000000000000, 0.0000000000000000000, -1.000000000000000000 ) ) ;
#122 = DIRECTION ( 'NONE',  ( -0.0000000000000000000, 0.0000000000000000000, -1.000000000000000000 ) ) ;
#123 = DIRECTION ( 'NONE',  ( -0.0000000000000000000, -1.000000000000000000, -0.0000000000000000000 ) ) ;
#124 = PLANE ( 'NONE',  #37 ) ;
#125 = PRESENTATION_STYLE_ASSIGNMENT (( #153 ) ) ;
#126 = AXIS2_PLACEMENT_3D ( 'NONE', #63, #38, #11 ) ;
#127 = APPLICATION_PROTOCOL_DEFINITION ( 'draft international standard', 'automotive_design', 1998, #242 ) ;
#128 = CIRCLE ( 'NONE', #98, 0.1250000000000004441 ) ;
#129 = FACE_OUTER_BOUND ( 'NONE', #197, .T. ) ;
#130 = EDGE_LOOP ( 'NONE', ( #264, #249, #302, #5 ) ) ;
#131 = ADVANCED_FACE ( 'NONE', ( #135, #53, #269, #49, #271 ), #65, .F. ) ;
#132 = ADVANCED_FACE ( 'NONE', ( #288, #96 ), #119, .F. ) ;
#133 = PRODUCT_DEFINITION_SHAPE ( 'NONE', 'NONE',  #325 ) ;
#134 = EDGE_CURVE ( 'NONE', #293, #293, #251, .T. ) ;
#135 = FACE_BOUND ( 'NONE', #51, .T. ) ;
#136 = EDGE_CURVE ( 'NONE', #24, #339, #178, .T. ) ;
#137 = SURFACE_STYLE_FILL_AREA ( #72 ) ;
#138 = UNCERTAINTY_MEASURE_WITH_UNIT (LENGTH_MEASURE( 1.000000000000000082E-05 ), #316, 'distance_accuracy_value', 'NONE');
#139 = CARTESIAN_POINT ( 'NONE',  ( -7.440000000000000391, 0.0000000000000000000, -9.439999999999999503 ) ) ;
#140 = PRODUCT_RELATED_PRODUCT_CATEGORY ( 'part', '', ( #33 ) ) ;
#141 = CARTESIAN_POINT ( 'NONE',  ( -7.440000000000000391, -0.08000000000000000167, 9.439999999999999503 ) ) ;
#142 = VERTEX_POINT ( 'NONE', #71 ) ;
#143 = ORIENTED_EDGE ( 'NONE', *, *, #248, .F. ) ;
#144 = DIRECTION ( 'NONE',  ( 1.000000000000000000, 0.0000000000000000000, 0.0000000000000000000 ) ) ;
#145 = CARTESIAN_POINT ( 'NONE',  ( -7.125000000000000000, -0.08000000000000000167, -9.125000000000000000 ) ) ;
#146 = EDGE_CURVE ( 'NONE', #142, #142, #196, .T. ) ;
#147 = VECTOR ( 'NONE', #123, 39.37007874015748143 ) ;
#148 = VECTOR ( 'NONE', #8, 39.37007874015748143 ) ;
#149 = DIRECTION ( 'NONE',  ( 0.0000000000000000000, 0.0000000000000000000, -1.000000000000000000 ) ) ;
#150 = ORIENTED_EDGE ( 'NONE', *, *, #267, .T. ) ;
#151 = DIRECTION ( 'NONE',  ( 0.0000000000000000000, -1.000000000000000000, 0.0000000000000000000 ) ) ;
#152 = PLANE ( 'NONE',  #48 ) ;
#153 = SURFACE_STYLE_USAGE ( .BOTH. , #263 ) ;
#154 = DIRECTION ( 'NONE',  ( 1.000000000000000000, 0.0000000000000000000, -0.0000000000000000000 ) ) ;
#155 = CARTESIAN_POINT ( 'NONE',  ( -7.125000000000000000, 0.0000000000000000000, -9.125000000000000000 ) ) ;
#156 = FACE_OUTER_BOUND ( 'NONE', #319, .T. ) ;
#157 = CARTESIAN_POINT ( 'NONE',  ( 7.125000000000000000, 0.0000000000000000000, 8.999999999999998224 ) ) ;
#158 = FACE_OUTER_BOUND ( 'NONE', #205, .T. ) ;
#159 = ORIENTED_EDGE ( 'NONE', *, *, #255, .F. ) ;
#160 = CARTESIAN_POINT ( 'NONE',  ( -7.440000000000000391, 0.0000000000000000000, -9.439999999999999503 ) ) ;
#161 = APPLICATION_PROTOCOL_DEFINITION ( 'draft international standard', 'automotive_design', 1998, #184 ) ;
#162 = EDGE_LOOP ( 'NONE', ( #80 ) ) ;
#163 = ORIENTED_EDGE ( 'NONE', *, *, #105, .T. ) ;
#164 = EDGE_CURVE ( 'NONE', #10, #31, #60, .T. ) ;
#165 = LINE ( 'NONE', #237, #169 ) ;
#166 = LINE ( 'NONE', #89, #253 ) ;
#167 = ORIENTED_EDGE ( 'NONE', *, *, #146, .F. ) ;
#168 = VERTEX_POINT ( 'NONE', #67 ) ;
#169 = VECTOR ( 'NONE', #100, 39.37007874015748143 ) ;
#170 = AXIS2_PLACEMENT_3D ( 'NONE', #229, #225, #116 ) ;
#171 = PLANE ( 'NONE',  #12 ) ;
#172 = DIRECTION ( 'NONE',  ( 0.0000000000000000000, 0.0000000000000000000, -1.000000000000000000 ) ) ;
#173 = ORIENTED_EDGE ( 'NONE', *, *, #136, .T. ) ;
#174 = DIRECTION ( 'NONE',  ( -0.0000000000000000000, -1.000000000000000000, 0.0000000000000000000 ) ) ;
#175 = CARTESIAN_POINT ( 'NONE',  ( -7.440000000000000391, 0.0000000000000000000, 9.439999999999999503 ) ) ;
#176 = DIRECTION ( 'NONE',  ( 0.0000000000000000000, -1.000000000000000000, 0.0000000000000000000 ) ) ;
#177 = VECTOR ( 'NONE', #73, 39.37007874015748143 ) ;
#178 = LINE ( 'NONE', #331, #148 ) ;
#179 =( LENGTH_UNIT ( ) NAMED_UNIT ( * ) SI_UNIT ( $, .METRE. ) );
#180 = CARTESIAN_POINT ( 'NONE',  ( -7.440000000000000391, 0.0000000000000000000, 9.439999999999999503 ) ) ;
#181 = AXIS2_PLACEMENT_3D ( 'NONE', #139, #250, #108 ) ;
#182 = VERTEX_POINT ( 'NONE', #231 ) ;
#183 = ORIENTED_EDGE ( 'NONE', *, *, #146, .T. ) ;
#184 = APPLICATION_CONTEXT ( 'automotive_design' ) ;
#185 =( NAMED_UNIT ( * ) SI_UNIT ( $, .STERADIAN. ) SOLID_ANGLE_UNIT ( ) );
#186 = CIRCLE ( 'NONE', #303, 0.1250000000000004441 ) ;
#187 = VECTOR ( 'NONE', #83, 39.37007874015748143 ) ;
#188 = CARTESIAN_POINT ( 'NONE',  ( 7.125000000000000000, -0.08000000000000000167, -9.250000000000000000 ) ) ;
#189 = ORIENTED_EDGE ( 'NONE', *, *, #267, .F. ) ;
#190 = ADVANCED_FACE ( 'NONE', ( #214 ), #171, .T. ) ;
#191 = EDGE_CURVE ( 'NONE', #345, #168, #235, .T. ) ;
#192 = COLOUR_RGB ( '',0.7921568627450980005, 0.8196078431372548767, 0.9333333333333333481 ) ;
#193 = ADVANCED_FACE ( 'NONE', ( #279 ), #252, .T. ) ;
#194 = CIRCLE ( 'NONE', #218, 0.1250000000000004441 ) ;
#195 = ORIENTED_EDGE ( 'NONE', *, *, #277, .F. ) ;
#196 = CIRCLE ( 'NONE', #126, 0.1250000000000004441 ) ;
#197 = EDGE_LOOP ( 'NONE', ( #30 ) ) ;
#198 = AXIS2_PLACEMENT_3D ( 'NONE', #94, #233, #266 ) ;
#199 = DIRECTION ( 'NONE',  ( -1.000000000000000000, 0.0000000000000000000, -0.0000000000000000000 ) ) ;
#200 = STYLED_ITEM ( 'NONE', ( #39 ), #324 ) ;
#201 = DIRECTION ( 'NONE',  ( 0.0000000000000000000, 0.0000000000000000000, -1.000000000000000000 ) ) ;
#202 = CARTESIAN_POINT ( 'NONE',  ( -7.440000000000000391, 0.0000000000000000000, -9.439999999999999503 ) ) ;
#203 = MANIFOLD_SOLID_BREP ( 'Imported1', #56 ) ;
#204 = DIRECTION ( 'NONE',  ( -0.0000000000000000000, 1.000000000000000000, -0.0000000000000000000 ) ) ;
#205 = EDGE_LOOP ( 'NONE', ( #159 ) ) ;
#206 = DIRECTION ( 'NONE',  ( 0.0000000000000000000, -0.0000000000000000000, 1.000000000000000000 ) ) ;
#207 = CARTESIAN_POINT ( 'NONE',  ( 7.440000000000000391, 0.0000000000000000000, 9.439999999999999503 ) ) ;
#208 = CARTESIAN_POINT ( 'NONE',  ( 7.440000000000000391, -0.08000000000000000167, 9.439999999999999503 ) ) ;
#209 = CARTESIAN_POINT ( 'NONE',  ( 7.440000000000000391, 0.0000000000000000000, 9.439999999999999503 ) ) ;
#210 = ORIENTED_EDGE ( 'NONE', *, *, #226, .T. ) ;
#211 = PRODUCT_DEFINITION_CONTEXT ( 'detailed design', #184, 'design' ) ;
#212 = ORIENTED_EDGE ( 'NONE', *, *, #59, .T. ) ;
#213 = EDGE_CURVE ( 'NONE', #24, #168, #301, .T. ) ;
#214 = FACE_OUTER_BOUND ( 'NONE', #130, .T. ) ;
#215 = ADVANCED_FACE ( 'NONE', ( #322, #158 ), #22, .F. ) ;
#216 = AXIS2_PLACEMENT_3D ( 'NONE', #145, #308, #87 ) ;
#217 =( CONVERSION_BASED_UNIT ( 'INCH', #347 ) LENGTH_UNIT ( ) NAMED_UNIT ( #247 ) );
#218 = AXIS2_PLACEMENT_3D ( 'NONE', #91, #117, #92 ) ;
#219 = VECTOR ( 'NONE', #122, 39.37007874015748143 ) ;
#220 = ORIENTED_EDGE ( 'NONE', *, *, #29, .F. ) ;
#221 = PLANE ( 'NONE',  #181 ) ;
#222 = VERTEX_POINT ( 'NONE', #310 ) ;
#223 = PRESENTATION_LAYER_ASSIGNMENT (  '', '', ( #232 ) ) ;
#224 = EDGE_LOOP ( 'NONE', ( #107 ) ) ;
#225 = DIRECTION ( 'NONE',  ( 0.0000000000000000000, -1.000000000000000000, 0.0000000000000000000 ) ) ;
#226 = EDGE_CURVE ( 'NONE', #339, #182, #4, .T. ) ;
#227 = FACE_OUTER_BOUND ( 'NONE', #320, .T. ) ;
#228 = EDGE_LOOP ( 'NONE', ( #338, #143, #195, #62 ) ) ;
#229 = CARTESIAN_POINT ( 'NONE',  ( 7.125000000000000000, 0.0000000000000000000, -9.125000000000000000 ) ) ;
#230 = ORIENTED_EDGE ( 'NONE', *, *, #59, .F. ) ;
#231 = CARTESIAN_POINT ( 'NONE',  ( -7.440000000000000391, 0.0000000000000000000, 9.439999999999999503 ) ) ;
#232 = STYLED_ITEM ( 'NONE', ( #125 ), #203 ) ;
#233 = DIRECTION ( 'NONE',  ( 1.000000000000000000, -0.0000000000000000000, 0.0000000000000000000 ) ) ;
#234 = DIRECTION ( 'NONE',  ( -0.0000000000000000000, 1.000000000000000000, 0.0000000000000000000 ) ) ;
#235 = LINE ( 'NONE', #208, #18 ) ;
#236 = DIRECTION ( 'NONE',  ( 0.0000000000000000000, -1.000000000000000000, -0.0000000000000000000 ) ) ;
#237 = CARTESIAN_POINT ( 'NONE',  ( -7.440000000000000391, -0.08000000000000000167, 9.439999999999999503 ) ) ;
#238 = VERTEX_POINT ( 'NONE', #157 ) ;
#239 = EDGE_LOOP ( 'NONE', ( #280 ) ) ;
#240 =( NAMED_UNIT ( * ) PLANE_ANGLE_UNIT ( ) SI_UNIT ( $, .RADIAN. ) );
#241 = EDGE_LOOP ( 'NONE', ( #183 ) ) ;
#242 = APPLICATION_CONTEXT ( 'automotive_design' ) ;
#243 = DIRECTION ( 'NONE',  ( 0.0000000000000000000, 0.0000000000000000000, 1.000000000000000000 ) ) ;
#244 = LINE ( 'NONE', #209, #278 ) ;
#245 = FACE_BOUND ( 'NONE', #162, .T. ) ;
#246 =( GEOMETRIC_REPRESENTATION_CONTEXT ( 3 ) GLOBAL_UNCERTAINTY_ASSIGNED_CONTEXT ( ( #138 ) ) GLOBAL_UNIT_ASSIGNED_CONTEXT ( ( #316, #346, #342 ) ) REPRESENTATION_CONTEXT ( 'NONE', 'WORKASPACE' ) );
#247 = DIMENSIONAL_EXPONENTS ( 1.000000000000000000, 0.0000000000000000000, 0.0000000000000000000, 0.0000000000000000000, 0.0000000000000000000, 0.0000000000000000000, 0.0000000000000000000 ) ;
#248 = EDGE_CURVE ( 'NONE', #272, #24, #27, .T. ) ;
#249 = ORIENTED_EDGE ( 'NONE', *, *, #136, .F. ) ;
#250 = DIRECTION ( 'NONE',  ( -1.000000000000000000, 0.0000000000000000000, 0.0000000000000000000 ) ) ;
#251 = CIRCLE ( 'NONE', #170, 0.1250000000000004441 ) ;
#252 = PLANE ( 'NONE',  #198 ) ;
#253 = VECTOR ( 'NONE', #144, 39.37007874015748143 ) ;
#254 = ORIENTED_EDGE ( 'NONE', *, *, #112, .F. ) ;
#255 = EDGE_CURVE ( 'NONE', #101, #101, #34, .T. ) ;
#256 = EDGE_LOOP ( 'NONE', ( #295 ) ) ;
#257 = DIRECTION ( 'NONE',  ( -0.0000000000000000000, 1.000000000000000000, -0.0000000000000000000 ) ) ;
#258 = CARTESIAN_POINT ( 'NONE',  ( 0.0000000000000000000, -0.08000000000000000167, 0.0000000000000000000 ) ) ;
#259 = EDGE_CURVE ( 'NONE', #329, #329, #186, .T. ) ;
#260 = CARTESIAN_POINT ( 'NONE',  ( -7.125000000000000000, -0.08000000000000000167, 8.999999999999998224 ) ) ;
#261 = LINE ( 'NONE', #175, #312 ) ;
#262 = LENGTH_MEASURE_WITH_UNIT ( LENGTH_MEASURE( 0.02539999999999999897 ), #179 );
#263 = SURFACE_SIDE_STYLE ('',( #137 ) ) ;
#264 = ORIENTED_EDGE ( 'NONE', *, *, #105, .F. ) ;
#265 = CARTESIAN_POINT ( 'NONE',  ( 7.125000000000000000, -0.08000000000000000167, -9.125000000000000000 ) ) ;
#266 = DIRECTION ( 'NONE',  ( 0.0000000000000000000, 0.0000000000000000000, -1.000000000000000000 ) ) ;
#267 = EDGE_CURVE ( 'NONE', #182, #31, #261, .T. ) ;
#268 = DIRECTION ( 'NONE',  ( 0.0000000000000000000, 0.0000000000000000000, 1.000000000000000000 ) ) ;
#269 = FACE_BOUND ( 'NONE', #115, .T. ) ;
#270 = ADVANCED_FACE ( 'NONE', ( #299, #156 ), #76, .F. ) ;
#271 = FACE_OUTER_BOUND ( 'NONE', #23, .T. ) ;
#272 = VERTEX_POINT ( 'NONE', #207 ) ;
#273 = ADVANCED_FACE ( 'NONE', ( #227 ), #124, .T. ) ;
#274 = EDGE_LOOP ( 'NONE', ( #2 ) ) ;
#275 = EDGE_CURVE ( 'NONE', #31, #345, #165, .T. ) ;
#276 = DIMENSIONAL_EXPONENTS ( 1.000000000000000000, 0.0000000000000000000, 0.0000000000000000000, 0.0000000000000000000, 0.0000000000000000000, 0.0000000000000000000, 0.0000000000000000000 ) ;
#277 = EDGE_CURVE ( 'NONE', #345, #272, #244, .T. ) ;
#278 = VECTOR ( 'NONE', #234, 39.37007874015748143 ) ;
#279 = FACE_OUTER_BOUND ( 'NONE', #228, .T. ) ;
#280 = ORIENTED_EDGE ( 'NONE', *, *, #134, .F. ) ;
#281 = CARTESIAN_POINT ( 'NONE',  ( 7.440000000000000391, 0.0000000000000000000, -9.439999999999999503 ) ) ;
#282 = AXIS2_PLACEMENT_3D ( 'NONE', #258, #286, #88 ) ;
#283 = FACE_OUTER_BOUND ( 'NONE', #297, .T. ) ;
#284 = ORIENTED_EDGE ( 'NONE', *, *, #259, .F. ) ;
#285 = DIRECTION ( 'NONE',  ( 0.0000000000000000000, -1.000000000000000000, 0.0000000000000000000 ) ) ;
#286 = DIRECTION ( 'NONE',  ( -0.0000000000000000000, 1.000000000000000000, 0.0000000000000000000 ) ) ;
#287 = CARTESIAN_POINT ( 'NONE',  ( 7.440000000000000391, -0.08000000000000000167, 9.439999999999999503 ) ) ;
#288 = FACE_OUTER_BOUND ( 'NONE', #256, .T. ) ;
#289 = ORIENTED_EDGE ( 'NONE', *, *, #277, .T. ) ;
#290 = CARTESIAN_POINT ( 'NONE',  ( 0.0000000000000000000, 0.0000000000000000000, 0.0000000000000000000 ) ) ;
#291 = DIRECTION ( 'NONE',  ( 0.0000000000000000000, -1.000000000000000000, 0.0000000000000000000 ) ) ;
#292 = DIRECTION ( 'NONE',  ( 0.0000000000000000000, 0.0000000000000000000, -1.000000000000000000 ) ) ;
#293 = VERTEX_POINT ( 'NONE', #17 ) ;
#294 = CIRCLE ( 'NONE', #216, 0.1250000000000004441 ) ;
#295 = ORIENTED_EDGE ( 'NONE', *, *, #81, .F. ) ;
#296 = FILL_AREA_STYLE_COLOUR ( '', #192 ) ;
#297 = EDGE_LOOP ( 'NONE', ( #189, #323, #163, #35 ) ) ;
#298 = EDGE_CURVE ( 'NONE', #304, #304, #128, .T. ) ;
#299 = FACE_OUTER_BOUND ( 'NONE', #55, .T. ) ;
#300 = AXIS2_PLACEMENT_3D ( 'NONE', #95, #291, #19 ) ;
#301 = LINE ( 'NONE', #311, #147 ) ;
#302 = ORIENTED_EDGE ( 'NONE', *, *, #213, .T. ) ;
#303 = AXIS2_PLACEMENT_3D ( 'NONE', #337, #204, #333 ) ;
#304 = VERTEX_POINT ( 'NONE', #188 ) ;
#305 = FACE_OUTER_BOUND ( 'NONE', #239, .T. ) ;
#306 = UNCERTAINTY_MEASURE_WITH_UNIT (LENGTH_MEASURE( 1.000000000000000082E-05 ), #16, 'distance_accuracy_value', 'NONE');
#307 = ORIENTED_EDGE ( 'NONE', *, *, #191, .F. ) ;
#308 = DIRECTION ( 'NONE',  ( -0.0000000000000000000, 1.000000000000000000, -0.0000000000000000000 ) ) ;
#309 = AXIS2_PLACEMENT_3D ( 'NONE', #114, #257, #328 ) ;
#310 = CARTESIAN_POINT ( 'NONE',  ( -7.125000000000000000, -0.08000000000000000167, -9.250000000000000000 ) ) ;
#311 = CARTESIAN_POINT ( 'NONE',  ( 7.440000000000000391, 0.0000000000000000000, -9.439999999999999503 ) ) ;
#312 = VECTOR ( 'NONE', #236, 39.37007874015748143 ) ;
#313 = DIRECTION ( 'NONE',  ( 0.0000000000000000000, 0.0000000000000000000, -1.000000000000000000 ) ) ;
#314 = SURFACE_STYLE_USAGE ( .BOTH. , #54 ) ;
#315 = SHAPE_DEFINITION_REPRESENTATION ( #133, #324 ) ;
#316 =( CONVERSION_BASED_UNIT ( 'INCH', #21 ) LENGTH_UNIT ( ) NAMED_UNIT ( #276 ) );
#317 = ORIENTED_EDGE ( 'NONE', *, *, #259, .T. ) ;
#318 = AXIS2_PLACEMENT_3D ( 'NONE', #99, #151, #313 ) ;
#319 = EDGE_LOOP ( 'NONE', ( #167 ) ) ;
#320 = EDGE_LOOP ( 'NONE', ( #289, #254, #150, #102 ) ) ;
#321 = AXIS2_PLACEMENT_3D ( 'NONE', #43, #285, #149 ) ;
#322 = FACE_OUTER_BOUND ( 'NONE', #274, .T. ) ;
#323 = ORIENTED_EDGE ( 'NONE', *, *, #226, .F. ) ;
#324 = ADVANCED_BREP_SHAPE_REPRESENTATION ( 'ABP-2016-P10', ( #203, #103 ), #110 ) ;
#325 = PRODUCT_DEFINITION ( 'UNKNOWN', '', #118, #211 ) ;
#326 = LINE ( 'NONE', #202, #330 ) ;
#327 = ORIENTED_EDGE ( 'NONE', *, *, #134, .T. ) ;
#328 = DIRECTION ( 'NONE',  ( 0.0000000000000000000, 0.0000000000000000000, -1.000000000000000000 ) ) ;
#329 = VERTEX_POINT ( 'NONE', #260 ) ;
#330 = VECTOR ( 'NONE', #174, 39.37007874015748143 ) ;
#331 = CARTESIAN_POINT ( 'NONE',  ( 0.0000000000000000000, 0.0000000000000000000, -9.439999999999999503 ) ) ;
#332 = ORIENTED_EDGE ( 'NONE', *, *, #248, .T. ) ;
#333 = DIRECTION ( 'NONE',  ( 0.0000000000000000000, 0.0000000000000000000, -1.000000000000000000 ) ) ;
#334 = FILL_AREA_STYLE_COLOUR ( '', #86 ) ;
#335 =( GEOMETRIC_REPRESENTATION_CONTEXT ( 3 ) GLOBAL_UNCERTAINTY_ASSIGNED_CONTEXT ( ( #306 ) ) GLOBAL_UNIT_ASSIGNED_CONTEXT ( ( #16, #47, #97 ) ) REPRESENTATION_CONTEXT ( 'NONE', 'WORKASPACE' ) );
#336 = DIRECTION ( 'NONE',  ( 0.0000000000000000000, 0.0000000000000000000, -1.000000000000000000 ) ) ;
#337 = CARTESIAN_POINT ( 'NONE',  ( -7.125000000000000000, -0.08000000000000000167, 9.125000000000000000 ) ) ;
#338 = ORIENTED_EDGE ( 'NONE', *, *, #213, .F. ) ;
#339 = VERTEX_POINT ( 'NONE', #160 ) ;
#340 = UNCERTAINTY_MEASURE_WITH_UNIT (LENGTH_MEASURE( 1.000000000000000082E-05 ), #217, 'distance_accuracy_value', 'NONE');
#341 =( LENGTH_UNIT ( ) NAMED_UNIT ( * ) SI_UNIT ( $, .METRE. ) );
#342 =( NAMED_UNIT ( * ) SI_UNIT ( $, .STERADIAN. ) SOLID_ANGLE_UNIT ( ) );
#343 = AXIS2_PLACEMENT_3D ( 'NONE', #155, #176, #336 ) ;
#344 = FACE_BOUND ( 'NONE', #68, .T. ) ;
#345 = VERTEX_POINT ( 'NONE', #287 ) ;
#346 =( NAMED_UNIT ( * ) PLANE_ANGLE_UNIT ( ) SI_UNIT ( $, .RADIAN. ) );
#347 = LENGTH_MEASURE_WITH_UNIT ( LENGTH_MEASURE( 0.02539999999999999897 ), #75 );
ENDSEC;
END-ISO-10303-21;
