ISO-10303-21;
HEADER;
FILE_DESCRIPTION (( 'STEP AP214' ),
    '1' );
FILE_NAME ('ABP-2424-P10.STEP',
    '2019-02-26T14:06:12',
    ( '' ),
    ( '' ),
    'SwSTEP 2.0',
    'SolidWorks 2018',
    '' );
FILE_SCHEMA (( 'AUTOMOTIVE_DESIGN' ));
ENDSEC;

DATA;
#1 = CARTESIAN_POINT ( 'NONE',  ( 9.625000000000000000, -0.08000000000000000167, -9.625000000000000000 ) ) ;
#2 = EDGE_CURVE ( 'NONE', #82, #82, #332, .T. ) ;
#3 = CARTESIAN_POINT ( 'NONE',  ( 9.625000000000000000, 0.0000000000000000000, 9.625000000000000000 ) ) ;
#4 = ORIENTED_EDGE ( 'NONE', *, *, #138, .T. ) ;
#5 =( LENGTH_UNIT ( ) NAMED_UNIT ( * ) SI_UNIT ( $, .METRE. ) );
#6 = FILL_AREA_STYLE_COLOUR ( '', #92 ) ;
#7 = ORIENTED_EDGE ( 'NONE', *, *, #2, .F. ) ;
#8 = DIRECTION ( 'NONE',  ( 0.0000000000000000000, -0.0000000000000000000, 1.000000000000000000 ) ) ;
#9 = VECTOR ( 'NONE', #209, 39.37007874015748143 ) ;
#10 =( NAMED_UNIT ( * ) SI_UNIT ( $, .STERADIAN. ) SOLID_ANGLE_UNIT ( ) );
#11 = FACE_OUTER_BOUND ( 'NONE', #118, .T. ) ;
#12 = APPLICATION_PROTOCOL_DEFINITION ( 'draft international standard', 'automotive_design', 1998, #240 ) ;
#13 = EDGE_LOOP ( 'NONE', ( #30 ) ) ;
#14 = VERTEX_POINT ( 'NONE', #133 ) ;
#15 =( GEOMETRIC_REPRESENTATION_CONTEXT ( 3 ) GLOBAL_UNCERTAINTY_ASSIGNED_CONTEXT ( ( #105 ) ) GLOBAL_UNIT_ASSIGNED_CONTEXT ( ( #272, #305, #10 ) ) REPRESENTATION_CONTEXT ( 'NONE', 'WORKASPACE' ) );
#16 = EDGE_LOOP ( 'NONE', ( #99 ) ) ;
#17 = FACE_OUTER_BOUND ( 'NONE', #160, .T. ) ;
#18 = DIRECTION ( 'NONE',  ( -0.0000000000000000000, -1.000000000000000000, -0.0000000000000000000 ) ) ;
#19 = EDGE_CURVE ( 'NONE', #299, #178, #345, .T. ) ;
#20 = CARTESIAN_POINT ( 'NONE',  ( 9.625000000000000000, -0.08000000000000000167, 9.625000000000000000 ) ) ;
#21 = CARTESIAN_POINT ( 'NONE',  ( 10.50000000000000000, 0.0000000000000000000, -10.50000000000000000 ) ) ;
#22 = ADVANCED_FACE ( 'NONE', ( #60, #221, #39, #195, #127 ), #246, .T. ) ;
#23 = DIRECTION ( 'NONE',  ( -1.000000000000000000, -0.0000000000000000000, -0.0000000000000000000 ) ) ;
#24 = EDGE_CURVE ( 'NONE', #231, #187, #117, .T. ) ;
#25 = SURFACE_STYLE_USAGE ( .BOTH. , #154 ) ;
#26 = EDGE_LOOP ( 'NONE', ( #125 ) ) ;
#27 = DIRECTION ( 'NONE',  ( -1.000000000000000000, 0.0000000000000000000, 0.0000000000000000000 ) ) ;
#28 = EDGE_LOOP ( 'NONE', ( #330, #338, #76, #145 ) ) ;
#29 = CARTESIAN_POINT ( 'NONE',  ( -10.50000000000000000, -0.08000000000000000167, 10.50000000000000000 ) ) ;
#30 = ORIENTED_EDGE ( 'NONE', *, *, #271, .F. ) ;
#31 = CARTESIAN_POINT ( 'NONE',  ( -10.50000000000000000, -0.08000000000000000167, -10.50000000000000000 ) ) ;
#32 = FACE_OUTER_BOUND ( 'NONE', #308, .T. ) ;
#33 = EDGE_LOOP ( 'NONE', ( #95, #114, #134, #168 ) ) ;
#34 = VERTEX_POINT ( 'NONE', #236 ) ;
#35 = DIRECTION ( 'NONE',  ( -1.000000000000000000, 0.0000000000000000000, -0.0000000000000000000 ) ) ;
#36 = CARTESIAN_POINT ( 'NONE',  ( -10.50000000000000000, 0.0000000000000000000, 10.50000000000000000 ) ) ;
#37 = CLOSED_SHELL ( 'NONE', ( #22, #336, #312, #251, #150, #289, #46, #42, #141, #203 ) ) ;
#38 = AXIS2_PLACEMENT_3D ( 'NONE', #128, #284, #208 ) ;
#39 = FACE_BOUND ( 'NONE', #101, .T. ) ;
#40 = VECTOR ( 'NONE', #196, 39.37007874015748143 ) ;
#41 = CYLINDRICAL_SURFACE ( 'NONE', #225, 0.1560000000000001941 ) ;
#42 = ADVANCED_FACE ( 'NONE', ( #250 ), #200, .T. ) ;
#43 = EDGE_CURVE ( 'NONE', #222, #299, #315, .T. ) ;
#44 = CARTESIAN_POINT ( 'NONE',  ( 0.0000000000000000000, 0.0000000000000000000, 0.0000000000000000000 ) ) ;
#45 = ORIENTED_EDGE ( 'NONE', *, *, #43, .F. ) ;
#46 = ADVANCED_FACE ( 'NONE', ( #48 ), #149, .T. ) ;
#47 = LINE ( 'NONE', #63, #121 ) ;
#48 = FACE_OUTER_BOUND ( 'NONE', #33, .T. ) ;
#49 = AXIS2_PLACEMENT_3D ( 'NONE', #311, #97, #144 ) ;
#50 = CARTESIAN_POINT ( 'NONE',  ( 10.50000000000000000, 0.0000000000000000000, 10.50000000000000000 ) ) ;
#51 =( CONVERSION_BASED_UNIT ( 'INCH', #237 ) LENGTH_UNIT ( ) NAMED_UNIT ( #257 ) );
#52 = ORIENTED_EDGE ( 'NONE', *, *, #263, .F. ) ;
#53 = VERTEX_POINT ( 'NONE', #300 ) ;
#54 = DIRECTION ( 'NONE',  ( 0.0000000000000000000, 1.000000000000000000, 0.0000000000000000000 ) ) ;
#55 = AXIS2_PLACEMENT_3D ( 'NONE', #36, #297, #239 ) ;
#56 = PLANE ( 'NONE',  #276 ) ;
#57 = DIRECTION ( 'NONE',  ( 0.0000000000000000000, 0.0000000000000000000, 1.000000000000000000 ) ) ;
#58 = DIRECTION ( 'NONE',  ( 0.0000000000000000000, 0.0000000000000000000, 1.000000000000000000 ) ) ;
#59 = FACE_OUTER_BOUND ( 'NONE', #265, .T. ) ;
#60 = FACE_BOUND ( 'NONE', #16, .T. ) ;
#61 = DIRECTION ( 'NONE',  ( 0.0000000000000000000, 0.0000000000000000000, 1.000000000000000000 ) ) ;
#62 = AXIS2_PLACEMENT_3D ( 'NONE', #126, #54, #153 ) ;
#63 = CARTESIAN_POINT ( 'NONE',  ( 10.50000000000000000, -0.08000000000000000167, -10.50000000000000000 ) ) ;
#64 = EDGE_CURVE ( 'NONE', #270, #222, #68, .T. ) ;
#65 = ORIENTED_EDGE ( 'NONE', *, *, #220, .F. ) ;
#66 =( NAMED_UNIT ( * ) PLANE_ANGLE_UNIT ( ) SI_UNIT ( $, .RADIAN. ) );
#67 = LINE ( 'NONE', #347, #175 ) ;
#68 = LINE ( 'NONE', #252, #219 ) ;
#69 = DIRECTION ( 'NONE',  ( 0.0000000000000000000, 0.0000000000000000000, 1.000000000000000000 ) ) ;
#70 = ORIENTED_EDGE ( 'NONE', *, *, #107, .T. ) ;
#71 = PRODUCT_DEFINITION ( 'UNKNOWN', '', #244, #135 ) ;
#72 = SURFACE_STYLE_FILL_AREA ( #293 ) ;
#73 = AXIS2_PLACEMENT_3D ( 'NONE', #183, #112, #323 ) ;
#74 = ORIENTED_EDGE ( 'NONE', *, *, #310, .F. ) ;
#75 = DIRECTION ( 'NONE',  ( 0.0000000000000000000, 0.0000000000000000000, 1.000000000000000000 ) ) ;
#76 = ORIENTED_EDGE ( 'NONE', *, *, #19, .T. ) ;
#77 = CARTESIAN_POINT ( 'NONE',  ( 0.0000000000000000000, -0.08000000000000000167, 0.0000000000000000000 ) ) ;
#78 = LINE ( 'NONE', #321, #85 ) ;
#79 = CARTESIAN_POINT ( 'NONE',  ( -9.625000000000000000, 0.0000000000000000000, -9.625000000000000000 ) ) ;
#80 = DIRECTION ( 'NONE',  ( 0.0000000000000000000, 1.000000000000000000, 0.0000000000000000000 ) ) ;
#81 = ORIENTED_EDGE ( 'NONE', *, *, #234, .F. ) ;
#82 = VERTEX_POINT ( 'NONE', #159 ) ;
#83 = DIRECTION ( 'NONE',  ( 0.0000000000000000000, 1.000000000000000000, 0.0000000000000000000 ) ) ;
#84 = AXIS2_PLACEMENT_3D ( 'NONE', #258, #103, #292 ) ;
#85 = VECTOR ( 'NONE', #204, 39.37007874015748143 ) ;
#86 = APPLICATION_PROTOCOL_DEFINITION ( 'draft international standard', 'automotive_design', 1998, #188 ) ;
#87 = FACE_BOUND ( 'NONE', #228, .T. ) ;
#88 = EDGE_CURVE ( 'NONE', #277, #187, #156, .T. ) ;
#89 = FILL_AREA_STYLE ('',( #6 ) ) ;
#90 = ORIENTED_EDGE ( 'NONE', *, *, #2, .T. ) ;
#91 = VECTOR ( 'NONE', #173, 39.37007874015748143 ) ;
#92 = COLOUR_RGB ( '',0.7921568627450980005, 0.8196078431372548767, 0.9333333333333333481 ) ;
#93 = DIRECTION ( 'NONE',  ( -0.0000000000000000000, 1.000000000000000000, 0.0000000000000000000 ) ) ;
#94 = MANIFOLD_SOLID_BREP ( 'Imported1', #37 ) ;
#95 = ORIENTED_EDGE ( 'NONE', *, *, #24, .F. ) ;
#96 = LINE ( 'NONE', #163, #331 ) ;
#97 = DIRECTION ( 'NONE',  ( 0.0000000000000000000, 0.0000000000000000000, -1.000000000000000000 ) ) ;
#98 = EDGE_LOOP ( 'NONE', ( #142 ) ) ;
#99 = ORIENTED_EDGE ( 'NONE', *, *, #271, .T. ) ;
#100 = CARTESIAN_POINT ( 'NONE',  ( -10.50000000000000000, 0.0000000000000000000, -10.50000000000000000 ) ) ;
#101 = EDGE_LOOP ( 'NONE', ( #165 ) ) ;
#102 = DIRECTION ( 'NONE',  ( -0.0000000000000000000, -1.000000000000000000, -0.0000000000000000000 ) ) ;
#103 = DIRECTION ( 'NONE',  ( -0.0000000000000000000, -1.000000000000000000, -0.0000000000000000000 ) ) ;
#104 = VECTOR ( 'NONE', #18, 39.37007874015748143 ) ;
#105 = UNCERTAINTY_MEASURE_WITH_UNIT (LENGTH_MEASURE( 1.000000000000000082E-05 ), #272, 'distance_accuracy_value', 'NONE');
#106 = CARTESIAN_POINT ( 'NONE',  ( -10.50000000000000000, 0.0000000000000000000, 10.50000000000000000 ) ) ;
#107 = EDGE_CURVE ( 'NONE', #231, #222, #249, .T. ) ;
#108 = CARTESIAN_POINT ( 'NONE',  ( 10.50000000000000000, 0.0000000000000000000, 10.50000000000000000 ) ) ;
#109 = FACE_OUTER_BOUND ( 'NONE', #232, .T. ) ;
#110 = ORIENTED_EDGE ( 'NONE', *, *, #247, .T. ) ;
#111 = LENGTH_MEASURE_WITH_UNIT ( LENGTH_MEASURE( 0.02539999999999999897 ), #5 );
#112 = DIRECTION ( 'NONE',  ( 0.0000000000000000000, 1.000000000000000000, 0.0000000000000000000 ) ) ;
#113 = EDGE_CURVE ( 'NONE', #299, #139, #341, .T. ) ;
#114 = ORIENTED_EDGE ( 'NONE', *, *, #247, .F. ) ;
#115 =( NAMED_UNIT ( * ) SI_UNIT ( $, .STERADIAN. ) SOLID_ANGLE_UNIT ( ) );
#116 = FACE_OUTER_BOUND ( 'NONE', #171, .T. ) ;
#117 = LINE ( 'NONE', #279, #40 ) ;
#118 = EDGE_LOOP ( 'NONE', ( #243 ) ) ;
#119 = MECHANICAL_DESIGN_GEOMETRIC_PRESENTATION_REPRESENTATION (  '', ( #313 ), #123 ) ;
#120 = EDGE_CURVE ( 'NONE', #333, #333, #273, .T. ) ;
#121 = VECTOR ( 'NONE', #35, 39.37007874015748143 ) ;
#122 = ORIENTED_EDGE ( 'NONE', *, *, #220, .T. ) ;
#123 =( GEOMETRIC_REPRESENTATION_CONTEXT ( 3 ) GLOBAL_UNCERTAINTY_ASSIGNED_CONTEXT ( ( #327 ) ) GLOBAL_UNIT_ASSIGNED_CONTEXT ( ( #51, #179, #180 ) ) REPRESENTATION_CONTEXT ( 'NONE', 'WORKASPACE' ) );
#124 = DIRECTION ( 'NONE',  ( 0.0000000000000000000, 1.000000000000000000, 0.0000000000000000000 ) ) ;
#125 = ORIENTED_EDGE ( 'NONE', *, *, #120, .T. ) ;
#126 = CARTESIAN_POINT ( 'NONE',  ( 9.625000000000000000, 0.0000000000000000000, -9.625000000000000000 ) ) ;
#127 = FACE_OUTER_BOUND ( 'NONE', #268, .T. ) ;
#128 = CARTESIAN_POINT ( 'NONE',  ( 9.625000000000000000, 0.0000000000000000000, -9.625000000000000000 ) ) ;
#129 = CARTESIAN_POINT ( 'NONE',  ( 10.50000000000000000, 0.0000000000000000000, -10.50000000000000000 ) ) ;
#130 = AXIS2_PLACEMENT_3D ( 'NONE', #267, #69, #275 ) ;
#131 = CARTESIAN_POINT ( 'NONE',  ( -9.625000000000000000, -0.08000000000000000167, -9.468999999999999417 ) ) ;
#132 = CARTESIAN_POINT ( 'NONE',  ( -9.625000000000000000, 0.0000000000000000000, -9.625000000000000000 ) ) ;
#133 = CARTESIAN_POINT ( 'NONE',  ( -9.625000000000000000, 0.0000000000000000000, 9.781000000000000583 ) ) ;
#134 = ORIENTED_EDGE ( 'NONE', *, *, #143, .T. ) ;
#135 = PRODUCT_DEFINITION_CONTEXT ( 'detailed design', #240, 'design' ) ;
#136 = ORIENTED_EDGE ( 'NONE', *, *, #202, .F. ) ;
#137 = CIRCLE ( 'NONE', #140, 0.1560000000000001941 ) ;
#138 = EDGE_CURVE ( 'NONE', #229, #229, #147, .T. ) ;
#139 = VERTEX_POINT ( 'NONE', #100 ) ;
#140 = AXIS2_PLACEMENT_3D ( 'NONE', #79, #262, #58 ) ;
#141 = ADVANCED_FACE ( 'NONE', ( #283 ), #56, .T. ) ;
#142 = ORIENTED_EDGE ( 'NONE', *, *, #295, .F. ) ;
#143 = EDGE_CURVE ( 'NONE', #139, #277, #78, .T. ) ;
#144 = DIRECTION ( 'NONE',  ( -1.000000000000000000, 0.0000000000000000000, -0.0000000000000000000 ) ) ;
#145 = ORIENTED_EDGE ( 'NONE', *, *, #263, .T. ) ;
#146 = LINE ( 'NONE', #29, #9 ) ;
#147 = CIRCLE ( 'NONE', #298, 0.1560000000000001941 ) ;
#148 = EDGE_LOOP ( 'NONE', ( #238, #45, #281, #164 ) ) ;
#149 = PLANE ( 'NONE',  #339 ) ;
#150 = ADVANCED_FACE ( 'NONE', ( #242, #11 ), #294, .F. ) ;
#151 = DIRECTION ( 'NONE',  ( 0.0000000000000000000, 0.0000000000000000000, 1.000000000000000000 ) ) ;
#152 = DIMENSIONAL_EXPONENTS ( 1.000000000000000000, 0.0000000000000000000, 0.0000000000000000000, 0.0000000000000000000, 0.0000000000000000000, 0.0000000000000000000, 0.0000000000000000000 ) ;
#153 = DIRECTION ( 'NONE',  ( 0.0000000000000000000, 0.0000000000000000000, 1.000000000000000000 ) ) ;
#154 = SURFACE_SIDE_STYLE ('',( #72 ) ) ;
#155 = VECTOR ( 'NONE', #23, 39.37007874015748143 ) ;
#156 = LINE ( 'NONE', #259, #199 ) ;
#157 = CARTESIAN_POINT ( 'NONE',  ( 9.625000000000000000, -0.08000000000000000167, -9.468999999999999417 ) ) ;
#158 = AXIS2_PLACEMENT_3D ( 'NONE', #20, #198, #226 ) ;
#159 = CARTESIAN_POINT ( 'NONE',  ( 9.625000000000000000, -0.08000000000000000167, 9.781000000000000583 ) ) ;
#160 = EDGE_LOOP ( 'NONE', ( #52, #81, #65, #190 ) ) ;
#161 = PRESENTATION_LAYER_ASSIGNMENT (  '', '', ( #313 ) ) ;
#162 = DIRECTION ( 'NONE',  ( 0.0000000000000000000, -0.0000000000000000000, 1.000000000000000000 ) ) ;
#163 = CARTESIAN_POINT ( 'NONE',  ( -10.50000000000000000, 0.0000000000000000000, 0.0000000000000000000 ) ) ;
#164 = ORIENTED_EDGE ( 'NONE', *, *, #234, .T. ) ;
#165 = ORIENTED_EDGE ( 'NONE', *, *, #202, .T. ) ;
#166 = AXIS2_PLACEMENT_3D ( 'NONE', #77, #214, #8 ) ;
#167 = FACE_OUTER_BOUND ( 'NONE', #13, .T. ) ;
#168 = ORIENTED_EDGE ( 'NONE', *, *, #88, .T. ) ;
#169 = VERTEX_POINT ( 'NONE', #326 ) ;
#170 = EDGE_LOOP ( 'NONE', ( #136 ) ) ;
#171 = EDGE_LOOP ( 'NONE', ( #7 ) ) ;
#172 = CARTESIAN_POINT ( 'NONE',  ( 10.50000000000000000, 0.0000000000000000000, 0.0000000000000000000 ) ) ;
#173 = DIRECTION ( 'NONE',  ( -0.0000000000000000000, 0.0000000000000000000, -1.000000000000000000 ) ) ;
#174 = EDGE_CURVE ( 'NONE', #14, #14, #224, .T. ) ;
#175 = VECTOR ( 'NONE', #328, 39.37007874015748143 ) ;
#176 = AXIS2_PLACEMENT_3D ( 'NONE', #296, #322, #301 ) ;
#177 = CARTESIAN_POINT ( 'NONE',  ( -9.625000000000000000, 0.0000000000000000000, 9.625000000000000000 ) ) ;
#178 = VERTEX_POINT ( 'NONE', #253 ) ;
#179 =( NAMED_UNIT ( * ) PLANE_ANGLE_UNIT ( ) SI_UNIT ( $, .RADIAN. ) );
#180 =( NAMED_UNIT ( * ) SI_UNIT ( $, .STERADIAN. ) SOLID_ANGLE_UNIT ( ) );
#181 = AXIS2_PLACEMENT_3D ( 'NONE', #177, #102, #288 ) ;
#182 = ORIENTED_EDGE ( 'NONE', *, *, #174, .T. ) ;
#183 = CARTESIAN_POINT ( 'NONE',  ( -9.625000000000000000, -0.08000000000000000167, 9.625000000000000000 ) ) ;
#184 =( CONVERSION_BASED_UNIT ( 'INCH', #111 ) LENGTH_UNIT ( ) NAMED_UNIT ( #193 ) );
#185 = ADVANCED_BREP_SHAPE_REPRESENTATION ( 'ABP-2424-P10', ( #94, #130 ), #215 ) ;
#186 =( LENGTH_UNIT ( ) NAMED_UNIT ( * ) SI_UNIT ( $, .METRE. ) );
#187 = VERTEX_POINT ( 'NONE', #254 ) ;
#188 = APPLICATION_CONTEXT ( 'automotive_design' ) ;
#189 = AXIS2_PLACEMENT_3D ( 'NONE', #3, #80, #57 ) ;
#190 = ORIENTED_EDGE ( 'NONE', *, *, #88, .F. ) ;
#191 = VECTOR ( 'NONE', #207, 39.37007874015748143 ) ;
#192 = EDGE_LOOP ( 'NONE', ( #245 ) ) ;
#193 = DIMENSIONAL_EXPONENTS ( 1.000000000000000000, 0.0000000000000000000, 0.0000000000000000000, 0.0000000000000000000, 0.0000000000000000000, 0.0000000000000000000, 0.0000000000000000000 ) ;
#194 = AXIS2_PLACEMENT_3D ( 'NONE', #132, #264, #61 ) ;
#195 = FACE_BOUND ( 'NONE', #26, .T. ) ;
#196 = DIRECTION ( 'NONE',  ( 0.0000000000000000000, -1.000000000000000000, -0.0000000000000000000 ) ) ;
#197 = CYLINDRICAL_SURFACE ( 'NONE', #189, 0.1560000000000001941 ) ;
#198 = DIRECTION ( 'NONE',  ( 0.0000000000000000000, 1.000000000000000000, 0.0000000000000000000 ) ) ;
#199 = VECTOR ( 'NONE', #151, 39.37007874015748143 ) ;
#200 = PLANE ( 'NONE',  #49 ) ;
#201 = FILL_AREA_STYLE_COLOUR ( '', #314 ) ;
#202 = EDGE_CURVE ( 'NONE', #169, #169, #227, .T. ) ;
#203 = ADVANCED_FACE ( 'NONE', ( #87, #304, #211, #307, #17 ), #318, .F. ) ;
#204 = DIRECTION ( 'NONE',  ( -0.0000000000000000000, -1.000000000000000000, 0.0000000000000000000 ) ) ;
#205 = ORIENTED_EDGE ( 'NONE', *, *, #64, .T. ) ;
#206 = DIRECTION ( 'NONE',  ( 0.0000000000000000000, 0.0000000000000000000, 1.000000000000000000 ) ) ;
#207 = DIRECTION ( 'NONE',  ( 1.000000000000000000, 0.0000000000000000000, 0.0000000000000000000 ) ) ;
#208 = DIRECTION ( 'NONE',  ( 0.0000000000000000000, 0.0000000000000000000, 1.000000000000000000 ) ) ;
#209 = DIRECTION ( 'NONE',  ( 1.000000000000000000, 0.0000000000000000000, -0.0000000000000000000 ) ) ;
#210 = CIRCLE ( 'NONE', #73, 0.1560000000000001941 ) ;
#211 = FACE_BOUND ( 'NONE', #329, .T. ) ;
#212 = CARTESIAN_POINT ( 'NONE',  ( 10.50000000000000000, -0.08000000000000000167, 10.50000000000000000 ) ) ;
#213 = DIRECTION ( 'NONE',  ( 0.0000000000000000000, 0.0000000000000000000, 1.000000000000000000 ) ) ;
#214 = DIRECTION ( 'NONE',  ( -0.0000000000000000000, 1.000000000000000000, 0.0000000000000000000 ) ) ;
#215 =( GEOMETRIC_REPRESENTATION_CONTEXT ( 3 ) GLOBAL_UNCERTAINTY_ASSIGNED_CONTEXT ( ( #280 ) ) GLOBAL_UNIT_ASSIGNED_CONTEXT ( ( #184, #66, #115 ) ) REPRESENTATION_CONTEXT ( 'NONE', 'WORKASPACE' ) );
#216 = ORIENTED_EDGE ( 'NONE', *, *, #310, .T. ) ;
#217 = CARTESIAN_POINT ( 'NONE',  ( 9.625000000000000000, 0.0000000000000000000, -9.468999999999999417 ) ) ;
#218 = SURFACE_SIDE_STYLE ('',( #346 ) ) ;
#219 = VECTOR ( 'NONE', #317, 39.37007874015748143 ) ;
#220 = EDGE_CURVE ( 'NONE', #187, #270, #146, .T. ) ;
#221 = FACE_BOUND ( 'NONE', #319, .T. ) ;
#222 = VERTEX_POINT ( 'NONE', #108 ) ;
#223 = SHAPE_DEFINITION_REPRESENTATION ( #342, #185 ) ;
#224 = CIRCLE ( 'NONE', #181, 0.1560000000000001941 ) ;
#225 = AXIS2_PLACEMENT_3D ( 'NONE', #260, #83, #213 ) ;
#226 = DIRECTION ( 'NONE',  ( 0.0000000000000000000, 0.0000000000000000000, 1.000000000000000000 ) ) ;
#227 = CIRCLE ( 'NONE', #84, 0.1560000000000001941 ) ;
#228 = EDGE_LOOP ( 'NONE', ( #241 ) ) ;
#229 = VERTEX_POINT ( 'NONE', #157 ) ;
#230 = DIRECTION ( 'NONE',  ( 1.000000000000000000, -0.0000000000000000000, 0.0000000000000000000 ) ) ;
#231 = VERTEX_POINT ( 'NONE', #106 ) ;
#232 = EDGE_LOOP ( 'NONE', ( #205, #325, #291, #122 ) ) ;
#233 = CARTESIAN_POINT ( 'NONE',  ( 0.0000000000000000000, 0.0000000000000000000, 10.50000000000000000 ) ) ;
#234 = EDGE_CURVE ( 'NONE', #270, #178, #67, .T. ) ;
#235 = MECHANICAL_DESIGN_GEOMETRIC_PRESENTATION_REPRESENTATION (  '', ( #290 ), #15 ) ;
#236 = CARTESIAN_POINT ( 'NONE',  ( -9.625000000000000000, -0.08000000000000000167, 9.781000000000000583 ) ) ;
#237 = LENGTH_MEASURE_WITH_UNIT ( LENGTH_MEASURE( 0.02539999999999999897 ), #320 );
#238 = ORIENTED_EDGE ( 'NONE', *, *, #19, .F. ) ;
#239 = DIRECTION ( 'NONE',  ( 1.000000000000000000, 0.0000000000000000000, -0.0000000000000000000 ) ) ;
#240 = APPLICATION_CONTEXT ( 'automotive_design' ) ;
#241 = ORIENTED_EDGE ( 'NONE', *, *, #295, .T. ) ;
#242 = FACE_OUTER_BOUND ( 'NONE', #192, .T. ) ;
#243 = ORIENTED_EDGE ( 'NONE', *, *, #120, .F. ) ;
#244 = PRODUCT_DEFINITION_FORMATION_WITH_SPECIFIED_SOURCE ( 'ANY', '', #302, .NOT_KNOWN. ) ;
#245 = ORIENTED_EDGE ( 'NONE', *, *, #138, .F. ) ;
#246 = PLANE ( 'NONE',  #306 ) ;
#247 = EDGE_CURVE ( 'NONE', #139, #231, #96, .T. ) ;
#248 = DIRECTION ( 'NONE',  ( 0.0000000000000000000, -0.0000000000000000000, 1.000000000000000000 ) ) ;
#249 = LINE ( 'NONE', #233, #191 ) ;
#250 = FACE_OUTER_BOUND ( 'NONE', #28, .T. ) ;
#251 = ADVANCED_FACE ( 'NONE', ( #116, #282 ), #197, .F. ) ;
#252 = CARTESIAN_POINT ( 'NONE',  ( 10.50000000000000000, 0.0000000000000000000, 10.50000000000000000 ) ) ;
#253 = CARTESIAN_POINT ( 'NONE',  ( 10.50000000000000000, -0.08000000000000000167, -10.50000000000000000 ) ) ;
#254 = CARTESIAN_POINT ( 'NONE',  ( -10.50000000000000000, -0.08000000000000000167, 10.50000000000000000 ) ) ;
#255 = ORIENTED_EDGE ( 'NONE', *, *, #174, .F. ) ;
#256 = LENGTH_MEASURE_WITH_UNIT ( LENGTH_MEASURE( 0.02539999999999999897 ), #186 );
#257 = DIMENSIONAL_EXPONENTS ( 1.000000000000000000, 0.0000000000000000000, 0.0000000000000000000, 0.0000000000000000000, 0.0000000000000000000, 0.0000000000000000000, 0.0000000000000000000 ) ;
#258 = CARTESIAN_POINT ( 'NONE',  ( 9.625000000000000000, 0.0000000000000000000, 9.625000000000000000 ) ) ;
#259 = CARTESIAN_POINT ( 'NONE',  ( -10.50000000000000000, -0.08000000000000000167, -10.50000000000000000 ) ) ;
#260 = CARTESIAN_POINT ( 'NONE',  ( -9.625000000000000000, 0.0000000000000000000, 9.625000000000000000 ) ) ;
#261 = FACE_OUTER_BOUND ( 'NONE', #98, .T. ) ;
#262 = DIRECTION ( 'NONE',  ( -0.0000000000000000000, -1.000000000000000000, -0.0000000000000000000 ) ) ;
#263 = EDGE_CURVE ( 'NONE', #178, #277, #47, .T. ) ;
#264 = DIRECTION ( 'NONE',  ( 0.0000000000000000000, 1.000000000000000000, 0.0000000000000000000 ) ) ;
#265 = EDGE_LOOP ( 'NONE', ( #74 ) ) ;
#266 = PLANE ( 'NONE',  #55 ) ;
#267 = CARTESIAN_POINT ( 'NONE',  ( 0.0000000000000000000, 0.0000000000000000000, 0.0000000000000000000 ) ) ;
#268 = EDGE_LOOP ( 'NONE', ( #110, #70, #343, #309 ) ) ;
#269 = PRESENTATION_LAYER_ASSIGNMENT (  '', '', ( #290 ) ) ;
#270 = VERTEX_POINT ( 'NONE', #212 ) ;
#271 = EDGE_CURVE ( 'NONE', #53, #53, #137, .T. ) ;
#272 =( CONVERSION_BASED_UNIT ( 'INCH', #256 ) LENGTH_UNIT ( ) NAMED_UNIT ( #152 ) );
#273 = CIRCLE ( 'NONE', #38, 0.1560000000000001941 ) ;
#274 = PRODUCT_CONTEXT ( 'NONE', #188, 'mechanical' ) ;
#275 = DIRECTION ( 'NONE',  ( 1.000000000000000000, 0.0000000000000000000, 0.0000000000000000000 ) ) ;
#276 = AXIS2_PLACEMENT_3D ( 'NONE', #50, #230, #287 ) ;
#277 = VERTEX_POINT ( 'NONE', #31 ) ;
#278 = VERTEX_POINT ( 'NONE', #131 ) ;
#279 = CARTESIAN_POINT ( 'NONE',  ( -10.50000000000000000, 0.0000000000000000000, 10.50000000000000000 ) ) ;
#280 = UNCERTAINTY_MEASURE_WITH_UNIT (LENGTH_MEASURE( 1.000000000000000082E-05 ), #184, 'distance_accuracy_value', 'NONE');
#281 = ORIENTED_EDGE ( 'NONE', *, *, #64, .F. ) ;
#282 = FACE_OUTER_BOUND ( 'NONE', #170, .T. ) ;
#283 = FACE_OUTER_BOUND ( 'NONE', #148, .T. ) ;
#284 = DIRECTION ( 'NONE',  ( -0.0000000000000000000, -1.000000000000000000, -0.0000000000000000000 ) ) ;
#285 = EDGE_LOOP ( 'NONE', ( #4 ) ) ;
#286 = PRESENTATION_STYLE_ASSIGNMENT (( #334 ) ) ;
#287 = DIRECTION ( 'NONE',  ( 0.0000000000000000000, 0.0000000000000000000, -1.000000000000000000 ) ) ;
#288 = DIRECTION ( 'NONE',  ( 0.0000000000000000000, 0.0000000000000000000, 1.000000000000000000 ) ) ;
#289 = ADVANCED_FACE ( 'NONE', ( #109 ), #266, .T. ) ;
#290 = STYLED_ITEM ( 'NONE', ( #286 ), #185 ) ;
#291 = ORIENTED_EDGE ( 'NONE', *, *, #24, .T. ) ;
#292 = DIRECTION ( 'NONE',  ( 0.0000000000000000000, 0.0000000000000000000, 1.000000000000000000 ) ) ;
#293 = FILL_AREA_STYLE ('',( #201 ) ) ;
#294 = CYLINDRICAL_SURFACE ( 'NONE', #62, 0.1560000000000001941 ) ;
#295 = EDGE_CURVE ( 'NONE', #278, #278, #340, .T. ) ;
#296 = CARTESIAN_POINT ( 'NONE',  ( -9.625000000000000000, -0.08000000000000000167, -9.625000000000000000 ) ) ;
#297 = DIRECTION ( 'NONE',  ( 0.0000000000000000000, 0.0000000000000000000, 1.000000000000000000 ) ) ;
#298 = AXIS2_PLACEMENT_3D ( 'NONE', #1, #124, #206 ) ;
#299 = VERTEX_POINT ( 'NONE', #129 ) ;
#300 = CARTESIAN_POINT ( 'NONE',  ( -9.625000000000000000, 0.0000000000000000000, -9.468999999999999417 ) ) ;
#301 = DIRECTION ( 'NONE',  ( 0.0000000000000000000, 0.0000000000000000000, 1.000000000000000000 ) ) ;
#302 = PRODUCT ( 'ABP-2424-P10', 'ABP-2424-P10', '', ( #274 ) ) ;
#303 = EDGE_LOOP ( 'NONE', ( #216 ) ) ;
#304 = FACE_BOUND ( 'NONE', #303, .T. ) ;
#305 =( NAMED_UNIT ( * ) PLANE_ANGLE_UNIT ( ) SI_UNIT ( $, .RADIAN. ) );
#306 = AXIS2_PLACEMENT_3D ( 'NONE', #44, #93, #248 ) ;
#307 = FACE_BOUND ( 'NONE', #285, .T. ) ;
#308 = EDGE_LOOP ( 'NONE', ( #255 ) ) ;
#309 = ORIENTED_EDGE ( 'NONE', *, *, #113, .T. ) ;
#310 = EDGE_CURVE ( 'NONE', #34, #34, #210, .T. ) ;
#311 = CARTESIAN_POINT ( 'NONE',  ( 10.50000000000000000, 0.0000000000000000000, -10.50000000000000000 ) ) ;
#312 = ADVANCED_FACE ( 'NONE', ( #59, #32 ), #41, .F. ) ;
#313 = STYLED_ITEM ( 'NONE', ( #324 ), #94 ) ;
#314 = COLOUR_RGB ( '',0.7921568627450980005, 0.8196078431372548767, 0.9333333333333333481 ) ;
#315 = LINE ( 'NONE', #172, #91 ) ;
#316 = CYLINDRICAL_SURFACE ( 'NONE', #194, 0.1560000000000001941 ) ;
#317 = DIRECTION ( 'NONE',  ( -0.0000000000000000000, 1.000000000000000000, 0.0000000000000000000 ) ) ;
#318 = PLANE ( 'NONE',  #166 ) ;
#319 = EDGE_LOOP ( 'NONE', ( #182 ) ) ;
#320 =( LENGTH_UNIT ( ) NAMED_UNIT ( * ) SI_UNIT ( $, .METRE. ) );
#321 = CARTESIAN_POINT ( 'NONE',  ( -10.50000000000000000, 0.0000000000000000000, -10.50000000000000000 ) ) ;
#322 = DIRECTION ( 'NONE',  ( 0.0000000000000000000, 1.000000000000000000, 0.0000000000000000000 ) ) ;
#323 = DIRECTION ( 'NONE',  ( 0.0000000000000000000, 0.0000000000000000000, 1.000000000000000000 ) ) ;
#324 = PRESENTATION_STYLE_ASSIGNMENT (( #25 ) ) ;
#325 = ORIENTED_EDGE ( 'NONE', *, *, #107, .F. ) ;
#326 = CARTESIAN_POINT ( 'NONE',  ( 9.625000000000000000, 0.0000000000000000000, 9.781000000000000583 ) ) ;
#327 = UNCERTAINTY_MEASURE_WITH_UNIT (LENGTH_MEASURE( 1.000000000000000082E-05 ), #51, 'distance_accuracy_value', 'NONE');
#328 = DIRECTION ( 'NONE',  ( 0.0000000000000000000, 0.0000000000000000000, -1.000000000000000000 ) ) ;
#329 = EDGE_LOOP ( 'NONE', ( #90 ) ) ;
#330 = ORIENTED_EDGE ( 'NONE', *, *, #143, .F. ) ;
#331 = VECTOR ( 'NONE', #162, 39.37007874015748143 ) ;
#332 = CIRCLE ( 'NONE', #158, 0.1560000000000001941 ) ;
#333 = VERTEX_POINT ( 'NONE', #217 ) ;
#334 = SURFACE_STYLE_USAGE ( .BOTH. , #218 ) ;
#335 = PRODUCT_RELATED_PRODUCT_CATEGORY ( 'part', '', ( #302 ) ) ;
#336 = ADVANCED_FACE ( 'NONE', ( #261, #167 ), #316, .F. ) ;
#337 = CARTESIAN_POINT ( 'NONE',  ( -10.50000000000000000, 0.0000000000000000000, -10.50000000000000000 ) ) ;
#338 = ORIENTED_EDGE ( 'NONE', *, *, #113, .F. ) ;
#339 = AXIS2_PLACEMENT_3D ( 'NONE', #337, #27, #75 ) ;
#340 = CIRCLE ( 'NONE', #176, 0.1560000000000001941 ) ;
#341 = LINE ( 'NONE', #344, #155 ) ;
#342 = PRODUCT_DEFINITION_SHAPE ( 'NONE', 'NONE',  #71 ) ;
#343 = ORIENTED_EDGE ( 'NONE', *, *, #43, .T. ) ;
#344 = CARTESIAN_POINT ( 'NONE',  ( 0.0000000000000000000, 0.0000000000000000000, -10.50000000000000000 ) ) ;
#345 = LINE ( 'NONE', #21, #104 ) ;
#346 = SURFACE_STYLE_FILL_AREA ( #89 ) ;
#347 = CARTESIAN_POINT ( 'NONE',  ( 10.50000000000000000, -0.08000000000000000167, 10.50000000000000000 ) ) ;
ENDSEC;
END-ISO-10303-21;
