ISO-10303-21;
HEADER;
FILE_DESCRIPTION (( 'STEP AP214' ),
    '1' );
FILE_NAME ('AE1-AN-5A.STEP',
    '2018-04-11T10:45:20',
    ( '' ),
    ( '' ),
    'SwSTEP 2.0',
    'SolidWorks 2017',
    '' );
FILE_SCHEMA (( 'AUTOMOTIVE_DESIGN' ));
ENDSEC;

DATA;
#1 = PRESENTATION_STYLE_ASSIGNMENT (( #232 ) ) ;
#2 = CARTESIAN_POINT ( 'NONE',  ( 0.0000000000000000000, 0.0000000000000000000, 0.0000000000000000000 ) ) ;
#3 = STYLED_ITEM ( 'NONE', ( #146 ), #137 ) ;
#4 = DIRECTION ( 'NONE',  ( -0.0000000000000000000, -1.000000000000000000, -0.0000000000000000000 ) ) ;
#5 =( NAMED_UNIT ( * ) SI_UNIT ( $, .STERADIAN. ) SOLID_ANGLE_UNIT ( ) );
#6 = CARTESIAN_POINT ( 'NONE',  ( 0.01574803149606299200, 1.031500000000000100, 0.0000000000000000000 ) ) ;
#7 = ADVANCED_FACE ( 'NONE', ( #31, #62 ), #11, .T. ) ;
#8 = CARTESIAN_POINT ( 'NONE',  ( 0.0000000000000000000, -1.771653543305475400, 0.0000000000000000000 ) ) ;
#9 = SURFACE_STYLE_FILL_AREA ( #249 ) ;
#10 = EDGE_CURVE ( 'NONE', #177, #177, #12, .T. ) ;
#11 = CONICAL_SURFACE ( 'NONE', #17, 0.1574803149606299200, 1.047197551261559700 ) ;
#12 = CIRCLE ( 'NONE', #200, 0.1279500000000000400 ) ;
#13 = ORIENTED_EDGE ( 'NONE', *, *, #238, .T. ) ;
#14 =( GEOMETRIC_REPRESENTATION_CONTEXT ( 3 ) GLOBAL_UNCERTAINTY_ASSIGNED_CONTEXT ( ( #33 ) ) GLOBAL_UNIT_ASSIGNED_CONTEXT ( ( #203, #78, #5 ) ) REPRESENTATION_CONTEXT ( 'NONE', 'WORKASPACE' ) );
#15 = COLOUR_RGB ( '',0.7921568627450980000, 0.8196078431372548800, 0.9333333333333333500 ) ;
#16 = ORIENTED_EDGE ( 'NONE', *, *, #132, .T. ) ;
#17 = AXIS2_PLACEMENT_3D ( 'NONE', #58, #212, #76 ) ;
#18 =( LENGTH_UNIT ( ) NAMED_UNIT ( * ) SI_UNIT ( $, .METRE. ) );
#19 = CYLINDRICAL_SURFACE ( 'NONE', #100, 0.09845000000000001000 ) ;
#20 = DIRECTION ( 'NONE',  ( 0.0000000000000000000, 1.000000000000000000, 0.0000000000000000000 ) ) ;
#21 = AXIS2_PLACEMENT_3D ( 'NONE', #141, #217, #63 ) ;
#22 = SURFACE_STYLE_USAGE ( .BOTH. , #130 ) ;
#23 = PLANE ( 'NONE',  #208 ) ;
#24 =( LENGTH_UNIT ( ) NAMED_UNIT ( * ) SI_UNIT ( $, .METRE. ) );
#25 = CARTESIAN_POINT ( 'NONE',  ( 0.01574803149606299200, 1.031500000000000100, 0.0000000000000000000 ) ) ;
#26 = APPLICATION_PROTOCOL_DEFINITION ( 'draft international standard', 'automotive_design', 1998, #116 ) ;
#27 = AXIS2_PLACEMENT_3D ( 'NONE', #209, #98, #231 ) ;
#28 = FACE_BOUND ( 'NONE', #53, .T. ) ;
#29 = CIRCLE ( 'NONE', #108, 0.1370230219575699600 ) ;
#30 =( GEOMETRIC_REPRESENTATION_CONTEXT ( 3 ) GLOBAL_UNCERTAINTY_ASSIGNED_CONTEXT ( ( #240 ) ) GLOBAL_UNIT_ASSIGNED_CONTEXT ( ( #44, #157, #215 ) ) REPRESENTATION_CONTEXT ( 'NONE', 'WORKASPACE' ) );
#31 = FACE_BOUND ( 'NONE', #93, .T. ) ;
#32 = EDGE_LOOP ( 'NONE', ( #66 ) ) ;
#33 = UNCERTAINTY_MEASURE_WITH_UNIT (LENGTH_MEASURE( 1.000000000000000100E-005 ), #203, 'distance_accuracy_value', 'NONE');
#34 = VERTEX_POINT ( 'NONE', #38 ) ;
#35 = EDGE_LOOP ( 'NONE', ( #186 ) ) ;
#36 = DIRECTION ( 'NONE',  ( 0.0000000000000000000, 0.0000000000000000000, -1.000000000000000000 ) ) ;
#37 = DIRECTION ( 'NONE',  ( -0.0000000000000000000, -1.000000000000000000, -0.0000000000000000000 ) ) ;
#38 = CARTESIAN_POINT ( 'NONE',  ( 0.01574803149606299200, 0.01969999999999992900, 0.09845000000000001000 ) ) ;
#39 = CONICAL_SURFACE ( 'NONE', #27, 0.1370230219575699600, 1.047197551184987400 ) ;
#40 =( CONVERSION_BASED_UNIT ( 'INCH', #172 ) LENGTH_UNIT ( ) NAMED_UNIT ( #230 ) );
#41 = ORIENTED_EDGE ( 'NONE', *, *, #10, .T. ) ;
#42 = CARTESIAN_POINT ( 'NONE',  ( 0.0000000000000000000, -0.01181102362204321200, -0.1574803149559202700 ) ) ;
#43 = DIRECTION ( 'NONE',  ( 0.0000000000000000000, 0.0000000000000000000, -1.000000000000000000 ) ) ;
#44 =( CONVERSION_BASED_UNIT ( 'INCH', #133 ) LENGTH_UNIT ( ) NAMED_UNIT ( #216 ) );
#45 = DIRECTION ( 'NONE',  ( 0.0000000000000000000, 1.000000000000000000, 0.0000000000000000000 ) ) ;
#46 = VERTEX_POINT ( 'NONE', #42 ) ;
#47 = ORIENTED_EDGE ( 'NONE', *, *, #236, .F. ) ;
#48 = DIRECTION ( 'NONE',  ( 0.0000000000000000000, 0.0000000000000000000, 1.000000000000000000 ) ) ;
#49 = DIRECTION ( 'NONE',  ( -0.0000000000000000000, -1.000000000000000000, -0.0000000000000000000 ) ) ;
#50 = DIMENSIONAL_EXPONENTS ( 1.000000000000000000, 0.0000000000000000000, 0.0000000000000000000, 0.0000000000000000000, 0.0000000000000000000, 0.0000000000000000000, 0.0000000000000000000 ) ;
#51 = CARTESIAN_POINT ( 'NONE',  ( 0.0000000000000000000, -1.771653543305475400, 0.0000000000000000000 ) ) ;
#52 = FACE_OUTER_BOUND ( 'NONE', #178, .T. ) ;
#53 = EDGE_LOOP ( 'NONE', ( #102 ) ) ;
#54 = PRESENTATION_LAYER_ASSIGNMENT (  '', '', ( #219 ) ) ;
#55 = PRODUCT_DEFINITION ( 'UNKNOWN', '', #90, #192 ) ;
#56 = DIRECTION ( 'NONE',  ( 0.0000000000000000000, 1.000000000000000000, 0.0000000000000000000 ) ) ;
#57 = ORIENTED_EDGE ( 'NONE', *, *, #10, .F. ) ;
#58 = CARTESIAN_POINT ( 'NONE',  ( 0.0000000000000000000, -1.759842519685039600, 0.0000000000000000000 ) ) ;
#59 = MANIFOLD_SOLID_BREP ( 'Revolve1', #144 ) ;
#60 = CARTESIAN_POINT ( 'NONE',  ( 0.0000000000000000000, 0.01969999999999999900, 0.0000000000000000000 ) ) ;
#61 = FACE_OUTER_BOUND ( 'NONE', #169, .T. ) ;
#62 = FACE_OUTER_BOUND ( 'NONE', #235, .T. ) ;
#63 = DIRECTION ( 'NONE',  ( 0.0000000000000000000, 0.0000000000000000000, -1.000000000000000000 ) ) ;
#64 = CIRCLE ( 'NONE', #21, 0.1574803149559202700 ) ;
#65 = SURFACE_STYLE_FILL_AREA ( #97 ) ;
#66 = ORIENTED_EDGE ( 'NONE', *, *, #182, .T. ) ;
#67 = VERTEX_POINT ( 'NONE', #127 ) ;
#68 = PLANE ( 'NONE',  #227 ) ;
#69 = FACE_OUTER_BOUND ( 'NONE', #160, .T. ) ;
#70 = ORIENTED_EDGE ( 'NONE', *, *, #176, .F. ) ;
#71 =( LENGTH_UNIT ( ) NAMED_UNIT ( * ) SI_UNIT ( $, .METRE. ) );
#72 = DIRECTION ( 'NONE',  ( 0.0000000000000000000, 1.000000000000000000, 0.0000000000000000000 ) ) ;
#73 = VERTEX_POINT ( 'NONE', #244 ) ;
#74 = AXIS2_PLACEMENT_3D ( 'NONE', #111, #20, #191 ) ;
#75 = DIRECTION ( 'NONE',  ( -0.0000000000000000000, -1.000000000000000000, -0.0000000000000000000 ) ) ;
#76 = DIRECTION ( 'NONE',  ( 0.0000000000000000000, 0.0000000000000000000, 1.000000000000000000 ) ) ;
#77 = FACE_BOUND ( 'NONE', #245, .T. ) ;
#78 =( NAMED_UNIT ( * ) PLANE_ANGLE_UNIT ( ) SI_UNIT ( $, .RADIAN. ) );
#79 = ADVANCED_FACE ( 'NONE', ( #99, #222 ), #39, .T. ) ;
#80 = DIRECTION ( 'NONE',  ( 0.0000000000000000000, 0.0000000000000000000, 1.000000000000000000 ) ) ;
#81 = DIRECTION ( 'NONE',  ( 0.0000000000000000000, 0.0000000000000000000, 1.000000000000000000 ) ) ;
#82 = EDGE_LOOP ( 'NONE', ( #223 ) ) ;
#83 = AXIS2_PLACEMENT_3D ( 'NONE', #188, #75, #202 ) ;
#84 = CIRCLE ( 'NONE', #83, 0.1279500000000000400 ) ;
#85 = PRODUCT_DEFINITION_SHAPE ( 'NONE', 'NONE',  #55 ) ;
#86 = ORIENTED_EDGE ( 'NONE', *, *, #197, .T. ) ;
#87 = AXIS2_PLACEMENT_3D ( 'NONE', #6, #138, #81 ) ;
#88 = DIRECTION ( 'NONE',  ( -0.0000000000000000000, -1.000000000000000000, -0.0000000000000000000 ) ) ;
#89 = EDGE_LOOP ( 'NONE', ( #16 ) ) ;
#90 = PRODUCT_DEFINITION_FORMATION_WITH_SPECIFIED_SOURCE ( 'ANY', '', #233, .NOT_KNOWN. ) ;
#91 = FACE_OUTER_BOUND ( 'NONE', #139, .T. ) ;
#92 = CARTESIAN_POINT ( 'NONE',  ( 0.0000000000000000000, -1.771653543305475400, -0.1370230219575699600 ) ) ;
#93 = EDGE_LOOP ( 'NONE', ( #184 ) ) ;
#94 = CARTESIAN_POINT ( 'NONE',  ( 0.0000000000000000000, 0.01969999999999999900, 0.1179500000000000400 ) ) ;
#95 = DIRECTION ( 'NONE',  ( 0.0000000000000000000, 1.000000000000000000, 0.0000000000000000000 ) ) ;
#96 =( GEOMETRIC_REPRESENTATION_CONTEXT ( 3 ) GLOBAL_UNCERTAINTY_ASSIGNED_CONTEXT ( ( #107 ) ) GLOBAL_UNIT_ASSIGNED_CONTEXT ( ( #40, #105, #246 ) ) REPRESENTATION_CONTEXT ( 'NONE', 'WORKASPACE' ) );
#97 = FILL_AREA_STYLE ('',( #179 ) ) ;
#98 = DIRECTION ( 'NONE',  ( -0.0000000000000000000, -1.000000000000000000, -0.0000000000000000000 ) ) ;
#99 = FACE_OUTER_BOUND ( 'NONE', #198, .T. ) ;
#100 = AXIS2_PLACEMENT_3D ( 'NONE', #25, #49, #193 ) ;
#101 = ORIENTED_EDGE ( 'NONE', *, *, #196, .T. ) ;
#102 = ORIENTED_EDGE ( 'NONE', *, *, #236, .T. ) ;
#103 = MECHANICAL_DESIGN_GEOMETRIC_PRESENTATION_REPRESENTATION (  '', ( #3 ), #30 ) ;
#104 = AXIS2_PLACEMENT_3D ( 'NONE', #154, #95, #189 ) ;
#105 =( NAMED_UNIT ( * ) PLANE_ANGLE_UNIT ( ) SI_UNIT ( $, .RADIAN. ) );
#106 = DIRECTION ( 'NONE',  ( 0.0000000000000000000, 0.0000000000000000000, 1.000000000000000000 ) ) ;
#107 = UNCERTAINTY_MEASURE_WITH_UNIT (LENGTH_MEASURE( 1.000000000000000100E-005 ), #40, 'distance_accuracy_value', 'NONE');
#108 = AXIS2_PLACEMENT_3D ( 'NONE', #8, #199, #142 ) ;
#109 = ADVANCED_FACE ( 'NONE', ( #91, #158 ), #153, .T. ) ;
#110 = DIRECTION ( 'NONE',  ( 0.0000000000000000000, 0.0000000000000000000, -1.000000000000000000 ) ) ;
#111 = CARTESIAN_POINT ( 'NONE',  ( 0.0000000000000000000, 0.009699999999999996800, 0.0000000000000000000 ) ) ;
#112 = CIRCLE ( 'NONE', #87, 0.09845000000000001000 ) ;
#113 = FACE_OUTER_BOUND ( 'NONE', #128, .T. ) ;
#114 = ORIENTED_EDGE ( 'NONE', *, *, #176, .T. ) ;
#115 = DIRECTION ( 'NONE',  ( 0.0000000000000000000, 0.0000000000000000000, -1.000000000000000000 ) ) ;
#116 = APPLICATION_CONTEXT ( 'automotive_design' ) ;
#117 = ADVANCED_FACE ( 'NONE', ( #119, #69 ), #165, .T. ) ;
#118 = AXIS2_PLACEMENT_3D ( 'NONE', #206, #228, #110 ) ;
#119 = FACE_OUTER_BOUND ( 'NONE', #82, .T. ) ;
#120 = EDGE_LOOP ( 'NONE', ( #181 ) ) ;
#121 = CIRCLE ( 'NONE', #122, 0.1370230219575699600 ) ;
#122 = AXIS2_PLACEMENT_3D ( 'NONE', #242, #145, #36 ) ;
#123 = DIRECTION ( 'NONE',  ( 0.0000000000000000000, 0.0000000000000000000, -1.000000000000000000 ) ) ;
#124 = VERTEX_POINT ( 'NONE', #94 ) ;
#125 = ORIENTED_EDGE ( 'NONE', *, *, #132, .F. ) ;
#126 = PRODUCT_RELATED_PRODUCT_CATEGORY ( 'part', '', ( #233 ) ) ;
#127 = CARTESIAN_POINT ( 'NONE',  ( 0.0000000000000000000, 0.009699999999999996800, 0.1279500000000000400 ) ) ;
#128 = EDGE_LOOP ( 'NONE', ( #140 ) ) ;
#129 = FILL_AREA_STYLE_COLOUR ( '', #185 ) ;
#130 = SURFACE_SIDE_STYLE ('',( #9 ) ) ;
#131 = ADVANCED_FACE ( 'NONE', ( #113, #61 ), #183, .T. ) ;
#132 = EDGE_CURVE ( 'NONE', #124, #124, #211, .T. ) ;
#133 = LENGTH_MEASURE_WITH_UNIT ( LENGTH_MEASURE( 0.02539999999999999900 ), #71 );
#134 = DIRECTION ( 'NONE',  ( 0.0000000000000000000, 1.000000000000000000, 0.0000000000000000000 ) ) ;
#135 = EDGE_LOOP ( 'NONE', ( #41 ) ) ;
#136 = DIRECTION ( 'NONE',  ( -0.0000000000000000000, -1.000000000000000000, -0.0000000000000000000 ) ) ;
#137 = ADVANCED_BREP_SHAPE_REPRESENTATION ( 'AE1-AN-5A', ( #59, #180 ), #96 ) ;
#138 = DIRECTION ( 'NONE',  ( 0.0000000000000000000, 1.000000000000000000, 0.0000000000000000000 ) ) ;
#139 = EDGE_LOOP ( 'NONE', ( #13 ) ) ;
#140 = ORIENTED_EDGE ( 'NONE', *, *, #197, .F. ) ;
#141 = CARTESIAN_POINT ( 'NONE',  ( 0.0000000000000000000, -0.01181102362204321200, 0.0000000000000000000 ) ) ;
#142 = DIRECTION ( 'NONE',  ( 0.0000000000000000000, 0.0000000000000000000, -1.000000000000000000 ) ) ;
#143 = EDGE_LOOP ( 'NONE', ( #101 ) ) ;
#144 = CLOSED_SHELL ( 'NONE', ( #109, #162, #117, #152, #214, #207, #7, #131, #79, #156 ) ) ;
#145 = DIRECTION ( 'NONE',  ( -0.0000000000000000000, -1.000000000000000000, -0.0000000000000000000 ) ) ;
#146 = PRESENTATION_STYLE_ASSIGNMENT (( #22 ) ) ;
#147 = AXIS2_PLACEMENT_3D ( 'NONE', #51, #136, #115 ) ;
#148 = CARTESIAN_POINT ( 'NONE',  ( 0.0000000000000000000, 0.0000000000000000000, 0.0000000000000000000 ) ) ;
#149 = APPLICATION_CONTEXT ( 'automotive_design' ) ;
#150 = AXIS2_PLACEMENT_3D ( 'NONE', #226, #4, #43 ) ;
#151 = SURFACE_SIDE_STYLE ('',( #65 ) ) ;
#152 = ADVANCED_FACE ( 'NONE', ( #52, #205 ), #19, .T. ) ;
#153 = CYLINDRICAL_SURFACE ( 'NONE', #150, 0.1279500000000000400 ) ;
#154 = CARTESIAN_POINT ( 'NONE',  ( 0.0000000000000000000, 0.01969999999999999900, 0.0000000000000000000 ) ) ;
#155 = PRESENTATION_LAYER_ASSIGNMENT (  '', '', ( #3 ) ) ;
#156 = ADVANCED_FACE ( 'NONE', ( #77, #168 ), #159, .F. ) ;
#157 =( NAMED_UNIT ( * ) PLANE_ANGLE_UNIT ( ) SI_UNIT ( $, .RADIAN. ) );
#158 = FACE_OUTER_BOUND ( 'NONE', #135, .T. ) ;
#159 = PLANE ( 'NONE',  #118 ) ;
#160 = EDGE_LOOP ( 'NONE', ( #125 ) ) ;
#161 = DIRECTION ( 'NONE',  ( 1.000000000000000000, 0.0000000000000000000, 0.0000000000000000000 ) ) ;
#162 = ADVANCED_FACE ( 'NONE', ( #28, #195 ), #23, .T. ) ;
#163 = LENGTH_MEASURE_WITH_UNIT ( LENGTH_MEASURE( 0.02539999999999999900 ), #24 );
#164 = VERTEX_POINT ( 'NONE', #171 ) ;
#165 = TOROIDAL_SURFACE ( 'NONE', #74, 0.1179500000000000400, 0.01000000000000000000 ) ;
#166 = AXIS2_PLACEMENT_3D ( 'NONE', #243, #88, #123 ) ;
#167 = CARTESIAN_POINT ( 'NONE',  ( 0.01574803149606299200, 1.031500000000000100, 0.0000000000000000000 ) ) ;
#168 = FACE_OUTER_BOUND ( 'NONE', #35, .T. ) ;
#169 = EDGE_LOOP ( 'NONE', ( #114 ) ) ;
#170 = EDGE_CURVE ( 'NONE', #164, #164, #112, .T. ) ;
#171 = CARTESIAN_POINT ( 'NONE',  ( 0.01574803149606299200, 1.031500000000000100, 0.09845000000000001000 ) ) ;
#172 = LENGTH_MEASURE_WITH_UNIT ( LENGTH_MEASURE( 0.02539999999999999900 ), #18 );
#173 = APPLICATION_PROTOCOL_DEFINITION ( 'draft international standard', 'automotive_design', 1998, #149 ) ;
#174 = CARTESIAN_POINT ( 'NONE',  ( 0.0000000000000000000, -1.759842519685039600, -0.1574803149606299200 ) ) ;
#175 = DIRECTION ( 'NONE',  ( 0.0000000000000000000, -0.0000000000000000000, 1.000000000000000000 ) ) ;
#176 = EDGE_CURVE ( 'NONE', #46, #46, #64, .T. ) ;
#177 = VERTEX_POINT ( 'NONE', #224 ) ;
#178 = EDGE_LOOP ( 'NONE', ( #47 ) ) ;
#179 = FILL_AREA_STYLE_COLOUR ( '', #15 ) ;
#180 = AXIS2_PLACEMENT_3D ( 'NONE', #148, #48, #161 ) ;
#181 = ORIENTED_EDGE ( 'NONE', *, *, #170, .F. ) ;
#182 = EDGE_CURVE ( 'NONE', #220, #220, #29, .T. ) ;
#183 = CYLINDRICAL_SURFACE ( 'NONE', #147, 0.1574803149582750800 ) ;
#184 = ORIENTED_EDGE ( 'NONE', *, *, #182, .F. ) ;
#185 = COLOUR_RGB ( '',0.7921568627450980000, 0.8196078431372548800, 0.9333333333333333500 ) ;
#186 = ORIENTED_EDGE ( 'NONE', *, *, #196, .F. ) ;
#187 = CARTESIAN_POINT ( 'NONE',  ( 0.0000000000000000000, -1.771653543305475400, 0.1370230219575699600 ) ) ;
#188 = CARTESIAN_POINT ( 'NONE',  ( 0.0000000000000000000, 0.009699999999999996800, 0.0000000000000000000 ) ) ;
#189 = DIRECTION ( 'NONE',  ( 0.0000000000000000000, 0.0000000000000000000, 1.000000000000000000 ) ) ;
#190 = CARTESIAN_POINT ( 'NONE',  ( 0.01574803149606299200, 0.01969999999999992900, 0.0000000000000000000 ) ) ;
#191 = DIRECTION ( 'NONE',  ( 0.0000000000000000000, 0.0000000000000000000, 1.000000000000000000 ) ) ;
#192 = PRODUCT_DEFINITION_CONTEXT ( 'detailed design', #116, 'design' ) ;
#193 = DIRECTION ( 'NONE',  ( 0.0000000000000000000, 0.0000000000000000000, -1.000000000000000000 ) ) ;
#194 = MECHANICAL_DESIGN_GEOMETRIC_PRESENTATION_REPRESENTATION (  '', ( #219 ), #14 ) ;
#195 = FACE_OUTER_BOUND ( 'NONE', #89, .T. ) ;
#196 = EDGE_CURVE ( 'NONE', #73, #73, #121, .T. ) ;
#197 = EDGE_CURVE ( 'NONE', #201, #201, #204, .T. ) ;
#198 = EDGE_LOOP ( 'NONE', ( #70 ) ) ;
#199 = DIRECTION ( 'NONE',  ( -0.0000000000000000000, -1.000000000000000000, -0.0000000000000000000 ) ) ;
#200 = AXIS2_PLACEMENT_3D ( 'NONE', #2, #134, #80 ) ;
#201 = VERTEX_POINT ( 'NONE', #174 ) ;
#202 = DIRECTION ( 'NONE',  ( 0.0000000000000000000, 0.0000000000000000000, 1.000000000000000000 ) ) ;
#203 =( CONVERSION_BASED_UNIT ( 'INCH', #163 ) LENGTH_UNIT ( ) NAMED_UNIT ( #50 ) );
#204 = CIRCLE ( 'NONE', #166, 0.1574803149606299200 ) ;
#205 = FACE_OUTER_BOUND ( 'NONE', #120, .T. ) ;
#206 = CARTESIAN_POINT ( 'NONE',  ( 0.0000000000000000000, -1.118966005333004800E-012, 0.0000000000000000000 ) ) ;
#207 = ADVANCED_FACE ( 'NONE', ( #248 ), #68, .F. ) ;
#208 = AXIS2_PLACEMENT_3D ( 'NONE', #60, #45, #175 ) ;
#209 = CARTESIAN_POINT ( 'NONE',  ( 0.0000000000000000000, -2.237929876409764400E-012, 0.0000000000000000000 ) ) ;
#210 = FACE_OUTER_BOUND ( 'NONE', #213, .T. ) ;
#211 = CIRCLE ( 'NONE', #104, 0.1179500000000000400 ) ;
#212 = DIRECTION ( 'NONE',  ( 0.0000000000000000000, 1.000000000000000000, 0.0000000000000000000 ) ) ;
#213 = EDGE_LOOP ( 'NONE', ( #239 ) ) ;
#214 = ADVANCED_FACE ( 'NONE', ( #210 ), #237, .T. ) ;
#215 =( NAMED_UNIT ( * ) SI_UNIT ( $, .STERADIAN. ) SOLID_ANGLE_UNIT ( ) );
#216 = DIMENSIONAL_EXPONENTS ( 1.000000000000000000, 0.0000000000000000000, 0.0000000000000000000, 0.0000000000000000000, 0.0000000000000000000, 0.0000000000000000000, 0.0000000000000000000 ) ;
#217 = DIRECTION ( 'NONE',  ( -0.0000000000000000000, -1.000000000000000000, -0.0000000000000000000 ) ) ;
#218 = AXIS2_PLACEMENT_3D ( 'NONE', #167, #56, #247 ) ;
#219 = STYLED_ITEM ( 'NONE', ( #1 ), #59 ) ;
#220 = VERTEX_POINT ( 'NONE', #92 ) ;
#221 = CIRCLE ( 'NONE', #241, 0.09845000000000001000 ) ;
#222 = FACE_BOUND ( 'NONE', #143, .T. ) ;
#223 = ORIENTED_EDGE ( 'NONE', *, *, #238, .F. ) ;
#224 = CARTESIAN_POINT ( 'NONE',  ( 0.0000000000000000000, 0.0000000000000000000, 0.1279500000000000400 ) ) ;
#225 = DIRECTION ( 'NONE',  ( 0.0000000000000000000, -0.0000000000000000000, 1.000000000000000000 ) ) ;
#226 = CARTESIAN_POINT ( 'NONE',  ( 0.0000000000000000000, 0.01969999999999999900, 0.0000000000000000000 ) ) ;
#227 = AXIS2_PLACEMENT_3D ( 'NONE', #187, #72, #225 ) ;
#228 = DIRECTION ( 'NONE',  ( 0.0000000000000000000, -1.000000000000000000, -0.0000000000000000000 ) ) ;
#229 = SHAPE_DEFINITION_REPRESENTATION ( #85, #137 ) ;
#230 = DIMENSIONAL_EXPONENTS ( 1.000000000000000000, 0.0000000000000000000, 0.0000000000000000000, 0.0000000000000000000, 0.0000000000000000000, 0.0000000000000000000, 0.0000000000000000000 ) ;
#231 = DIRECTION ( 'NONE',  ( 0.0000000000000000000, 0.0000000000000000000, -1.000000000000000000 ) ) ;
#232 = SURFACE_STYLE_USAGE ( .BOTH. , #151 ) ;
#233 = PRODUCT ( 'AE1-AN-5A', 'AE1-AN-5A', '', ( #234 ) ) ;
#234 = PRODUCT_CONTEXT ( 'NONE', #149, 'mechanical' ) ;
#235 = EDGE_LOOP ( 'NONE', ( #86 ) ) ;
#236 = EDGE_CURVE ( 'NONE', #34, #34, #221, .T. ) ;
#237 = PLANE ( 'NONE',  #218 ) ;
#238 = EDGE_CURVE ( 'NONE', #67, #67, #84, .T. ) ;
#239 = ORIENTED_EDGE ( 'NONE', *, *, #170, .T. ) ;
#240 = UNCERTAINTY_MEASURE_WITH_UNIT (LENGTH_MEASURE( 1.000000000000000100E-005 ), #44, 'distance_accuracy_value', 'NONE');
#241 = AXIS2_PLACEMENT_3D ( 'NONE', #190, #37, #106 ) ;
#242 = CARTESIAN_POINT ( 'NONE',  ( 0.0000000000000000000, -2.237929876409764400E-012, 0.0000000000000000000 ) ) ;
#243 = CARTESIAN_POINT ( 'NONE',  ( 0.0000000000000000000, -1.759842519685039600, 0.0000000000000000000 ) ) ;
#244 = CARTESIAN_POINT ( 'NONE',  ( 0.0000000000000000000, -2.237929876409764400E-012, -0.1370230219575699600 ) ) ;
#245 = EDGE_LOOP ( 'NONE', ( #57 ) ) ;
#246 =( NAMED_UNIT ( * ) SI_UNIT ( $, .STERADIAN. ) SOLID_ANGLE_UNIT ( ) );
#247 = DIRECTION ( 'NONE',  ( 0.0000000000000000000, -0.0000000000000000000, 1.000000000000000000 ) ) ;
#248 = FACE_OUTER_BOUND ( 'NONE', #32, .T. ) ;
#249 = FILL_AREA_STYLE ('',( #129 ) ) ;
ENDSEC;
END-ISO-10303-21;
