ISO-10303-21;
HEADER;
FILE_DESCRIPTION (( 'STEP AP214' ),
    '1' );
FILE_NAME ('AE1-AP-5A.STEP',
    '2018-04-11T10:45:47',
    ( '' ),
    ( '' ),
    'SwSTEP 2.0',
    'SolidWorks 2017',
    '' );
FILE_SCHEMA (( 'AUTOMOTIVE_DESIGN' ));
ENDSEC;

DATA;
#1 =( LENGTH_UNIT ( ) NAMED_UNIT ( * ) SI_UNIT ( $, .METRE. ) );
#2 = FACE_OUTER_BOUND ( 'NONE', #55, .T. ) ;
#3 = CLOSED_SHELL ( 'NONE', ( #117, #166, #238, #194, #40, #35, #233, #219, #136, #236 ) ) ;
#4 = FILL_AREA_STYLE_COLOUR ( '', #129 ) ;
#5 = SURFACE_SIDE_STYLE ('',( #168 ) ) ;
#6 = SHAPE_DEFINITION_REPRESENTATION ( #108, #65 ) ;
#7 = CYLINDRICAL_SURFACE ( 'NONE', #48, 0.1574803149582750800 ) ;
#8 =( CONVERSION_BASED_UNIT ( 'INCH', #12 ) LENGTH_UNIT ( ) NAMED_UNIT ( #178 ) );
#9 = AXIS2_PLACEMENT_3D ( 'NONE', #122, #123, #141 ) ;
#10 = CYLINDRICAL_SURFACE ( 'NONE', #93, 0.09845000000000001000 ) ;
#11 = EDGE_LOOP ( 'NONE', ( #150 ) ) ;
#12 = LENGTH_MEASURE_WITH_UNIT ( LENGTH_MEASURE( 0.02539999999999999900 ), #101 );
#13 = CARTESIAN_POINT ( 'NONE',  ( 0.0000000000000000000, 0.0000000000000000000, 0.0000000000000000000 ) ) ;
#14 = CIRCLE ( 'NONE', #54, 0.1370230219575699600 ) ;
#15 = EDGE_CURVE ( 'NONE', #187, #187, #175, .T. ) ;
#16 = EDGE_LOOP ( 'NONE', ( #88 ) ) ;
#17 = FILL_AREA_STYLE ('',( #4 ) ) ;
#18 = PLANE ( 'NONE',  #180 ) ;
#19 = FILL_AREA_STYLE ('',( #140 ) ) ;
#20 = VERTEX_POINT ( 'NONE', #135 ) ;
#21 = CARTESIAN_POINT ( 'NONE',  ( 0.01574803149606299200, 1.031500000000000100, 0.0000000000000000000 ) ) ;
#22 = ORIENTED_EDGE ( 'NONE', *, *, #225, .F. ) ;
#23 =( CONVERSION_BASED_UNIT ( 'INCH', #107 ) LENGTH_UNIT ( ) NAMED_UNIT ( #98 ) );
#24 = MECHANICAL_DESIGN_GEOMETRIC_PRESENTATION_REPRESENTATION (  '', ( #131 ), #84 ) ;
#25 = AXIS2_PLACEMENT_3D ( 'NONE', #97, #77, #43 ) ;
#26 = EDGE_LOOP ( 'NONE', ( #243 ) ) ;
#27 = EDGE_LOOP ( 'NONE', ( #119 ) ) ;
#28 = ORIENTED_EDGE ( 'NONE', *, *, #147, .F. ) ;
#29 = AXIS2_PLACEMENT_3D ( 'NONE', #70, #51, #69 ) ;
#30 = VERTEX_POINT ( 'NONE', #56 ) ;
#31 = EDGE_LOOP ( 'NONE', ( #245 ) ) ;
#32 = DIRECTION ( 'NONE',  ( -0.0000000000000000000, -1.000000000000000000, -0.0000000000000000000 ) ) ;
#33 = FACE_OUTER_BOUND ( 'NONE', #11, .T. ) ;
#34 = ORIENTED_EDGE ( 'NONE', *, *, #128, .T. ) ;
#35 = ADVANCED_FACE ( 'NONE', ( #130 ), #18, .F. ) ;
#36 = DIRECTION ( 'NONE',  ( 0.0000000000000000000, -1.000000000000000000, -0.0000000000000000000 ) ) ;
#37 = SURFACE_SIDE_STYLE ('',( #152 ) ) ;
#38 = CARTESIAN_POINT ( 'NONE',  ( 0.0000000000000000000, 0.0000000000000000000, 0.0000000000000000000 ) ) ;
#39 = CONICAL_SURFACE ( 'NONE', #63, 0.1574803149606299200, 1.047197551261559700 ) ;
#40 = ADVANCED_FACE ( 'NONE', ( #67 ), #61, .T. ) ;
#41 = DIRECTION ( 'NONE',  ( 0.0000000000000000000, 1.000000000000000000, 0.0000000000000000000 ) ) ;
#42 =( GEOMETRIC_REPRESENTATION_CONTEXT ( 3 ) GLOBAL_UNCERTAINTY_ASSIGNED_CONTEXT ( ( #184 ) ) GLOBAL_UNIT_ASSIGNED_CONTEXT ( ( #23, #213, #142 ) ) REPRESENTATION_CONTEXT ( 'NONE', 'WORKASPACE' ) );
#43 = DIRECTION ( 'NONE',  ( 0.0000000000000000000, 0.0000000000000000000, 1.000000000000000000 ) ) ;
#44 = ORIENTED_EDGE ( 'NONE', *, *, #71, .T. ) ;
#45 = EDGE_LOOP ( 'NONE', ( #222 ) ) ;
#46 = FACE_OUTER_BOUND ( 'NONE', #87, .T. ) ;
#47 = ORIENTED_EDGE ( 'NONE', *, *, #147, .T. ) ;
#48 = AXIS2_PLACEMENT_3D ( 'NONE', #49, #32, #189 ) ;
#49 = CARTESIAN_POINT ( 'NONE',  ( 0.0000000000000000000, -1.771653543305475400, 0.0000000000000000000 ) ) ;
#50 = CIRCLE ( 'NONE', #52, 0.1279500000000000400 ) ;
#51 = DIRECTION ( 'NONE',  ( -0.0000000000000000000, -1.000000000000000000, -0.0000000000000000000 ) ) ;
#52 = AXIS2_PLACEMENT_3D ( 'NONE', #38, #41, #190 ) ;
#53 = CARTESIAN_POINT ( 'NONE',  ( 0.0000000000000000000, -1.771653543305475400, 0.0000000000000000000 ) ) ;
#54 = AXIS2_PLACEMENT_3D ( 'NONE', #113, #133, #232 ) ;
#55 = EDGE_LOOP ( 'NONE', ( #111 ) ) ;
#56 = CARTESIAN_POINT ( 'NONE',  ( 0.0000000000000000000, 0.009699999999999996800, 0.1279500000000000400 ) ) ;
#57 = DIRECTION ( 'NONE',  ( 0.0000000000000000000, 1.000000000000000000, 0.0000000000000000000 ) ) ;
#58 = CARTESIAN_POINT ( 'NONE',  ( 0.0000000000000000000, -1.771653543305475400, 0.1370230219575699600 ) ) ;
#59 = CARTESIAN_POINT ( 'NONE',  ( 0.0000000000000000000, -1.759842519685039600, 0.0000000000000000000 ) ) ;
#60 = AXIS2_PLACEMENT_3D ( 'NONE', #72, #36, #228 ) ;
#61 = PLANE ( 'NONE',  #170 ) ;
#62 = ORIENTED_EDGE ( 'NONE', *, *, #71, .F. ) ;
#63 = AXIS2_PLACEMENT_3D ( 'NONE', #159, #57, #195 ) ;
#64 = PRESENTATION_STYLE_ASSIGNMENT (( #177 ) ) ;
#65 = ADVANCED_BREP_SHAPE_REPRESENTATION ( 'AE1-AP-5A', ( #208, #102 ), #42 ) ;
#66 = PRODUCT_DEFINITION ( 'UNKNOWN', '', #188, #211 ) ;
#67 = FACE_OUTER_BOUND ( 'NONE', #153, .T. ) ;
#68 = AXIS2_PLACEMENT_3D ( 'NONE', #186, #154, #226 ) ;
#69 = DIRECTION ( 'NONE',  ( 0.0000000000000000000, 0.0000000000000000000, 1.000000000000000000 ) ) ;
#70 = CARTESIAN_POINT ( 'NONE',  ( 0.01574803149606299200, 0.01969999999999992900, 0.0000000000000000000 ) ) ;
#71 = EDGE_CURVE ( 'NONE', #139, #139, #90, .T. ) ;
#72 = CARTESIAN_POINT ( 'NONE',  ( 0.0000000000000000000, -1.118966005333004800E-012, 0.0000000000000000000 ) ) ;
#73 = FACE_OUTER_BOUND ( 'NONE', #45, .T. ) ;
#74 = DIRECTION ( 'NONE',  ( 0.0000000000000000000, 0.0000000000000000000, -1.000000000000000000 ) ) ;
#75 = DIRECTION ( 'NONE',  ( 0.0000000000000000000, 1.000000000000000000, 0.0000000000000000000 ) ) ;
#76 =( GEOMETRIC_REPRESENTATION_CONTEXT ( 3 ) GLOBAL_UNCERTAINTY_ASSIGNED_CONTEXT ( ( #167 ) ) GLOBAL_UNIT_ASSIGNED_CONTEXT ( ( #8, #237, #165 ) ) REPRESENTATION_CONTEXT ( 'NONE', 'WORKASPACE' ) );
#77 = DIRECTION ( 'NONE',  ( 0.0000000000000000000, 1.000000000000000000, 0.0000000000000000000 ) ) ;
#78 = CARTESIAN_POINT ( 'NONE',  ( 0.0000000000000000000, 0.009699999999999996800, 0.0000000000000000000 ) ) ;
#79 = DIRECTION ( 'NONE',  ( 0.0000000000000000000, -0.0000000000000000000, 1.000000000000000000 ) ) ;
#80 = DIRECTION ( 'NONE',  ( 1.000000000000000000, 0.0000000000000000000, 0.0000000000000000000 ) ) ;
#81 = EDGE_LOOP ( 'NONE', ( #28 ) ) ;
#82 = AXIS2_PLACEMENT_3D ( 'NONE', #59, #212, #191 ) ;
#83 = EDGE_LOOP ( 'NONE', ( #185 ) ) ;
#84 =( GEOMETRIC_REPRESENTATION_CONTEXT ( 3 ) GLOBAL_UNCERTAINTY_ASSIGNED_CONTEXT ( ( #132 ) ) GLOBAL_UNIT_ASSIGNED_CONTEXT ( ( #91, #162, #214 ) ) REPRESENTATION_CONTEXT ( 'NONE', 'WORKASPACE' ) );
#85 = LENGTH_MEASURE_WITH_UNIT ( LENGTH_MEASURE( 0.02539999999999999900 ), #1 );
#86 = AXIS2_PLACEMENT_3D ( 'NONE', #21, #137, #164 ) ;
#87 = EDGE_LOOP ( 'NONE', ( #171 ) ) ;
#88 = ORIENTED_EDGE ( 'NONE', *, *, #116, .T. ) ;
#89 = CARTESIAN_POINT ( 'NONE',  ( 0.01574803149606299200, 1.031500000000000100, 0.0000000000000000000 ) ) ;
#90 = CIRCLE ( 'NONE', #86, 0.09845000000000001000 ) ;
#91 =( CONVERSION_BASED_UNIT ( 'INCH', #85 ) LENGTH_UNIT ( ) NAMED_UNIT ( #126 ) );
#92 = PLANE ( 'NONE',  #60 ) ;
#93 = AXIS2_PLACEMENT_3D ( 'NONE', #89, #227, #115 ) ;
#94 = DIRECTION ( 'NONE',  ( 0.0000000000000000000, 1.000000000000000000, 0.0000000000000000000 ) ) ;
#95 = CARTESIAN_POINT ( 'NONE',  ( 0.0000000000000000000, 0.01969999999999999900, 0.1179500000000000400 ) ) ;
#96 = CIRCLE ( 'NONE', #29, 0.09845000000000001000 ) ;
#97 = CARTESIAN_POINT ( 'NONE',  ( 0.0000000000000000000, 0.01969999999999999900, 0.0000000000000000000 ) ) ;
#98 = DIMENSIONAL_EXPONENTS ( 1.000000000000000000, 0.0000000000000000000, 0.0000000000000000000, 0.0000000000000000000, 0.0000000000000000000, 0.0000000000000000000, 0.0000000000000000000 ) ;
#99 = CARTESIAN_POINT ( 'NONE',  ( 0.0000000000000000000, -0.01181102362204321200, -0.1574803149559202700 ) ) ;
#100 = DIRECTION ( 'NONE',  ( -0.0000000000000000000, -1.000000000000000000, -0.0000000000000000000 ) ) ;
#101 =( LENGTH_UNIT ( ) NAMED_UNIT ( * ) SI_UNIT ( $, .METRE. ) );
#102 = AXIS2_PLACEMENT_3D ( 'NONE', #13, #143, #80 ) ;
#103 = CARTESIAN_POINT ( 'NONE',  ( 0.0000000000000000000, 0.009699999999999996800, 0.0000000000000000000 ) ) ;
#104 = PRODUCT_CONTEXT ( 'NONE', #230, 'mechanical' ) ;
#105 = CIRCLE ( 'NONE', #110, 0.1370230219575699600 ) ;
#106 = ORIENTED_EDGE ( 'NONE', *, *, #15, .T. ) ;
#107 = LENGTH_MEASURE_WITH_UNIT ( LENGTH_MEASURE( 0.02539999999999999900 ), #193 );
#108 = PRODUCT_DEFINITION_SHAPE ( 'NONE', 'NONE',  #66 ) ;
#109 = CONICAL_SURFACE ( 'NONE', #246, 0.1370230219575699600, 1.047197551184987400 ) ;
#110 = AXIS2_PLACEMENT_3D ( 'NONE', #53, #118, #138 ) ;
#111 = ORIENTED_EDGE ( 'NONE', *, *, #225, .T. ) ;
#112 = FACE_OUTER_BOUND ( 'NONE', #83, .T. ) ;
#113 = CARTESIAN_POINT ( 'NONE',  ( 0.0000000000000000000, -2.237929876409764400E-012, 0.0000000000000000000 ) ) ;
#114 = FACE_OUTER_BOUND ( 'NONE', #16, .T. ) ;
#115 = DIRECTION ( 'NONE',  ( 0.0000000000000000000, 0.0000000000000000000, -1.000000000000000000 ) ) ;
#116 = EDGE_CURVE ( 'NONE', #163, #163, #179, .T. ) ;
#117 = ADVANCED_FACE ( 'NONE', ( #224, #2 ), #199, .T. ) ;
#118 = DIRECTION ( 'NONE',  ( -0.0000000000000000000, -1.000000000000000000, -0.0000000000000000000 ) ) ;
#119 = ORIENTED_EDGE ( 'NONE', *, *, #116, .F. ) ;
#120 = APPLICATION_PROTOCOL_DEFINITION ( 'draft international standard', 'automotive_design', 1998, #230 ) ;
#121 = CARTESIAN_POINT ( 'NONE',  ( 0.0000000000000000000, -1.759842519685039600, -0.1574803149606299200 ) ) ;
#122 = CARTESIAN_POINT ( 'NONE',  ( 0.0000000000000000000, 0.01969999999999999900, 0.0000000000000000000 ) ) ;
#123 = DIRECTION ( 'NONE',  ( -0.0000000000000000000, -1.000000000000000000, -0.0000000000000000000 ) ) ;
#124 = CARTESIAN_POINT ( 'NONE',  ( 0.0000000000000000000, -1.771653543305475400, -0.1370230219575699600 ) ) ;
#125 = VERTEX_POINT ( 'NONE', #176 ) ;
#126 = DIMENSIONAL_EXPONENTS ( 1.000000000000000000, 0.0000000000000000000, 0.0000000000000000000, 0.0000000000000000000, 0.0000000000000000000, 0.0000000000000000000, 0.0000000000000000000 ) ;
#127 = FACE_OUTER_BOUND ( 'NONE', #81, .T. ) ;
#128 = EDGE_CURVE ( 'NONE', #30, #30, #247, .T. ) ;
#129 = COLOUR_RGB ( '',0.7921568627450980000, 0.8196078431372548800, 0.9333333333333333500 ) ;
#130 = FACE_OUTER_BOUND ( 'NONE', #31, .T. ) ;
#131 = STYLED_ITEM ( 'NONE', ( #64 ), #208 ) ;
#132 = UNCERTAINTY_MEASURE_WITH_UNIT (LENGTH_MEASURE( 1.000000000000000100E-005 ), #91, 'distance_accuracy_value', 'NONE');
#133 = DIRECTION ( 'NONE',  ( -0.0000000000000000000, -1.000000000000000000, -0.0000000000000000000 ) ) ;
#134 = EDGE_LOOP ( 'NONE', ( #148 ) ) ;
#135 = CARTESIAN_POINT ( 'NONE',  ( 0.01574803149606299200, 0.01969999999999992900, 0.09845000000000001000 ) ) ;
#136 = ADVANCED_FACE ( 'NONE', ( #157, #174 ), #109, .T. ) ;
#137 = DIRECTION ( 'NONE',  ( 0.0000000000000000000, 1.000000000000000000, 0.0000000000000000000 ) ) ;
#138 = DIRECTION ( 'NONE',  ( 0.0000000000000000000, 0.0000000000000000000, -1.000000000000000000 ) ) ;
#139 = VERTEX_POINT ( 'NONE', #216 ) ;
#140 = FILL_AREA_STYLE_COLOUR ( '', #204 ) ;
#141 = DIRECTION ( 'NONE',  ( 0.0000000000000000000, 0.0000000000000000000, -1.000000000000000000 ) ) ;
#142 =( NAMED_UNIT ( * ) SI_UNIT ( $, .STERADIAN. ) SOLID_ANGLE_UNIT ( ) );
#143 = DIRECTION ( 'NONE',  ( 0.0000000000000000000, 0.0000000000000000000, 1.000000000000000000 ) ) ;
#144 = DIRECTION ( 'NONE',  ( 0.0000000000000000000, 0.0000000000000000000, 1.000000000000000000 ) ) ;
#145 = APPLICATION_PROTOCOL_DEFINITION ( 'draft international standard', 'automotive_design', 1998, #240 ) ;
#146 = CIRCLE ( 'NONE', #82, 0.1574803149606299200 ) ;
#147 = EDGE_CURVE ( 'NONE', #20, #20, #96, .T. ) ;
#148 = ORIENTED_EDGE ( 'NONE', *, *, #198, .T. ) ;
#149 = MECHANICAL_DESIGN_GEOMETRIC_PRESENTATION_REPRESENTATION (  '', ( #183 ), #76 ) ;
#150 = ORIENTED_EDGE ( 'NONE', *, *, #198, .F. ) ;
#151 = PRESENTATION_LAYER_ASSIGNMENT (  '', '', ( #131 ) ) ;
#152 = SURFACE_STYLE_FILL_AREA ( #17 ) ;
#153 = EDGE_LOOP ( 'NONE', ( #44 ) ) ;
#154 = DIRECTION ( 'NONE',  ( 0.0000000000000000000, 1.000000000000000000, 0.0000000000000000000 ) ) ;
#155 = FACE_BOUND ( 'NONE', #26, .T. ) ;
#156 = CARTESIAN_POINT ( 'NONE',  ( 0.0000000000000000000, -2.237929876409764400E-012, -0.1370230219575699600 ) ) ;
#157 = FACE_OUTER_BOUND ( 'NONE', #27, .T. ) ;
#158 = EDGE_LOOP ( 'NONE', ( #34 ) ) ;
#159 = CARTESIAN_POINT ( 'NONE',  ( 0.0000000000000000000, -1.759842519685039600, 0.0000000000000000000 ) ) ;
#160 = SURFACE_STYLE_USAGE ( .BOTH. , #5 ) ;
#161 = CARTESIAN_POINT ( 'NONE',  ( 0.0000000000000000000, -0.01181102362204321200, 0.0000000000000000000 ) ) ;
#162 =( NAMED_UNIT ( * ) PLANE_ANGLE_UNIT ( ) SI_UNIT ( $, .RADIAN. ) );
#163 = VERTEX_POINT ( 'NONE', #99 ) ;
#164 = DIRECTION ( 'NONE',  ( 0.0000000000000000000, 0.0000000000000000000, 1.000000000000000000 ) ) ;
#165 =( NAMED_UNIT ( * ) SI_UNIT ( $, .STERADIAN. ) SOLID_ANGLE_UNIT ( ) );
#166 = ADVANCED_FACE ( 'NONE', ( #221, #201 ), #173, .T. ) ;
#167 = UNCERTAINTY_MEASURE_WITH_UNIT (LENGTH_MEASURE( 1.000000000000000100E-005 ), #8, 'distance_accuracy_value', 'NONE');
#168 = SURFACE_STYLE_FILL_AREA ( #19 ) ;
#169 = FACE_OUTER_BOUND ( 'NONE', #207, .T. ) ;
#170 = AXIS2_PLACEMENT_3D ( 'NONE', #217, #94, #231 ) ;
#171 = ORIENTED_EDGE ( 'NONE', *, *, #202, .T. ) ;
#172 = TOROIDAL_SURFACE ( 'NONE', #209, 0.1179500000000000400, 0.01000000000000000000 ) ;
#173 = PLANE ( 'NONE',  #68 ) ;
#174 = FACE_BOUND ( 'NONE', #134, .T. ) ;
#175 = CIRCLE ( 'NONE', #25, 0.1179500000000000400 ) ;
#176 = CARTESIAN_POINT ( 'NONE',  ( 0.0000000000000000000, 0.0000000000000000000, 0.1279500000000000400 ) ) ;
#177 = SURFACE_STYLE_USAGE ( .BOTH. , #37 ) ;
#178 = DIMENSIONAL_EXPONENTS ( 1.000000000000000000, 0.0000000000000000000, 0.0000000000000000000, 0.0000000000000000000, 0.0000000000000000000, 0.0000000000000000000, 0.0000000000000000000 ) ;
#179 = CIRCLE ( 'NONE', #220, 0.1574803149559202700 ) ;
#180 = AXIS2_PLACEMENT_3D ( 'NONE', #58, #215, #79 ) ;
#181 = PRODUCT ( 'AE1-AP-5A', 'AE1-AP-5A', '', ( #104 ) ) ;
#182 = EDGE_LOOP ( 'NONE', ( #22 ) ) ;
#183 = STYLED_ITEM ( 'NONE', ( #192 ), #65 ) ;
#184 = UNCERTAINTY_MEASURE_WITH_UNIT (LENGTH_MEASURE( 1.000000000000000100E-005 ), #23, 'distance_accuracy_value', 'NONE');
#185 = ORIENTED_EDGE ( 'NONE', *, *, #15, .F. ) ;
#186 = CARTESIAN_POINT ( 'NONE',  ( 0.0000000000000000000, 0.01969999999999999900, 0.0000000000000000000 ) ) ;
#187 = VERTEX_POINT ( 'NONE', #95 ) ;
#188 = PRODUCT_DEFINITION_FORMATION_WITH_SPECIFIED_SOURCE ( 'ANY', '', #181, .NOT_KNOWN. ) ;
#189 = DIRECTION ( 'NONE',  ( 0.0000000000000000000, 0.0000000000000000000, -1.000000000000000000 ) ) ;
#190 = DIRECTION ( 'NONE',  ( 0.0000000000000000000, 0.0000000000000000000, 1.000000000000000000 ) ) ;
#191 = DIRECTION ( 'NONE',  ( 0.0000000000000000000, 0.0000000000000000000, -1.000000000000000000 ) ) ;
#192 = PRESENTATION_STYLE_ASSIGNMENT (( #160 ) ) ;
#193 =( LENGTH_UNIT ( ) NAMED_UNIT ( * ) SI_UNIT ( $, .METRE. ) );
#194 = ADVANCED_FACE ( 'NONE', ( #127, #244 ), #10, .T. ) ;
#195 = DIRECTION ( 'NONE',  ( 0.0000000000000000000, 0.0000000000000000000, 1.000000000000000000 ) ) ;
#196 = PRODUCT_RELATED_PRODUCT_CATEGORY ( 'part', '', ( #181 ) ) ;
#197 = DIRECTION ( 'NONE',  ( -0.0000000000000000000, -1.000000000000000000, -0.0000000000000000000 ) ) ;
#198 = EDGE_CURVE ( 'NONE', #210, #210, #14, .T. ) ;
#199 = CYLINDRICAL_SURFACE ( 'NONE', #9, 0.1279500000000000400 ) ;
#200 = EDGE_LOOP ( 'NONE', ( #47 ) ) ;
#201 = FACE_OUTER_BOUND ( 'NONE', #241, .T. ) ;
#202 = EDGE_CURVE ( 'NONE', #242, #242, #146, .T. ) ;
#203 = PRESENTATION_LAYER_ASSIGNMENT (  '', '', ( #183 ) ) ;
#204 = COLOUR_RGB ( '',0.7921568627450980000, 0.8196078431372548800, 0.9333333333333333500 ) ;
#205 = FACE_BOUND ( 'NONE', #182, .T. ) ;
#206 = EDGE_CURVE ( 'NONE', #223, #223, #105, .T. ) ;
#207 = EDGE_LOOP ( 'NONE', ( #248 ) ) ;
#208 = MANIFOLD_SOLID_BREP ( 'Revolve1', #3 ) ;
#209 = AXIS2_PLACEMENT_3D ( 'NONE', #78, #75, #249 ) ;
#210 = VERTEX_POINT ( 'NONE', #156 ) ;
#211 = PRODUCT_DEFINITION_CONTEXT ( 'detailed design', #240, 'design' ) ;
#212 = DIRECTION ( 'NONE',  ( -0.0000000000000000000, -1.000000000000000000, -0.0000000000000000000 ) ) ;
#213 =( NAMED_UNIT ( * ) PLANE_ANGLE_UNIT ( ) SI_UNIT ( $, .RADIAN. ) );
#214 =( NAMED_UNIT ( * ) SI_UNIT ( $, .STERADIAN. ) SOLID_ANGLE_UNIT ( ) );
#215 = DIRECTION ( 'NONE',  ( 0.0000000000000000000, 1.000000000000000000, 0.0000000000000000000 ) ) ;
#216 = CARTESIAN_POINT ( 'NONE',  ( 0.01574803149606299200, 1.031500000000000100, 0.09845000000000001000 ) ) ;
#217 = CARTESIAN_POINT ( 'NONE',  ( 0.01574803149606299200, 1.031500000000000100, 0.0000000000000000000 ) ) ;
#218 = CARTESIAN_POINT ( 'NONE',  ( 0.0000000000000000000, -2.237929876409764400E-012, 0.0000000000000000000 ) ) ;
#219 = ADVANCED_FACE ( 'NONE', ( #169, #114 ), #7, .T. ) ;
#220 = AXIS2_PLACEMENT_3D ( 'NONE', #161, #197, #234 ) ;
#221 = FACE_BOUND ( 'NONE', #200, .T. ) ;
#222 = ORIENTED_EDGE ( 'NONE', *, *, #128, .F. ) ;
#223 = VERTEX_POINT ( 'NONE', #124 ) ;
#224 = FACE_OUTER_BOUND ( 'NONE', #158, .T. ) ;
#225 = EDGE_CURVE ( 'NONE', #125, #125, #50, .T. ) ;
#226 = DIRECTION ( 'NONE',  ( 0.0000000000000000000, -0.0000000000000000000, 1.000000000000000000 ) ) ;
#227 = DIRECTION ( 'NONE',  ( -0.0000000000000000000, -1.000000000000000000, -0.0000000000000000000 ) ) ;
#228 = DIRECTION ( 'NONE',  ( 0.0000000000000000000, 0.0000000000000000000, -1.000000000000000000 ) ) ;
#229 = AXIS2_PLACEMENT_3D ( 'NONE', #103, #239, #144 ) ;
#230 = APPLICATION_CONTEXT ( 'automotive_design' ) ;
#231 = DIRECTION ( 'NONE',  ( 0.0000000000000000000, -0.0000000000000000000, 1.000000000000000000 ) ) ;
#232 = DIRECTION ( 'NONE',  ( 0.0000000000000000000, 0.0000000000000000000, -1.000000000000000000 ) ) ;
#233 = ADVANCED_FACE ( 'NONE', ( #155, #46 ), #39, .T. ) ;
#234 = DIRECTION ( 'NONE',  ( 0.0000000000000000000, 0.0000000000000000000, -1.000000000000000000 ) ) ;
#235 = EDGE_LOOP ( 'NONE', ( #62 ) ) ;
#236 = ADVANCED_FACE ( 'NONE', ( #205, #33 ), #92, .F. ) ;
#237 =( NAMED_UNIT ( * ) PLANE_ANGLE_UNIT ( ) SI_UNIT ( $, .RADIAN. ) );
#238 = ADVANCED_FACE ( 'NONE', ( #73, #112 ), #172, .T. ) ;
#239 = DIRECTION ( 'NONE',  ( -0.0000000000000000000, -1.000000000000000000, -0.0000000000000000000 ) ) ;
#240 = APPLICATION_CONTEXT ( 'automotive_design' ) ;
#241 = EDGE_LOOP ( 'NONE', ( #106 ) ) ;
#242 = VERTEX_POINT ( 'NONE', #121 ) ;
#243 = ORIENTED_EDGE ( 'NONE', *, *, #206, .F. ) ;
#244 = FACE_OUTER_BOUND ( 'NONE', #235, .T. ) ;
#245 = ORIENTED_EDGE ( 'NONE', *, *, #206, .T. ) ;
#246 = AXIS2_PLACEMENT_3D ( 'NONE', #218, #100, #74 ) ;
#247 = CIRCLE ( 'NONE', #229, 0.1279500000000000400 ) ;
#248 = ORIENTED_EDGE ( 'NONE', *, *, #202, .F. ) ;
#249 = DIRECTION ( 'NONE',  ( 0.0000000000000000000, 0.0000000000000000000, 1.000000000000000000 ) ) ;
ENDSEC;
END-ISO-10303-21;
