ISO-10303-21;
HEADER;
FILE_DESCRIPTION (( 'STEP AP214' ),
    '1' );
FILE_NAME ('ASP-2016-P10.STEP',
    '2019-02-26T14:18:17',
    ( '' ),
    ( '' ),
    'SwSTEP 2.0',
    'SolidWorks 2018',
    '' );
FILE_SCHEMA (( 'AUTOMOTIVE_DESIGN' ));
ENDSEC;

DATA;
#1 = CARTESIAN_POINT ( 'NONE',  ( -7.500000000000000000, 0.0000000000000000000, -3.125000000000000000 ) ) ;
#2 = DIRECTION ( 'NONE',  ( -0.0000000000000000000, 0.0000000000000000000, -1.000000000000000000 ) ) ;
#3 =( NAMED_UNIT ( * ) PLANE_ANGLE_UNIT ( ) SI_UNIT ( $, .RADIAN. ) );
#4 = VERTEX_POINT ( 'NONE', #172 ) ;
#5 = ORIENTED_EDGE ( 'NONE', *, *, #301, .T. ) ;
#6 = DIRECTION ( 'NONE',  ( 0.0000000000000000000, 0.0000000000000000000, 1.000000000000000000 ) ) ;
#7 =( LENGTH_UNIT ( ) NAMED_UNIT ( * ) SI_UNIT ( $, .METRE. ) );
#8 = AXIS2_PLACEMENT_3D ( 'NONE', #35, #391, #290 ) ;
#9 = FACE_BOUND ( 'NONE', #199, .T. ) ;
#10 = EDGE_LOOP ( 'NONE', ( #162 ) ) ;
#11 = VERTEX_POINT ( 'NONE', #71 ) ;
#12 = ADVANCED_FACE ( 'NONE', ( #261, #272 ), #64, .F. ) ;
#13 = VERTEX_POINT ( 'NONE', #357 ) ;
#14 = LINE ( 'NONE', #370, #56 ) ;
#15 = AXIS2_PLACEMENT_3D ( 'NONE', #344, #188, #404 ) ;
#16 = DIMENSIONAL_EXPONENTS ( 1.000000000000000000, 0.0000000000000000000, 0.0000000000000000000, 0.0000000000000000000, 0.0000000000000000000, 0.0000000000000000000, 0.0000000000000000000 ) ;
#17 = EDGE_LOOP ( 'NONE', ( #181 ) ) ;
#18 = ORIENTED_EDGE ( 'NONE', *, *, #130, .T. ) ;
#19 = DIRECTION ( 'NONE',  ( 0.0000000000000000000, -1.000000000000000000, 0.0000000000000000000 ) ) ;
#20 = CARTESIAN_POINT ( 'NONE',  ( 6.457200000000000273, 0.0000000000000000000, 2.625000000000000000 ) ) ;
#21 = EDGE_CURVE ( 'NONE', #354, #11, #74, .T. ) ;
#22 = CARTESIAN_POINT ( 'NONE',  ( -7.500000000000000000, 0.0000000000000000000, 3.125000000000000000 ) ) ;
#23 = LINE ( 'NONE', #253, #308 ) ;
#24 = LINE ( 'NONE', #49, #182 ) ;
#25 = UNCERTAINTY_MEASURE_WITH_UNIT (LENGTH_MEASURE( 1.000000000000000082E-05 ), #32, 'distance_accuracy_value', 'NONE');
#26 = DIRECTION ( 'NONE',  ( -0.0000000000000000000, 1.000000000000000000, -0.0000000000000000000 ) ) ;
#27 = ORIENTED_EDGE ( 'NONE', *, *, #321, .F. ) ;
#28 = EDGE_LOOP ( 'NONE', ( #198, #129, #59, #218 ) ) ;
#29 = PRODUCT_DEFINITION_FORMATION_WITH_SPECIFIED_SOURCE ( 'ANY', '', #232, .NOT_KNOWN. ) ;
#30 = CARTESIAN_POINT ( 'NONE',  ( -7.500000000000000000, 0.0000000000000000000, -3.125000000000000000 ) ) ;
#31 = FACE_BOUND ( 'NONE', #359, .T. ) ;
#32 =( CONVERSION_BASED_UNIT ( 'INCH', #144 ) LENGTH_UNIT ( ) NAMED_UNIT ( #334 ) );
#33 = LINE ( 'NONE', #82, #135 ) ;
#34 = ORIENTED_EDGE ( 'NONE', *, *, #185, .F. ) ;
#35 = CARTESIAN_POINT ( 'NONE',  ( -6.457200000000000273, -0.08000000000000023759, -2.625000000000000000 ) ) ;
#36 = AXIS2_PLACEMENT_3D ( 'NONE', #39, #66, #167 ) ;
#37 = LINE ( 'NONE', #30, #203 ) ;
#38 = EDGE_LOOP ( 'NONE', ( #18 ) ) ;
#39 = CARTESIAN_POINT ( 'NONE',  ( -6.457200000000000273, 4.592425496802565591E-17, 2.625000000000000000 ) ) ;
#40 = EDGE_CURVE ( 'NONE', #213, #394, #217, .T. ) ;
#41 = ORIENTED_EDGE ( 'NONE', *, *, #47, .T. ) ;
#42 = ORIENTED_EDGE ( 'NONE', *, *, #142, .F. ) ;
#43 = ADVANCED_FACE ( 'NONE', ( #191, #398, #109, #102, #9, #236, #353 ), #245, .F. ) ;
#44 = CARTESIAN_POINT ( 'NONE',  ( 7.500000000000000000, 0.0000000000000000000, 3.125000000000000000 ) ) ;
#45 = LINE ( 'NONE', #248, #174 ) ;
#46 = EDGE_LOOP ( 'NONE', ( #146, #361, #380, #255 ) ) ;
#47 = EDGE_CURVE ( 'NONE', #11, #213, #45, .T. ) ;
#48 = PLANE ( 'NONE',  #239 ) ;
#49 = CARTESIAN_POINT ( 'NONE',  ( 7.500000000000000000, 0.0000000000000000000, -3.125000000000000000 ) ) ;
#50 = FACE_OUTER_BOUND ( 'NONE', #223, .T. ) ;
#51 = ORIENTED_EDGE ( 'NONE', *, *, #231, .F. ) ;
#52 = ORIENTED_EDGE ( 'NONE', *, *, #91, .F. ) ;
#53 = CARTESIAN_POINT ( 'NONE',  ( -7.500000000000000000, 0.0000000000000000000, 3.125000000000000000 ) ) ;
#54 = AXIS2_PLACEMENT_3D ( 'NONE', #94, #62, #262 ) ;
#55 = DIRECTION ( 'NONE',  ( -1.000000000000000000, 0.0000000000000000000, 0.0000000000000000000 ) ) ;
#56 = VECTOR ( 'NONE', #19, 39.37007874015748143 ) ;
#57 = CARTESIAN_POINT ( 'NONE',  ( 0.0000000000000000000, 0.0000000000000000000, -2.625000000000000000 ) ) ;
#58 = FACE_OUTER_BOUND ( 'NONE', #286, .T. ) ;
#59 = ORIENTED_EDGE ( 'NONE', *, *, #47, .F. ) ;
#60 = CARTESIAN_POINT ( 'NONE',  ( 0.0000000000000000000, 0.0000000000000000000, 0.0000000000000000000 ) ) ;
#61 = MECHANICAL_DESIGN_GEOMETRIC_PRESENTATION_REPRESENTATION (  '', ( #138 ), #247 ) ;
#62 = DIRECTION ( 'NONE',  ( -0.0000000000000000000, 1.000000000000000000, -0.0000000000000000000 ) ) ;
#63 = CARTESIAN_POINT ( 'NONE',  ( 6.457200000000000273, 4.592425496802565591E-17, 2.749999999999999556 ) ) ;
#64 = CYLINDRICAL_SURFACE ( 'NONE', #219, 0.1249999999999993477 ) ;
#65 = EDGE_LOOP ( 'NONE', ( #338 ) ) ;
#66 = DIRECTION ( 'NONE',  ( -0.0000000000000000000, 1.000000000000000000, -0.0000000000000000000 ) ) ;
#67 =( GEOMETRIC_REPRESENTATION_CONTEXT ( 3 ) GLOBAL_UNCERTAINTY_ASSIGNED_CONTEXT ( ( #157 ) ) GLOBAL_UNIT_ASSIGNED_CONTEXT ( ( #238, #240, #355 ) ) REPRESENTATION_CONTEXT ( 'NONE', 'WORKASPACE' ) );
#68 = EDGE_LOOP ( 'NONE', ( #111 ) ) ;
#69 = EDGE_CURVE ( 'NONE', #368, #364, #14, .T. ) ;
#70 = ADVANCED_FACE ( 'NONE', ( #97 ), #48, .T. ) ;
#71 = CARTESIAN_POINT ( 'NONE',  ( 7.500000000000000000, 0.0000000000000000000, -3.125000000000000000 ) ) ;
#72 = EDGE_CURVE ( 'NONE', #213, #368, #358, .T. ) ;
#73 = FACE_OUTER_BOUND ( 'NONE', #98, .T. ) ;
#74 = LINE ( 'NONE', #336, #409 ) ;
#75 = VERTEX_POINT ( 'NONE', #311 ) ;
#76 = CARTESIAN_POINT ( 'NONE',  ( 0.0000000000000000000, 0.0000000000000000000, 0.0000000000000000000 ) ) ;
#77 = CARTESIAN_POINT ( 'NONE',  ( 7.500000000000000000, -0.08000000000000000167, -3.125000000000000000 ) ) ;
#78 = EDGE_LOOP ( 'NONE', ( #116 ) ) ;
#79 = DIRECTION ( 'NONE',  ( 0.0000000000000000000, -1.000000000000000000, 0.0000000000000000000 ) ) ;
#80 = AXIS2_PLACEMENT_3D ( 'NONE', #76, #107, #339 ) ;
#81 =( LENGTH_UNIT ( ) NAMED_UNIT ( * ) SI_UNIT ( $, .METRE. ) );
#82 = CARTESIAN_POINT ( 'NONE',  ( -7.500000000000000000, -0.08000000000000000167, -3.125000000000000000 ) ) ;
#83 = VERTEX_POINT ( 'NONE', #63 ) ;
#84 = ORIENTED_EDGE ( 'NONE', *, *, #266, .F. ) ;
#85 = DIRECTION ( 'NONE',  ( 0.0000000000000000000, 0.0000000000000000000, 1.000000000000000000 ) ) ;
#86 = PLANE ( 'NONE',  #242 ) ;
#87 = PRODUCT_RELATED_PRODUCT_CATEGORY ( 'part', '', ( #232 ) ) ;
#88 = CARTESIAN_POINT ( 'NONE',  ( -6.457200000000000273, 4.592425496802565591E-17, -2.625000000000000000 ) ) ;
#89 = VECTOR ( 'NONE', #366, 39.37007874015748143 ) ;
#90 = CARTESIAN_POINT ( 'NONE',  ( 6.457200000000000273, -0.08000000000000023759, -2.625000000000000000 ) ) ;
#91 = EDGE_CURVE ( 'NONE', #394, #364, #244, .T. ) ;
#92 = ORIENTED_EDGE ( 'NONE', *, *, #293, .F. ) ;
#93 = CARTESIAN_POINT ( 'NONE',  ( 7.500000000000000000, 0.0000000000000000000, 3.125000000000000000 ) ) ;
#94 = CARTESIAN_POINT ( 'NONE',  ( 6.457200000000000273, 0.0000000000000000000, -2.625000000000000000 ) ) ;
#95 =( NAMED_UNIT ( * ) SI_UNIT ( $, .STERADIAN. ) SOLID_ANGLE_UNIT ( ) );
#96 = CIRCLE ( 'NONE', #360, 0.1249999999999993477 ) ;
#97 = FACE_OUTER_BOUND ( 'NONE', #410, .T. ) ;
#98 = EDGE_LOOP ( 'NONE', ( #27, #42, #41, #369 ) ) ;
#99 = SURFACE_STYLE_USAGE ( .BOTH. , #390 ) ;
#100 = AXIS2_PLACEMENT_3D ( 'NONE', #20, #226, #314 ) ;
#101 = CARTESIAN_POINT ( 'NONE',  ( 6.457200000000000273, -0.08000000000000023759, 2.749999999999999556 ) ) ;
#102 = FACE_BOUND ( 'NONE', #392, .T. ) ;
#103 = ORIENTED_EDGE ( 'NONE', *, *, #212, .F. ) ;
#104 = FACE_BOUND ( 'NONE', #197, .T. ) ;
#105 = VECTOR ( 'NONE', #117, 39.37007874015748143 ) ;
#106 = ORIENTED_EDGE ( 'NONE', *, *, #388, .T. ) ;
#107 = DIRECTION ( 'NONE',  ( 0.0000000000000000000, -1.000000000000000000, 0.0000000000000000000 ) ) ;
#108 = FACE_OUTER_BOUND ( 'NONE', #156, .T. ) ;
#109 = FACE_BOUND ( 'NONE', #385, .T. ) ;
#110 = EDGE_LOOP ( 'NONE', ( #415 ) ) ;
#111 = ORIENTED_EDGE ( 'NONE', *, *, #301, .F. ) ;
#112 = EDGE_CURVE ( 'NONE', #260, #260, #161, .T. ) ;
#113 = LINE ( 'NONE', #319, #221 ) ;
#114 = ORIENTED_EDGE ( 'NONE', *, *, #264, .T. ) ;
#115 =( NAMED_UNIT ( * ) PLANE_ANGLE_UNIT ( ) SI_UNIT ( $, .RADIAN. ) );
#116 = ORIENTED_EDGE ( 'NONE', *, *, #231, .T. ) ;
#117 = DIRECTION ( 'NONE',  ( 0.0000000000000000000, 0.0000000000000000000, -1.000000000000000000 ) ) ;
#118 = AXIS2_PLACEMENT_3D ( 'NONE', #320, #195, #251 ) ;
#119 = DIRECTION ( 'NONE',  ( -0.0000000000000000000, 1.000000000000000000, -0.0000000000000000000 ) ) ;
#120 = SURFACE_STYLE_FILL_AREA ( #259 ) ;
#121 = AXIS2_PLACEMENT_3D ( 'NONE', #93, #230, #201 ) ;
#122 = COLOUR_RGB ( '',0.7921568627450980005, 0.8196078431372548767, 0.9333333333333333481 ) ;
#123 = MANIFOLD_SOLID_BREP ( '1/4 (0.25) Diameter Hole1', #313 ) ;
#124 = ORIENTED_EDGE ( 'NONE', *, *, #264, .F. ) ;
#125 = CARTESIAN_POINT ( 'NONE',  ( 0.0000000000000000000, -0.08000000000000023759, 2.625000000000000000 ) ) ;
#126 = DIRECTION ( 'NONE',  ( 0.0000000000000000000, 0.0000000000000000000, 1.000000000000000000 ) ) ;
#127 = FACE_BOUND ( 'NONE', #274, .T. ) ;
#128 = CARTESIAN_POINT ( 'NONE',  ( 0.0000000000000000000, 4.592425496802565591E-17, -2.500000000000000444 ) ) ;
#129 = ORIENTED_EDGE ( 'NONE', *, *, #72, .F. ) ;
#130 = EDGE_CURVE ( 'NONE', #373, #373, #328, .T. ) ;
#131 = CARTESIAN_POINT ( 'NONE',  ( 0.0000000000000000000, 4.592425496802565591E-17, 2.749999999999999556 ) ) ;
#132 = DIRECTION ( 'NONE',  ( 0.0000000000000000000, 0.0000000000000000000, 1.000000000000000000 ) ) ;
#133 = DIRECTION ( 'NONE',  ( -0.0000000000000000000, 1.000000000000000000, -0.0000000000000000000 ) ) ;
#134 = VERTEX_POINT ( 'NONE', #131 ) ;
#135 = VECTOR ( 'NONE', #152, 39.37007874015748143 ) ;
#136 = ORIENTED_EDGE ( 'NONE', *, *, #189, .T. ) ;
#137 = CARTESIAN_POINT ( 'NONE',  ( 0.0000000000000000000, -0.08000000000000023759, 2.749999999999999556 ) ) ;
#138 = STYLED_ITEM ( 'NONE', ( #378 ), #123 ) ;
#139 = PRESENTATION_STYLE_ASSIGNMENT (( #99 ) ) ;
#140 = EDGE_LOOP ( 'NONE', ( #183 ) ) ;
#141 = ADVANCED_FACE ( 'NONE', ( #331, #155 ), #277, .F. ) ;
#142 = EDGE_CURVE ( 'NONE', #11, #184, #24, .T. ) ;
#143 = AXIS2_PLACEMENT_3D ( 'NONE', #165, #387, #2 ) ;
#144 = LENGTH_MEASURE_WITH_UNIT ( LENGTH_MEASURE( 0.02539999999999999897 ), #234 );
#145 = CIRCLE ( 'NONE', #15, 0.1249999999999993477 ) ;
#146 = ORIENTED_EDGE ( 'NONE', *, *, #266, .T. ) ;
#147 = PRESENTATION_LAYER_ASSIGNMENT (  '', '', ( #193 ) ) ;
#148 = CARTESIAN_POINT ( 'NONE',  ( 7.500000000000000000, 0.0000000000000000000, 3.125000000000000000 ) ) ;
#149 =( CONVERSION_BASED_UNIT ( 'INCH', #180 ) LENGTH_UNIT ( ) NAMED_UNIT ( #215 ) );
#150 = FACE_BOUND ( 'NONE', #38, .T. ) ;
#151 = ORIENTED_EDGE ( 'NONE', *, *, #112, .F. ) ;
#152 = DIRECTION ( 'NONE',  ( 1.000000000000000000, 0.0000000000000000000, 0.0000000000000000000 ) ) ;
#153 = CARTESIAN_POINT ( 'NONE',  ( 7.500000000000000000, 0.0000000000000000000, 3.125000000000000000 ) ) ;
#154 = VERTEX_POINT ( 'NONE', #202 ) ;
#155 = FACE_OUTER_BOUND ( 'NONE', #10, .T. ) ;
#156 = EDGE_LOOP ( 'NONE', ( #273 ) ) ;
#157 = UNCERTAINTY_MEASURE_WITH_UNIT (LENGTH_MEASURE( 1.000000000000000082E-05 ), #238, 'distance_accuracy_value', 'NONE');
#158 = DIRECTION ( 'NONE',  ( -0.0000000000000000000, 1.000000000000000000, -0.0000000000000000000 ) ) ;
#159 = CARTESIAN_POINT ( 'NONE',  ( 6.457200000000000273, 4.592425496802565591E-17, 2.625000000000000000 ) ) ;
#160 = AXIS2_PLACEMENT_3D ( 'NONE', #323, #350, #126 ) ;
#161 = CIRCLE ( 'NONE', #393, 0.1249999999999993477 ) ;
#162 = ORIENTED_EDGE ( 'NONE', *, *, #278, .T. ) ;
#163 = DIRECTION ( 'NONE',  ( -0.0000000000000000000, 1.000000000000000000, -0.0000000000000000000 ) ) ;
#164 = PRODUCT_CONTEXT ( 'NONE', #386, 'mechanical' ) ;
#165 = CARTESIAN_POINT ( 'NONE',  ( 7.500000000000000000, 0.0000000000000000000, -3.125000000000000000 ) ) ;
#166 = FACE_BOUND ( 'NONE', #78, .T. ) ;
#167 = DIRECTION ( 'NONE',  ( 0.0000000000000000000, 0.0000000000000000000, 1.000000000000000000 ) ) ;
#168 = FACE_OUTER_BOUND ( 'NONE', #324, .T. ) ;
#169 =( GEOMETRIC_REPRESENTATION_CONTEXT ( 3 ) GLOBAL_UNCERTAINTY_ASSIGNED_CONTEXT ( ( #25 ) ) GLOBAL_UNIT_ASSIGNED_CONTEXT ( ( #32, #3, #95 ) ) REPRESENTATION_CONTEXT ( 'NONE', 'WORKASPACE' ) );
#170 = CARTESIAN_POINT ( 'NONE',  ( -6.457200000000000273, 4.592425496802565591E-17, -2.500000000000000444 ) ) ;
#171 = AXIS2_PLACEMENT_3D ( 'NONE', #159, #163, #85 ) ;
#172 = CARTESIAN_POINT ( 'NONE',  ( -6.457200000000000273, 4.592425496802565591E-17, 2.749999999999999556 ) ) ;
#173 = ADVANCED_BREP_SHAPE_REPRESENTATION ( 'ASP-2016-P10', ( #123, #300 ), #169 ) ;
#174 = VECTOR ( 'NONE', #375, 39.37007874015748143 ) ;
#175 = EDGE_LOOP ( 'NONE', ( #52, #279, #329, #299 ) ) ;
#176 = EDGE_LOOP ( 'NONE', ( #332 ) ) ;
#177 = PRODUCT_DEFINITION_SHAPE ( 'NONE', 'NONE',  #382 ) ;
#178 = ADVANCED_FACE ( 'NONE', ( #168, #367 ), #341, .F. ) ;
#179 = VERTEX_POINT ( 'NONE', #137 ) ;
#180 = LENGTH_MEASURE_WITH_UNIT ( LENGTH_MEASURE( 0.02539999999999999897 ), #81 );
#181 = ORIENTED_EDGE ( 'NONE', *, *, #185, .T. ) ;
#182 = VECTOR ( 'NONE', #79, 39.37007874015748143 ) ;
#183 = ORIENTED_EDGE ( 'NONE', *, *, #112, .T. ) ;
#184 = VERTEX_POINT ( 'NONE', #77 ) ;
#185 = EDGE_CURVE ( 'NONE', #13, #13, #145, .T. ) ;
#186 = UNCERTAINTY_MEASURE_WITH_UNIT (LENGTH_MEASURE( 1.000000000000000082E-05 ), #149, 'distance_accuracy_value', 'NONE');
#187 = CARTESIAN_POINT ( 'NONE',  ( 7.500000000000000000, -0.08000000000000000167, 3.125000000000000000 ) ) ;
#188 = DIRECTION ( 'NONE',  ( -0.0000000000000000000, 1.000000000000000000, -0.0000000000000000000 ) ) ;
#189 = EDGE_CURVE ( 'NONE', #368, #354, #229, .T. ) ;
#190 = FACE_OUTER_BOUND ( 'NONE', #140, .T. ) ;
#191 = FACE_BOUND ( 'NONE', #110, .T. ) ;
#192 = FILL_AREA_STYLE ('',( #222 ) ) ;
#193 = STYLED_ITEM ( 'NONE', ( #139 ), #173 ) ;
#194 = CARTESIAN_POINT ( 'NONE',  ( 0.0000000000000000000, -0.08000000000000000167, 0.0000000000000000000 ) ) ;
#195 = DIRECTION ( 'NONE',  ( -0.0000000000000000000, 1.000000000000000000, -0.0000000000000000000 ) ) ;
#196 = MECHANICAL_DESIGN_GEOMETRIC_PRESENTATION_REPRESENTATION (  '', ( #193 ), #67 ) ;
#197 = EDGE_LOOP ( 'NONE', ( #106 ) ) ;
#198 = ORIENTED_EDGE ( 'NONE', *, *, #189, .F. ) ;
#199 = EDGE_LOOP ( 'NONE', ( #151 ) ) ;
#200 = PLANE ( 'NONE',  #289 ) ;
#201 = DIRECTION ( 'NONE',  ( 1.000000000000000000, 0.0000000000000000000, -0.0000000000000000000 ) ) ;
#202 = CARTESIAN_POINT ( 'NONE',  ( 0.0000000000000000000, -0.08000000000000023759, -2.500000000000000444 ) ) ;
#203 = VECTOR ( 'NONE', #351, 39.37007874015748143 ) ;
#204 = ORIENTED_EDGE ( 'NONE', *, *, #216, .F. ) ;
#205 = CARTESIAN_POINT ( 'NONE',  ( 6.457200000000000273, -0.08000000000000023759, -2.500000000000000444 ) ) ;
#206 = CIRCLE ( 'NONE', #171, 0.1249999999999993477 ) ;
#207 = CARTESIAN_POINT ( 'NONE',  ( -6.457200000000000273, -0.08000000000000023759, 2.749999999999999556 ) ) ;
#208 = ORIENTED_EDGE ( 'NONE', *, *, #142, .T. ) ;
#209 = EDGE_LOOP ( 'NONE', ( #342 ) ) ;
#210 = PRESENTATION_LAYER_ASSIGNMENT (  '', '', ( #138 ) ) ;
#211 = FACE_BOUND ( 'NONE', #237, .T. ) ;
#212 = EDGE_CURVE ( 'NONE', #75, #184, #33, .T. ) ;
#213 = VERTEX_POINT ( 'NONE', #153 ) ;
#214 = EDGE_LOOP ( 'NONE', ( #318 ) ) ;
#215 = DIMENSIONAL_EXPONENTS ( 1.000000000000000000, 0.0000000000000000000, 0.0000000000000000000, 0.0000000000000000000, 0.0000000000000000000, 0.0000000000000000000, 0.0000000000000000000 ) ;
#216 = EDGE_CURVE ( 'NONE', #179, #179, #310, .T. ) ;
#217 = LINE ( 'NONE', #44, #89 ) ;
#218 = ORIENTED_EDGE ( 'NONE', *, *, #21, .F. ) ;
#219 = AXIS2_PLACEMENT_3D ( 'NONE', #268, #306, #309 ) ;
#220 = CARTESIAN_POINT ( 'NONE',  ( -6.457200000000000273, 0.0000000000000000000, -2.625000000000000000 ) ) ;
#221 = VECTOR ( 'NONE', #257, 39.37007874015748143 ) ;
#222 = FILL_AREA_STYLE_COLOUR ( '', #122 ) ;
#223 = EDGE_LOOP ( 'NONE', ( #51 ) ) ;
#224 = AXIS2_PLACEMENT_3D ( 'NONE', #220, #26, #407 ) ;
#225 = DIRECTION ( 'NONE',  ( -0.0000000000000000000, 1.000000000000000000, -0.0000000000000000000 ) ) ;
#226 = DIRECTION ( 'NONE',  ( -0.0000000000000000000, 1.000000000000000000, -0.0000000000000000000 ) ) ;
#227 = DIRECTION ( 'NONE',  ( 0.0000000000000000000, -1.000000000000000000, 0.0000000000000000000 ) ) ;
#228 = FACE_OUTER_BOUND ( 'NONE', #17, .T. ) ;
#229 = LINE ( 'NONE', #53, #105 ) ;
#230 = DIRECTION ( 'NONE',  ( 0.0000000000000000000, 0.0000000000000000000, 1.000000000000000000 ) ) ;
#231 = EDGE_CURVE ( 'NONE', #154, #154, #298, .T. ) ;
#232 = PRODUCT ( 'ASP-2016-P10', 'ASP-2016-P10', '', ( #164 ) ) ;
#233 = DIRECTION ( 'NONE',  ( 0.0000000000000000000, 0.0000000000000000000, 1.000000000000000000 ) ) ;
#234 =( LENGTH_UNIT ( ) NAMED_UNIT ( * ) SI_UNIT ( $, .METRE. ) );
#235 = APPLICATION_PROTOCOL_DEFINITION ( 'draft international standard', 'automotive_design', 1998, #386 ) ;
#236 = FACE_BOUND ( 'NONE', #402, .T. ) ;
#237 = EDGE_LOOP ( 'NONE', ( #246 ) ) ;
#238 =( CONVERSION_BASED_UNIT ( 'INCH', #302 ) LENGTH_UNIT ( ) NAMED_UNIT ( #16 ) );
#239 = AXIS2_PLACEMENT_3D ( 'NONE', #22, #403, #371 ) ;
#240 =( NAMED_UNIT ( * ) PLANE_ANGLE_UNIT ( ) SI_UNIT ( $, .RADIAN. ) );
#241 = VERTEX_POINT ( 'NONE', #170 ) ;
#242 = AXIS2_PLACEMENT_3D ( 'NONE', #194, #227, #411 ) ;
#243 = SHAPE_DEFINITION_REPRESENTATION ( #177, #173 ) ;
#244 = LINE ( 'NONE', #187, #347 ) ;
#245 = PLANE ( 'NONE',  #80 ) ;
#246 = ORIENTED_EDGE ( 'NONE', *, *, #256, .T. ) ;
#247 =( GEOMETRIC_REPRESENTATION_CONTEXT ( 3 ) GLOBAL_UNCERTAINTY_ASSIGNED_CONTEXT ( ( #186 ) ) GLOBAL_UNIT_ASSIGNED_CONTEXT ( ( #149, #115, #401 ) ) REPRESENTATION_CONTEXT ( 'NONE', 'WORKASPACE' ) );
#248 = CARTESIAN_POINT ( 'NONE',  ( 7.500000000000000000, 0.0000000000000000000, -3.125000000000000000 ) ) ;
#249 = VERTEX_POINT ( 'NONE', #207 ) ;
#250 = ORIENTED_EDGE ( 'NONE', *, *, #216, .T. ) ;
#251 = DIRECTION ( 'NONE',  ( 0.0000000000000000000, 0.0000000000000000000, 1.000000000000000000 ) ) ;
#252 = DIRECTION ( 'NONE',  ( 0.0000000000000000000, 0.0000000000000000000, 1.000000000000000000 ) ) ;
#253 = CARTESIAN_POINT ( 'NONE',  ( 7.500000000000000000, -0.08000000000000000167, -3.125000000000000000 ) ) ;
#254 = VECTOR ( 'NONE', #348, 39.37007874015748143 ) ;
#255 = ORIENTED_EDGE ( 'NONE', *, *, #91, .T. ) ;
#256 = EDGE_CURVE ( 'NONE', #337, #337, #413, .T. ) ;
#257 = DIRECTION ( 'NONE',  ( 0.0000000000000000000, 0.0000000000000000000, -1.000000000000000000 ) ) ;
#258 = PLANE ( 'NONE',  #121 ) ;
#259 = FILL_AREA_STYLE ('',( #294 ) ) ;
#260 = VERTEX_POINT ( 'NONE', #128 ) ;
#261 = FACE_OUTER_BOUND ( 'NONE', #214, .T. ) ;
#262 = DIRECTION ( 'NONE',  ( 0.0000000000000000000, 0.0000000000000000000, 1.000000000000000000 ) ) ;
#263 = PLANE ( 'NONE',  #143 ) ;
#264 = EDGE_CURVE ( 'NONE', #354, #75, #37, .T. ) ;
#265 = ADVANCED_FACE ( 'NONE', ( #269, #317 ), #291, .F. ) ;
#266 = EDGE_CURVE ( 'NONE', #364, #75, #113, .T. ) ;
#267 = FACE_OUTER_BOUND ( 'NONE', #175, .T. ) ;
#268 = CARTESIAN_POINT ( 'NONE',  ( -6.457200000000000273, 0.0000000000000000000, 2.625000000000000000 ) ) ;
#269 = FACE_OUTER_BOUND ( 'NONE', #399, .T. ) ;
#270 = ADVANCED_FACE ( 'NONE', ( #58 ), #200, .T. ) ;
#271 = ORIENTED_EDGE ( 'NONE', *, *, #69, .F. ) ;
#272 = FACE_OUTER_BOUND ( 'NONE', #65, .T. ) ;
#273 = ORIENTED_EDGE ( 'NONE', *, *, #256, .F. ) ;
#274 = EDGE_LOOP ( 'NONE', ( #250 ) ) ;
#275 = DIRECTION ( 'NONE',  ( 0.0000000000000000000, 0.0000000000000000000, 1.000000000000000000 ) ) ;
#276 = CARTESIAN_POINT ( 'NONE',  ( 6.457200000000000273, -0.08000000000000023759, 2.625000000000000000 ) ) ;
#277 = CYLINDRICAL_SURFACE ( 'NONE', #224, 0.1249999999999993477 ) ;
#278 = EDGE_CURVE ( 'NONE', #241, #241, #346, .T. ) ;
#279 = ORIENTED_EDGE ( 'NONE', *, *, #40, .F. ) ;
#280 = SURFACE_SIDE_STYLE ('',( #284 ) ) ;
#281 = CARTESIAN_POINT ( 'NONE',  ( -7.500000000000000000, 0.0000000000000000000, -3.125000000000000000 ) ) ;
#282 = DIRECTION ( 'NONE',  ( -1.000000000000000000, 0.0000000000000000000, -0.0000000000000000000 ) ) ;
#283 = COLOUR_RGB ( '',0.7921568627450980005, 0.8196078431372548767, 0.9333333333333333481 ) ;
#284 = SURFACE_STYLE_FILL_AREA ( #192 ) ;
#285 = DIRECTION ( 'NONE',  ( 0.0000000000000000000, 0.0000000000000000000, 1.000000000000000000 ) ) ;
#286 = EDGE_LOOP ( 'NONE', ( #103, #124, #349, #208 ) ) ;
#287 = ORIENTED_EDGE ( 'NONE', *, *, #278, .F. ) ;
#288 = DIRECTION ( 'NONE',  ( 0.0000000000000000000, 0.0000000000000000000, 1.000000000000000000 ) ) ;
#289 = AXIS2_PLACEMENT_3D ( 'NONE', #281, #322, #282 ) ;
#290 = DIRECTION ( 'NONE',  ( 0.0000000000000000000, 0.0000000000000000000, 1.000000000000000000 ) ) ;
#291 = CYLINDRICAL_SURFACE ( 'NONE', #118, 0.1249999999999993477 ) ;
#292 = EDGE_LOOP ( 'NONE', ( #5 ) ) ;
#293 = EDGE_CURVE ( 'NONE', #83, #83, #206, .T. ) ;
#294 = FILL_AREA_STYLE_COLOUR ( '', #283 ) ;
#295 = APPLICATION_PROTOCOL_DEFINITION ( 'draft international standard', 'automotive_design', 1998, #389 ) ;
#296 = CYLINDRICAL_SURFACE ( 'NONE', #345, 0.1249999999999993477 ) ;
#297 = CARTESIAN_POINT ( 'NONE',  ( -6.457200000000000273, -0.08000000000000023759, 2.625000000000000000 ) ) ;
#298 = CIRCLE ( 'NONE', #327, 0.1249999999999993477 ) ;
#299 = ORIENTED_EDGE ( 'NONE', *, *, #69, .T. ) ;
#300 = AXIS2_PLACEMENT_3D ( 'NONE', #60, #132, #325 ) ;
#301 = EDGE_CURVE ( 'NONE', #134, #134, #356, .T. ) ;
#302 = LENGTH_MEASURE_WITH_UNIT ( LENGTH_MEASURE( 0.02539999999999999897 ), #7 );
#303 = ORIENTED_EDGE ( 'NONE', *, *, #400, .T. ) ;
#304 = AXIS2_PLACEMENT_3D ( 'NONE', #125, #119, #233 ) ;
#305 = ADVANCED_FACE ( 'NONE', ( #267 ), #258, .T. ) ;
#306 = DIRECTION ( 'NONE',  ( -0.0000000000000000000, 1.000000000000000000, -0.0000000000000000000 ) ) ;
#307 = DIRECTION ( 'NONE',  ( 1.000000000000000000, 0.0000000000000000000, 0.0000000000000000000 ) ) ;
#308 = VECTOR ( 'NONE', #376, 39.37007874015748143 ) ;
#309 = DIRECTION ( 'NONE',  ( 0.0000000000000000000, 0.0000000000000000000, 1.000000000000000000 ) ) ;
#310 = CIRCLE ( 'NONE', #304, 0.1249999999999993477 ) ;
#311 = CARTESIAN_POINT ( 'NONE',  ( -7.500000000000000000, -0.08000000000000000167, -3.125000000000000000 ) ) ;
#312 = DIRECTION ( 'NONE',  ( 0.0000000000000000000, 0.0000000000000000000, 1.000000000000000000 ) ) ;
#313 = CLOSED_SHELL ( 'NONE', ( #362, #70, #305, #396, #270, #43, #395, #335, #141, #178, #265, #12 ) ) ;
#314 = DIRECTION ( 'NONE',  ( 0.0000000000000000000, 0.0000000000000000000, 1.000000000000000000 ) ) ;
#315 = SURFACE_STYLE_USAGE ( .BOTH. , #280 ) ;
#316 = VERTEX_POINT ( 'NONE', #330 ) ;
#317 = FACE_OUTER_BOUND ( 'NONE', #292, .T. ) ;
#318 = ORIENTED_EDGE ( 'NONE', *, *, #400, .F. ) ;
#319 = CARTESIAN_POINT ( 'NONE',  ( -7.500000000000000000, -0.08000000000000000167, 3.125000000000000000 ) ) ;
#320 = CARTESIAN_POINT ( 'NONE',  ( 0.0000000000000000000, 0.0000000000000000000, 2.625000000000000000 ) ) ;
#321 = EDGE_CURVE ( 'NONE', #184, #394, #23, .T. ) ;
#322 = DIRECTION ( 'NONE',  ( 0.0000000000000000000, 0.0000000000000000000, -1.000000000000000000 ) ) ;
#323 = CARTESIAN_POINT ( 'NONE',  ( 0.0000000000000000000, 4.592425496802565591E-17, 2.625000000000000000 ) ) ;
#324 = EDGE_LOOP ( 'NONE', ( #374 ) ) ;
#325 = DIRECTION ( 'NONE',  ( 1.000000000000000000, 0.0000000000000000000, 0.0000000000000000000 ) ) ;
#326 = CARTESIAN_POINT ( 'NONE',  ( 7.500000000000000000, -0.08000000000000000167, 3.125000000000000000 ) ) ;
#327 = AXIS2_PLACEMENT_3D ( 'NONE', #379, #383, #252 ) ;
#328 = CIRCLE ( 'NONE', #333, 0.1249999999999993477 ) ;
#329 = ORIENTED_EDGE ( 'NONE', *, *, #72, .T. ) ;
#330 = CARTESIAN_POINT ( 'NONE',  ( -6.457200000000000273, -0.08000000000000023759, -2.500000000000000444 ) ) ;
#331 = FACE_OUTER_BOUND ( 'NONE', #176, .T. ) ;
#332 = ORIENTED_EDGE ( 'NONE', *, *, #388, .F. ) ;
#333 = AXIS2_PLACEMENT_3D ( 'NONE', #276, #405, #312 ) ;
#334 = DIMENSIONAL_EXPONENTS ( 1.000000000000000000, 0.0000000000000000000, 0.0000000000000000000, 0.0000000000000000000, 0.0000000000000000000, 0.0000000000000000000, 0.0000000000000000000 ) ;
#335 = ADVANCED_FACE ( 'NONE', ( #50, #190 ), #296, .F. ) ;
#336 = CARTESIAN_POINT ( 'NONE',  ( -7.500000000000000000, 0.0000000000000000000, -3.125000000000000000 ) ) ;
#337 = VERTEX_POINT ( 'NONE', #205 ) ;
#338 = ORIENTED_EDGE ( 'NONE', *, *, #372, .T. ) ;
#339 = DIRECTION ( 'NONE',  ( 0.0000000000000000000, -0.0000000000000000000, -1.000000000000000000 ) ) ;
#340 = AXIS2_PLACEMENT_3D ( 'NONE', #88, #352, #381 ) ;
#341 = CYLINDRICAL_SURFACE ( 'NONE', #100, 0.1249999999999993477 ) ;
#342 = ORIENTED_EDGE ( 'NONE', *, *, #293, .T. ) ;
#343 = CARTESIAN_POINT ( 'NONE',  ( 0.0000000000000000000, 4.592425496802565591E-17, -2.625000000000000000 ) ) ;
#344 = CARTESIAN_POINT ( 'NONE',  ( 6.457200000000000273, 4.592425496802565591E-17, -2.625000000000000000 ) ) ;
#345 = AXIS2_PLACEMENT_3D ( 'NONE', #57, #384, #288 ) ;
#346 = CIRCLE ( 'NONE', #340, 0.1249999999999993477 ) ;
#347 = VECTOR ( 'NONE', #55, 39.37007874015748143 ) ;
#348 = DIRECTION ( 'NONE',  ( -1.000000000000000000, 0.0000000000000000000, 0.0000000000000000000 ) ) ;
#349 = ORIENTED_EDGE ( 'NONE', *, *, #21, .T. ) ;
#350 = DIRECTION ( 'NONE',  ( -0.0000000000000000000, 1.000000000000000000, -0.0000000000000000000 ) ) ;
#351 = DIRECTION ( 'NONE',  ( 0.0000000000000000000, -1.000000000000000000, 0.0000000000000000000 ) ) ;
#352 = DIRECTION ( 'NONE',  ( -0.0000000000000000000, 1.000000000000000000, -0.0000000000000000000 ) ) ;
#353 = FACE_OUTER_BOUND ( 'NONE', #28, .T. ) ;
#354 = VERTEX_POINT ( 'NONE', #1 ) ;
#355 =( NAMED_UNIT ( * ) SI_UNIT ( $, .STERADIAN. ) SOLID_ANGLE_UNIT ( ) );
#356 = CIRCLE ( 'NONE', #160, 0.1249999999999993477 ) ;
#357 = CARTESIAN_POINT ( 'NONE',  ( 6.457200000000000273, 4.592425496802565591E-17, -2.500000000000000444 ) ) ;
#358 = LINE ( 'NONE', #148, #254 ) ;
#359 = EDGE_LOOP ( 'NONE', ( #303 ) ) ;
#360 = AXIS2_PLACEMENT_3D ( 'NONE', #297, #133, #6 ) ;
#361 = ORIENTED_EDGE ( 'NONE', *, *, #212, .T. ) ;
#362 = ADVANCED_FACE ( 'NONE', ( #31, #127, #363, #211, #166, #104, #150 ), #86, .T. ) ;
#363 = FACE_OUTER_BOUND ( 'NONE', #46, .T. ) ;
#364 = VERTEX_POINT ( 'NONE', #412 ) ;
#365 = PRODUCT_DEFINITION_CONTEXT ( 'detailed design', #389, 'design' ) ;
#366 = DIRECTION ( 'NONE',  ( 0.0000000000000000000, -1.000000000000000000, 0.0000000000000000000 ) ) ;
#367 = FACE_OUTER_BOUND ( 'NONE', #209, .T. ) ;
#368 = VERTEX_POINT ( 'NONE', #414 ) ;
#369 = ORIENTED_EDGE ( 'NONE', *, *, #40, .T. ) ;
#370 = CARTESIAN_POINT ( 'NONE',  ( -7.500000000000000000, 0.0000000000000000000, 3.125000000000000000 ) ) ;
#371 = DIRECTION ( 'NONE',  ( -0.0000000000000000000, 0.0000000000000000000, 1.000000000000000000 ) ) ;
#372 = EDGE_CURVE ( 'NONE', #4, #4, #397, .T. ) ;
#373 = VERTEX_POINT ( 'NONE', #101 ) ;
#374 = ORIENTED_EDGE ( 'NONE', *, *, #130, .F. ) ;
#375 = DIRECTION ( 'NONE',  ( 0.0000000000000000000, 0.0000000000000000000, 1.000000000000000000 ) ) ;
#376 = DIRECTION ( 'NONE',  ( 0.0000000000000000000, 0.0000000000000000000, 1.000000000000000000 ) ) ;
#377 = CYLINDRICAL_SURFACE ( 'NONE', #54, 0.1249999999999993477 ) ;
#378 = PRESENTATION_STYLE_ASSIGNMENT (( #315 ) ) ;
#379 = CARTESIAN_POINT ( 'NONE',  ( 0.0000000000000000000, -0.08000000000000023759, -2.625000000000000000 ) ) ;
#380 = ORIENTED_EDGE ( 'NONE', *, *, #321, .T. ) ;
#381 = DIRECTION ( 'NONE',  ( 0.0000000000000000000, 0.0000000000000000000, 1.000000000000000000 ) ) ;
#382 = PRODUCT_DEFINITION ( 'UNKNOWN', '', #29, #365 ) ;
#383 = DIRECTION ( 'NONE',  ( -0.0000000000000000000, 1.000000000000000000, -0.0000000000000000000 ) ) ;
#384 = DIRECTION ( 'NONE',  ( -0.0000000000000000000, 1.000000000000000000, -0.0000000000000000000 ) ) ;
#385 = EDGE_LOOP ( 'NONE', ( #92 ) ) ;
#386 = APPLICATION_CONTEXT ( 'automotive_design' ) ;
#387 = DIRECTION ( 'NONE',  ( 1.000000000000000000, 0.0000000000000000000, -0.0000000000000000000 ) ) ;
#388 = EDGE_CURVE ( 'NONE', #316, #316, #408, .T. ) ;
#389 = APPLICATION_CONTEXT ( 'automotive_design' ) ;
#390 = SURFACE_SIDE_STYLE ('',( #120 ) ) ;
#391 = DIRECTION ( 'NONE',  ( -0.0000000000000000000, 1.000000000000000000, -0.0000000000000000000 ) ) ;
#392 = EDGE_LOOP ( 'NONE', ( #287 ) ) ;
#393 = AXIS2_PLACEMENT_3D ( 'NONE', #343, #225, #275 ) ;
#394 = VERTEX_POINT ( 'NONE', #326 ) ;
#395 = ADVANCED_FACE ( 'NONE', ( #108, #228 ), #377, .F. ) ;
#396 = ADVANCED_FACE ( 'NONE', ( #73 ), #263, .T. ) ;
#397 = CIRCLE ( 'NONE', #36, 0.1249999999999993477 ) ;
#398 = FACE_BOUND ( 'NONE', #68, .T. ) ;
#399 = EDGE_LOOP ( 'NONE', ( #204 ) ) ;
#400 = EDGE_CURVE ( 'NONE', #249, #249, #96, .T. ) ;
#401 =( NAMED_UNIT ( * ) SI_UNIT ( $, .STERADIAN. ) SOLID_ANGLE_UNIT ( ) );
#402 = EDGE_LOOP ( 'NONE', ( #34 ) ) ;
#403 = DIRECTION ( 'NONE',  ( -1.000000000000000000, 0.0000000000000000000, -0.0000000000000000000 ) ) ;
#404 = DIRECTION ( 'NONE',  ( 0.0000000000000000000, 0.0000000000000000000, 1.000000000000000000 ) ) ;
#405 = DIRECTION ( 'NONE',  ( -0.0000000000000000000, 1.000000000000000000, -0.0000000000000000000 ) ) ;
#406 = AXIS2_PLACEMENT_3D ( 'NONE', #90, #158, #285 ) ;
#407 = DIRECTION ( 'NONE',  ( 0.0000000000000000000, 0.0000000000000000000, 1.000000000000000000 ) ) ;
#408 = CIRCLE ( 'NONE', #8, 0.1249999999999993477 ) ;
#409 = VECTOR ( 'NONE', #307, 39.37007874015748143 ) ;
#410 = EDGE_LOOP ( 'NONE', ( #84, #271, #136, #114 ) ) ;
#411 = DIRECTION ( 'NONE',  ( 0.0000000000000000000, -0.0000000000000000000, -1.000000000000000000 ) ) ;
#412 = CARTESIAN_POINT ( 'NONE',  ( -7.500000000000000000, -0.08000000000000000167, 3.125000000000000000 ) ) ;
#413 = CIRCLE ( 'NONE', #406, 0.1249999999999993477 ) ;
#414 = CARTESIAN_POINT ( 'NONE',  ( -7.500000000000000000, 0.0000000000000000000, 3.125000000000000000 ) ) ;
#415 = ORIENTED_EDGE ( 'NONE', *, *, #372, .F. ) ;
ENDSEC;
END-ISO-10303-21;
