ISO-10303-21;
HEADER;
FILE_DESCRIPTION (( 'STEP AP214' ),
    '1' );
FILE_NAME ('ASP-2424-P10.STEP',
    '2019-02-26T14:41:51',
    ( '' ),
    ( '' ),
    'SwSTEP 2.0',
    'SolidWorks 2018',
    '' );
FILE_SCHEMA (( 'AUTOMOTIVE_DESIGN' ));
ENDSEC;

DATA;
#1 = DIRECTION ( 'NONE',  ( 0.0000000000000000000, 1.000000000000000000, 0.0000000000000000000 ) ) ;
#2 = DIRECTION ( 'NONE',  ( 0.0000000000000000000, 1.000000000000000000, 0.0000000000000000000 ) ) ;
#3 = EDGE_LOOP ( 'NONE', ( #181 ) ) ;
#4 = PLANE ( 'NONE',  #37 ) ;
#5 = CLOSED_SHELL ( 'NONE', ( #65, #306, #92, #18, #337, #147, #51, #312, #276, #397, #22, #177 ) ) ;
#6 = EDGE_CURVE ( 'NONE', #409, #28, #317, .T. ) ;
#7 = DIRECTION ( 'NONE',  ( 0.0000000000000000000, 1.000000000000000000, 0.0000000000000000000 ) ) ;
#8 = CARTESIAN_POINT ( 'NONE',  ( 0.0000000000000000000, 0.0000000000000000000, -3.375000000000000000 ) ) ;
#9 = DIRECTION ( 'NONE',  ( -1.000000000000000000, 0.0000000000000000000, 0.0000000000000000000 ) ) ;
#10 = AXIS2_PLACEMENT_3D ( 'NONE', #267, #9, #109 ) ;
#11 = ORIENTED_EDGE ( 'NONE', *, *, #64, .T. ) ;
#12 = DIRECTION ( 'NONE',  ( -0.0000000000000000000, -1.000000000000000000, -0.0000000000000000000 ) ) ;
#13 = VECTOR ( 'NONE', #201, 39.37007874015748143 ) ;
#14 = EDGE_CURVE ( 'NONE', #98, #98, #217, .T. ) ;
#15 = DIRECTION ( 'NONE',  ( -0.0000000000000000000, -1.000000000000000000, -0.0000000000000000000 ) ) ;
#16 = ORIENTED_EDGE ( 'NONE', *, *, #258, .F. ) ;
#17 = CARTESIAN_POINT ( 'NONE',  ( 0.0000000000000000000, 0.0000000000000000000, 3.500000000000000000 ) ) ;
#18 = ADVANCED_FACE ( 'NONE', ( #281, #241 ), #85, .F. ) ;
#19 = CARTESIAN_POINT ( 'NONE',  ( -10.87500000000000000, -0.08000000000000000167, -3.937499999999999556 ) ) ;
#20 = EDGE_CURVE ( 'NONE', #62, #47, #154, .T. ) ;
#21 = EDGE_LOOP ( 'NONE', ( #197 ) ) ;
#22 = ADVANCED_FACE ( 'NONE', ( #130 ), #4, .T. ) ;
#23 = PRODUCT_DEFINITION_SHAPE ( 'NONE', 'NONE',  #326 ) ;
#24 =( CONVERSION_BASED_UNIT ( 'INCH', #223 ) LENGTH_UNIT ( ) NAMED_UNIT ( #408 ) );
#25 = VECTOR ( 'NONE', #228, 39.37007874015748143 ) ;
#26 = DIRECTION ( 'NONE',  ( 0.0000000000000000000, 0.0000000000000000000, 1.000000000000000000 ) ) ;
#27 = SURFACE_STYLE_USAGE ( .BOTH. , #57 ) ;
#28 = VERTEX_POINT ( 'NONE', #193 ) ;
#29 = CYLINDRICAL_SURFACE ( 'NONE', #120, 0.1249999999999999029 ) ;
#30 = EDGE_CURVE ( 'NONE', #28, #55, #287, .T. ) ;
#31 = ORIENTED_EDGE ( 'NONE', *, *, #372, .T. ) ;
#32 = CIRCLE ( 'NONE', #34, 0.1249999999999999029 ) ;
#33 = CARTESIAN_POINT ( 'NONE',  ( 10.87500000000000000, 0.0000000000000000000, -3.937499999999999556 ) ) ;
#34 = AXIS2_PLACEMENT_3D ( 'NONE', #161, #385, #415 ) ;
#35 = DIRECTION ( 'NONE',  ( -0.0000000000000000000, -1.000000000000000000, -0.0000000000000000000 ) ) ;
#36 = EDGE_LOOP ( 'NONE', ( #11 ) ) ;
#37 = AXIS2_PLACEMENT_3D ( 'NONE', #103, #261, #321 ) ;
#38 = CARTESIAN_POINT ( 'NONE',  ( 9.000000000000000000, 0.0000000000000000000, -3.375000000000000000 ) ) ;
#39 = CIRCLE ( 'NONE', #273, 0.1249999999999999029 ) ;
#40 = VERTEX_POINT ( 'NONE', #335 ) ;
#41 =( GEOMETRIC_REPRESENTATION_CONTEXT ( 3 ) GLOBAL_UNCERTAINTY_ASSIGNED_CONTEXT ( ( #145 ) ) GLOBAL_UNIT_ASSIGNED_CONTEXT ( ( #278, #184, #406 ) ) REPRESENTATION_CONTEXT ( 'NONE', 'WORKASPACE' ) );
#42 = DIRECTION ( 'NONE',  ( -1.000000000000000000, -0.0000000000000000000, -0.0000000000000000000 ) ) ;
#43 = VERTEX_POINT ( 'NONE', #172 ) ;
#44 = FACE_OUTER_BOUND ( 'NONE', #388, .T. ) ;
#45 = DIRECTION ( 'NONE',  ( 0.0000000000000000000, 0.0000000000000000000, 1.000000000000000000 ) ) ;
#46 = DIRECTION ( 'NONE',  ( 0.0000000000000000000, 1.000000000000000000, 0.0000000000000000000 ) ) ;
#47 = VERTEX_POINT ( 'NONE', #33 ) ;
#48 = CARTESIAN_POINT ( 'NONE',  ( 0.0000000000000000000, 0.0000000000000000000, -3.375000000000000000 ) ) ;
#49 = FACE_OUTER_BOUND ( 'NONE', #141, .T. ) ;
#50 = CARTESIAN_POINT ( 'NONE',  ( -9.000000000000000000, -0.08000000000000000167, 3.500000000000000000 ) ) ;
#51 = ADVANCED_FACE ( 'NONE', ( #151, #368 ), #200, .F. ) ;
#52 = SURFACE_SIDE_STYLE ('',( #277 ) ) ;
#53 = CARTESIAN_POINT ( 'NONE',  ( -9.000000000000000000, 0.0000000000000000000, -3.250000000000000000 ) ) ;
#54 = EDGE_LOOP ( 'NONE', ( #339 ) ) ;
#55 = VERTEX_POINT ( 'NONE', #108 ) ;
#56 = VECTOR ( 'NONE', #260, 39.37007874015748143 ) ;
#57 = SURFACE_SIDE_STYLE ('',( #187 ) ) ;
#58 = MECHANICAL_DESIGN_GEOMETRIC_PRESENTATION_REPRESENTATION (  '', ( #318 ), #279 ) ;
#59 =( NAMED_UNIT ( * ) PLANE_ANGLE_UNIT ( ) SI_UNIT ( $, .RADIAN. ) );
#60 = EDGE_CURVE ( 'NONE', #88, #409, #394, .T. ) ;
#61 = APPLICATION_CONTEXT ( 'automotive_design' ) ;
#62 = VERTEX_POINT ( 'NONE', #159 ) ;
#63 = VECTOR ( 'NONE', #265, 39.37007874015748143 ) ;
#64 = EDGE_CURVE ( 'NONE', #254, #254, #32, .T. ) ;
#65 = ADVANCED_FACE ( 'NONE', ( #314, #301, #225, #235, #352, #363, #49 ), #413, .T. ) ;
#66 = MECHANICAL_DESIGN_GEOMETRIC_PRESENTATION_REPRESENTATION (  '', ( #218 ), #395 ) ;
#67 = ORIENTED_EDGE ( 'NONE', *, *, #381, .T. ) ;
#68 = CIRCLE ( 'NONE', #211, 0.1249999999999999029 ) ;
#69 = FACE_BOUND ( 'NONE', #338, .T. ) ;
#70 = DIRECTION ( 'NONE',  ( -0.0000000000000000000, -1.000000000000000000, 0.0000000000000000000 ) ) ;
#71 = EDGE_LOOP ( 'NONE', ( #167 ) ) ;
#72 = CARTESIAN_POINT ( 'NONE',  ( 10.87500000000000000, -0.08000000000000000167, -3.937499999999999556 ) ) ;
#73 = AXIS2_PLACEMENT_3D ( 'NONE', #81, #307, #334 ) ;
#74 = EDGE_LOOP ( 'NONE', ( #97 ) ) ;
#75 = ORIENTED_EDGE ( 'NONE', *, *, #350, .T. ) ;
#76 = DIRECTION ( 'NONE',  ( -0.0000000000000000000, -1.000000000000000000, -0.0000000000000000000 ) ) ;
#77 = EDGE_CURVE ( 'NONE', #347, #347, #383, .T. ) ;
#78 = FACE_BOUND ( 'NONE', #332, .T. ) ;
#79 = DIRECTION ( 'NONE',  ( 0.0000000000000000000, 0.0000000000000000000, 1.000000000000000000 ) ) ;
#80 = CARTESIAN_POINT ( 'NONE',  ( 9.000000000000000000, 0.0000000000000000000, 3.375000000000000000 ) ) ;
#81 = CARTESIAN_POINT ( 'NONE',  ( -10.87500000000000000, 0.0000000000000000000, 3.937499999999999556 ) ) ;
#82 = EDGE_LOOP ( 'NONE', ( #162 ) ) ;
#83 = SURFACE_STYLE_USAGE ( .BOTH. , #52 ) ;
#84 = EDGE_CURVE ( 'NONE', #93, #409, #414, .T. ) ;
#85 = CYLINDRICAL_SURFACE ( 'NONE', #208, 0.1249999999999999029 ) ;
#86 = CARTESIAN_POINT ( 'NONE',  ( 9.000000000000000000, 0.0000000000000000000, -3.250000000000000000 ) ) ;
#87 = ORIENTED_EDGE ( 'NONE', *, *, #340, .T. ) ;
#88 = VERTEX_POINT ( 'NONE', #72 ) ;
#89 = CIRCLE ( 'NONE', #204, 0.1249999999999999029 ) ;
#90 = PRESENTATION_LAYER_ASSIGNMENT (  '', '', ( #318 ) ) ;
#91 = FACE_OUTER_BOUND ( 'NONE', #163, .T. ) ;
#92 = ADVANCED_FACE ( 'NONE', ( #377, #142 ), #102, .F. ) ;
#93 = VERTEX_POINT ( 'NONE', #324 ) ;
#94 =( NAMED_UNIT ( * ) SI_UNIT ( $, .STERADIAN. ) SOLID_ANGLE_UNIT ( ) );
#95 = VECTOR ( 'NONE', #160, 39.37007874015748143 ) ;
#96 = APPLICATION_CONTEXT ( 'automotive_design' ) ;
#97 = ORIENTED_EDGE ( 'NONE', *, *, #134, .T. ) ;
#98 = VERTEX_POINT ( 'NONE', #17 ) ;
#99 = EDGE_CURVE ( 'NONE', #47, #93, #207, .T. ) ;
#100 = ORIENTED_EDGE ( 'NONE', *, *, #390, .F. ) ;
#101 = ORIENTED_EDGE ( 'NONE', *, *, #258, .T. ) ;
#102 = CYLINDRICAL_SURFACE ( 'NONE', #175, 0.1249999999999999029 ) ;
#103 = CARTESIAN_POINT ( 'NONE',  ( 10.87500000000000000, 0.0000000000000000000, 3.937499999999999556 ) ) ;
#104 = CARTESIAN_POINT ( 'NONE',  ( 10.87500000000000000, -0.08000000000000000167, -3.937499999999999556 ) ) ;
#105 = DIRECTION ( 'NONE',  ( 1.000000000000000000, 0.0000000000000000000, 0.0000000000000000000 ) ) ;
#106 = ORIENTED_EDGE ( 'NONE', *, *, #84, .T. ) ;
#107 = AXIS2_PLACEMENT_3D ( 'NONE', #38, #158, #131 ) ;
#108 = CARTESIAN_POINT ( 'NONE',  ( 10.87500000000000000, -0.08000000000000000167, 3.937499999999999556 ) ) ;
#109 = DIRECTION ( 'NONE',  ( 0.0000000000000000000, 0.0000000000000000000, 1.000000000000000000 ) ) ;
#110 = VERTEX_POINT ( 'NONE', #144 ) ;
#111 = PRESENTATION_STYLE_ASSIGNMENT (( #83 ) ) ;
#112 = DIRECTION ( 'NONE',  ( 0.0000000000000000000, 0.0000000000000000000, 1.000000000000000000 ) ) ;
#113 = CARTESIAN_POINT ( 'NONE',  ( -10.87500000000000000, 0.0000000000000000000, 0.0000000000000000000 ) ) ;
#114 = EDGE_CURVE ( 'NONE', #221, #221, #39, .T. ) ;
#115 = PLANE ( 'NONE',  #73 ) ;
#116 = CARTESIAN_POINT ( 'NONE',  ( -9.000000000000000000, 0.0000000000000000000, 3.500000000000000000 ) ) ;
#117 = DIRECTION ( 'NONE',  ( 0.0000000000000000000, 0.0000000000000000000, 1.000000000000000000 ) ) ;
#118 = AXIS2_PLACEMENT_3D ( 'NONE', #206, #140, #272 ) ;
#119 = ORIENTED_EDGE ( 'NONE', *, *, #114, .F. ) ;
#120 = AXIS2_PLACEMENT_3D ( 'NONE', #384, #359, #386 ) ;
#121 = FACE_OUTER_BOUND ( 'NONE', #239, .T. ) ;
#122 = ORIENTED_EDGE ( 'NONE', *, *, #285, .F. ) ;
#123 = UNCERTAINTY_MEASURE_WITH_UNIT (LENGTH_MEASURE( 1.000000000000000082E-05 ), #24, 'distance_accuracy_value', 'NONE');
#124 = VECTOR ( 'NONE', #42, 39.37007874015748143 ) ;
#125 = EDGE_LOOP ( 'NONE', ( #75 ) ) ;
#126 = VERTEX_POINT ( 'NONE', #86 ) ;
#127 = EDGE_CURVE ( 'NONE', #55, #88, #248, .T. ) ;
#128 = CARTESIAN_POINT ( 'NONE',  ( -10.87500000000000000, 0.0000000000000000000, -3.937499999999999556 ) ) ;
#129 = ORIENTED_EDGE ( 'NONE', *, *, #180, .F. ) ;
#130 = FACE_OUTER_BOUND ( 'NONE', #392, .T. ) ;
#131 = DIRECTION ( 'NONE',  ( 0.0000000000000000000, 0.0000000000000000000, 1.000000000000000000 ) ) ;
#132 = CARTESIAN_POINT ( 'NONE',  ( 0.0000000000000000000, 0.0000000000000000000, -3.937499999999999556 ) ) ;
#133 = DIRECTION ( 'NONE',  ( -0.0000000000000000000, -1.000000000000000000, -0.0000000000000000000 ) ) ;
#134 = EDGE_CURVE ( 'NONE', #399, #399, #268, .T. ) ;
#135 = ORIENTED_EDGE ( 'NONE', *, *, #84, .F. ) ;
#136 = DIRECTION ( 'NONE',  ( 0.0000000000000000000, 0.0000000000000000000, 1.000000000000000000 ) ) ;
#137 = FACE_OUTER_BOUND ( 'NONE', #378, .T. ) ;
#138 = FACE_OUTER_BOUND ( 'NONE', #185, .T. ) ;
#139 = DIRECTION ( 'NONE',  ( 0.0000000000000000000, 0.0000000000000000000, 1.000000000000000000 ) ) ;
#140 = DIRECTION ( 'NONE',  ( 0.0000000000000000000, 1.000000000000000000, 0.0000000000000000000 ) ) ;
#141 = EDGE_LOOP ( 'NONE', ( #382, #280, #320, #298 ) ) ;
#142 = FACE_OUTER_BOUND ( 'NONE', #371, .T. ) ;
#143 = COLOUR_RGB ( '',0.7921568627450980005, 0.8196078431372548767, 0.9333333333333333481 ) ;
#144 = CARTESIAN_POINT ( 'NONE',  ( 9.000000000000000000, -0.08000000000000000167, 3.500000000000000000 ) ) ;
#145 = UNCERTAINTY_MEASURE_WITH_UNIT (LENGTH_MEASURE( 1.000000000000000082E-05 ), #278, 'distance_accuracy_value', 'NONE');
#146 = DIRECTION ( 'NONE',  ( 0.0000000000000000000, -1.000000000000000000, -0.0000000000000000000 ) ) ;
#147 = ADVANCED_FACE ( 'NONE', ( #44, #374 ), #389, .F. ) ;
#148 = VECTOR ( 'NONE', #70, 39.37007874015748143 ) ;
#149 =( LENGTH_UNIT ( ) NAMED_UNIT ( * ) SI_UNIT ( $, .METRE. ) );
#150 = ORIENTED_EDGE ( 'NONE', *, *, #14, .T. ) ;
#151 = FACE_OUTER_BOUND ( 'NONE', #71, .T. ) ;
#152 = EDGE_LOOP ( 'NONE', ( #150 ) ) ;
#153 = EDGE_CURVE ( 'NONE', #300, #300, #294, .T. ) ;
#154 = LINE ( 'NONE', #353, #56 ) ;
#155 = PRESENTATION_STYLE_ASSIGNMENT (( #27 ) ) ;
#156 = AXIS2_PLACEMENT_3D ( 'NONE', #191, #362, #328 ) ;
#157 = ORIENTED_EDGE ( 'NONE', *, *, #127, .T. ) ;
#158 = DIRECTION ( 'NONE',  ( 0.0000000000000000000, 1.000000000000000000, 0.0000000000000000000 ) ) ;
#159 = CARTESIAN_POINT ( 'NONE',  ( 10.87500000000000000, 0.0000000000000000000, 3.937499999999999556 ) ) ;
#160 = DIRECTION ( 'NONE',  ( -0.0000000000000000000, 1.000000000000000000, 0.0000000000000000000 ) ) ;
#161 = CARTESIAN_POINT ( 'NONE',  ( -9.000000000000000000, 0.0000000000000000000, -3.375000000000000000 ) ) ;
#162 = ORIENTED_EDGE ( 'NONE', *, *, #134, .F. ) ;
#163 = EDGE_LOOP ( 'NONE', ( #255 ) ) ;
#164 = CARTESIAN_POINT ( 'NONE',  ( -9.000000000000000000, 0.0000000000000000000, 3.375000000000000000 ) ) ;
#165 = CARTESIAN_POINT ( 'NONE',  ( 0.0000000000000000000, -0.08000000000000000167, -3.375000000000000000 ) ) ;
#166 = DIRECTION ( 'NONE',  ( -0.0000000000000000000, -1.000000000000000000, -0.0000000000000000000 ) ) ;
#167 = ORIENTED_EDGE ( 'NONE', *, *, #77, .F. ) ;
#168 = CARTESIAN_POINT ( 'NONE',  ( -10.87500000000000000, 0.0000000000000000000, 3.937499999999999556 ) ) ;
#169 = LINE ( 'NONE', #226, #380 ) ;
#170 = PRODUCT ( 'ASP-2424-P10', 'ASP-2424-P10', '', ( #215 ) ) ;
#171 = PLANE ( 'NONE',  #234 ) ;
#172 = CARTESIAN_POINT ( 'NONE',  ( 0.0000000000000000000, 0.0000000000000000000, -3.250000000000000000 ) ) ;
#173 = ORIENTED_EDGE ( 'NONE', *, *, #30, .F. ) ;
#174 = DIRECTION ( 'NONE',  ( 0.0000000000000000000, 0.0000000000000000000, 1.000000000000000000 ) ) ;
#175 = AXIS2_PLACEMENT_3D ( 'NONE', #289, #7, #79 ) ;
#176 = EDGE_LOOP ( 'NONE', ( #325 ) ) ;
#177 = ADVANCED_FACE ( 'NONE', ( #78, #400, #249, #69, #311, #222, #138 ), #297, .F. ) ;
#178 = CIRCLE ( 'NONE', #343, 0.1249999999999999029 ) ;
#179 = DIRECTION ( 'NONE',  ( 0.0000000000000000000, 0.0000000000000000000, 1.000000000000000000 ) ) ;
#180 = EDGE_CURVE ( 'NONE', #126, #126, #214, .T. ) ;
#181 = ORIENTED_EDGE ( 'NONE', *, *, #372, .F. ) ;
#182 = ORIENTED_EDGE ( 'NONE', *, *, #390, .T. ) ;
#183 = LINE ( 'NONE', #113, #13 ) ;
#184 =( NAMED_UNIT ( * ) PLANE_ANGLE_UNIT ( ) SI_UNIT ( $, .RADIAN. ) );
#185 = EDGE_LOOP ( 'NONE', ( #266, #313, #173, #290 ) ) ;
#186 = FACE_OUTER_BOUND ( 'NONE', #220, .T. ) ;
#187 = SURFACE_STYLE_FILL_AREA ( #344 ) ;
#188 = EDGE_LOOP ( 'NONE', ( #119 ) ) ;
#189 = ORIENTED_EDGE ( 'NONE', *, *, #77, .T. ) ;
#190 = VECTOR ( 'NONE', #295, 39.37007874015748143 ) ;
#191 = CARTESIAN_POINT ( 'NONE',  ( 0.0000000000000000000, -0.08000000000000000167, 0.0000000000000000000 ) ) ;
#192 = FACE_OUTER_BOUND ( 'NONE', #257, .T. ) ;
#193 = CARTESIAN_POINT ( 'NONE',  ( -10.87500000000000000, -0.08000000000000000167, 3.937499999999999556 ) ) ;
#194 = AXIS2_PLACEMENT_3D ( 'NONE', #202, #367, #243 ) ;
#195 = CARTESIAN_POINT ( 'NONE',  ( 0.0000000000000000000, 0.0000000000000000000, 3.937499999999999556 ) ) ;
#196 = CARTESIAN_POINT ( 'NONE',  ( -10.87500000000000000, -0.08000000000000000167, -3.937499999999999556 ) ) ;
#197 = ORIENTED_EDGE ( 'NONE', *, *, #114, .T. ) ;
#198 = ADVANCED_BREP_SHAPE_REPRESENTATION ( 'ASP-2424-P10', ( #375, #402 ), #41 ) ;
#199 = DIRECTION ( 'NONE',  ( 0.0000000000000000000, 0.0000000000000000000, 1.000000000000000000 ) ) ;
#200 = CYLINDRICAL_SURFACE ( 'NONE', #107, 0.1249999999999999029 ) ;
#201 = DIRECTION ( 'NONE',  ( 0.0000000000000000000, -0.0000000000000000000, 1.000000000000000000 ) ) ;
#202 = CARTESIAN_POINT ( 'NONE',  ( -9.000000000000000000, -0.08000000000000000167, 3.375000000000000000 ) ) ;
#203 =( NAMED_UNIT ( * ) SI_UNIT ( $, .STERADIAN. ) SOLID_ANGLE_UNIT ( ) );
#204 = AXIS2_PLACEMENT_3D ( 'NONE', #365, #341, #179 ) ;
#205 = ORIENTED_EDGE ( 'NONE', *, *, #282, .F. ) ;
#206 = CARTESIAN_POINT ( 'NONE',  ( -9.000000000000000000, 0.0000000000000000000, 3.375000000000000000 ) ) ;
#207 = LINE ( 'NONE', #132, #124 ) ;
#208 = AXIS2_PLACEMENT_3D ( 'NONE', #8, #299, #112 ) ;
#209 = FILL_AREA_STYLE ('',( #269 ) ) ;
#210 = CARTESIAN_POINT ( 'NONE',  ( 10.87500000000000000, 0.0000000000000000000, -3.937499999999999556 ) ) ;
#211 = AXIS2_PLACEMENT_3D ( 'NONE', #48, #15, #244 ) ;
#212 = ORIENTED_EDGE ( 'NONE', *, *, #6, .T. ) ;
#213 = VECTOR ( 'NONE', #146, 39.37007874015748143 ) ;
#214 = CIRCLE ( 'NONE', #271, 0.1249999999999999029 ) ;
#215 = PRODUCT_CONTEXT ( 'NONE', #61, 'mechanical' ) ;
#216 =( LENGTH_UNIT ( ) NAMED_UNIT ( * ) SI_UNIT ( $, .METRE. ) );
#217 = CIRCLE ( 'NONE', #303, 0.1249999999999999029 ) ;
#218 = STYLED_ITEM ( 'NONE', ( #155 ), #198 ) ;
#219 = EDGE_LOOP ( 'NONE', ( #189 ) ) ;
#220 = EDGE_LOOP ( 'NONE', ( #366 ) ) ;
#221 = VERTEX_POINT ( 'NONE', #304 ) ;
#222 = FACE_BOUND ( 'NONE', #219, .T. ) ;
#223 = LENGTH_MEASURE_WITH_UNIT ( LENGTH_MEASURE( 0.02539999999999999897 ), #216 );
#224 = EDGE_LOOP ( 'NONE', ( #316 ) ) ;
#225 = FACE_BOUND ( 'NONE', #125, .T. ) ;
#226 = CARTESIAN_POINT ( 'NONE',  ( 10.87500000000000000, 0.0000000000000000000, -3.937499999999999556 ) ) ;
#227 = AXIS2_PLACEMENT_3D ( 'NONE', #288, #1, #256 ) ;
#228 = DIRECTION ( 'NONE',  ( -1.000000000000000000, 0.0000000000000000000, -0.0000000000000000000 ) ) ;
#229 = DIRECTION ( 'NONE',  ( 0.0000000000000000000, 0.0000000000000000000, -1.000000000000000000 ) ) ;
#230 = ORIENTED_EDGE ( 'NONE', *, *, #99, .F. ) ;
#231 = EDGE_LOOP ( 'NONE', ( #412, #122, #182, #252 ) ) ;
#232 = PLANE ( 'NONE',  #10 ) ;
#233 = VECTOR ( 'NONE', #105, 39.37007874015748143 ) ;
#234 = AXIS2_PLACEMENT_3D ( 'NONE', #210, #336, #242 ) ;
#235 = FACE_BOUND ( 'NONE', #286, .T. ) ;
#236 = CARTESIAN_POINT ( 'NONE',  ( 10.87500000000000000, 0.0000000000000000000, 3.937499999999999556 ) ) ;
#237 = CARTESIAN_POINT ( 'NONE',  ( -10.87500000000000000, 0.0000000000000000000, 3.937499999999999556 ) ) ;
#238 = EDGE_CURVE ( 'NONE', #93, #262, #183, .T. ) ;
#239 = EDGE_LOOP ( 'NONE', ( #100, #398, #106, #212 ) ) ;
#240 = DIRECTION ( 'NONE',  ( 0.0000000000000000000, 1.000000000000000000, 0.0000000000000000000 ) ) ;
#241 = FACE_OUTER_BOUND ( 'NONE', #224, .T. ) ;
#242 = DIRECTION ( 'NONE',  ( -1.000000000000000000, 0.0000000000000000000, -0.0000000000000000000 ) ) ;
#243 = DIRECTION ( 'NONE',  ( 0.0000000000000000000, 0.0000000000000000000, 1.000000000000000000 ) ) ;
#244 = DIRECTION ( 'NONE',  ( 0.0000000000000000000, 0.0000000000000000000, 1.000000000000000000 ) ) ;
#245 = EDGE_LOOP ( 'NONE', ( #129 ) ) ;
#246 = EDGE_LOOP ( 'NONE', ( #31 ) ) ;
#247 = CARTESIAN_POINT ( 'NONE',  ( 0.0000000000000000000, -0.08000000000000000167, -3.250000000000000000 ) ) ;
#248 = LINE ( 'NONE', #331, #405 ) ;
#249 = FACE_BOUND ( 'NONE', #74, .T. ) ;
#250 = AXIS2_PLACEMENT_3D ( 'NONE', #164, #76, #136 ) ;
#251 = AXIS2_PLACEMENT_3D ( 'NONE', #292, #259, #322 ) ;
#252 = ORIENTED_EDGE ( 'NONE', *, *, #30, .T. ) ;
#253 = FACE_OUTER_BOUND ( 'NONE', #231, .T. ) ;
#254 = VERTEX_POINT ( 'NONE', #53 ) ;
#255 = ORIENTED_EDGE ( 'NONE', *, *, #64, .F. ) ;
#256 = DIRECTION ( 'NONE',  ( 0.0000000000000000000, 0.0000000000000000000, 1.000000000000000000 ) ) ;
#257 = EDGE_LOOP ( 'NONE', ( #355 ) ) ;
#258 = EDGE_CURVE ( 'NONE', #47, #88, #169, .T. ) ;
#259 = DIRECTION ( 'NONE',  ( -0.0000000000000000000, 1.000000000000000000, 0.0000000000000000000 ) ) ;
#260 = DIRECTION ( 'NONE',  ( -0.0000000000000000000, 0.0000000000000000000, -1.000000000000000000 ) ) ;
#261 = DIRECTION ( 'NONE',  ( 1.000000000000000000, -0.0000000000000000000, 0.0000000000000000000 ) ) ;
#262 = VERTEX_POINT ( 'NONE', #237 ) ;
#263 = FACE_OUTER_BOUND ( 'NONE', #403, .T. ) ;
#264 = CARTESIAN_POINT ( 'NONE',  ( 9.000000000000000000, 0.0000000000000000000, 3.375000000000000000 ) ) ;
#265 = DIRECTION ( 'NONE',  ( 0.0000000000000000000, 0.0000000000000000000, 1.000000000000000000 ) ) ;
#266 = ORIENTED_EDGE ( 'NONE', *, *, #60, .F. ) ;
#267 = CARTESIAN_POINT ( 'NONE',  ( -10.87500000000000000, 0.0000000000000000000, -3.937499999999999556 ) ) ;
#268 = CIRCLE ( 'NONE', #315, 0.1249999999999999029 ) ;
#269 = FILL_AREA_STYLE_COLOUR ( '', #358 ) ;
#270 = CARTESIAN_POINT ( 'NONE',  ( 0.0000000000000000000, 0.0000000000000000000, 0.0000000000000000000 ) ) ;
#271 = AXIS2_PLACEMENT_3D ( 'NONE', #356, #166, #302 ) ;
#272 = DIRECTION ( 'NONE',  ( 0.0000000000000000000, 0.0000000000000000000, 1.000000000000000000 ) ) ;
#273 = AXIS2_PLACEMENT_3D ( 'NONE', #80, #133, #199 ) ;
#274 = LINE ( 'NONE', #195, #233 ) ;
#275 =( LENGTH_UNIT ( ) NAMED_UNIT ( * ) SI_UNIT ( $, .METRE. ) );
#276 = ADVANCED_FACE ( 'NONE', ( #121 ), #232, .T. ) ;
#277 = SURFACE_STYLE_FILL_AREA ( #209 ) ;
#278 =( CONVERSION_BASED_UNIT ( 'INCH', #411 ) LENGTH_UNIT ( ) NAMED_UNIT ( #284 ) );
#279 =( GEOMETRIC_REPRESENTATION_CONTEXT ( 3 ) GLOBAL_UNCERTAINTY_ASSIGNED_CONTEXT ( ( #319 ) ) GLOBAL_UNIT_ASSIGNED_CONTEXT ( ( #391, #364, #203 ) ) REPRESENTATION_CONTEXT ( 'NONE', 'WORKASPACE' ) );
#280 = ORIENTED_EDGE ( 'NONE', *, *, #285, .T. ) ;
#281 = FACE_OUTER_BOUND ( 'NONE', #82, .T. ) ;
#282 = EDGE_CURVE ( 'NONE', #55, #62, #333, .T. ) ;
#283 = APPLICATION_PROTOCOL_DEFINITION ( 'draft international standard', 'automotive_design', 1998, #61 ) ;
#284 = DIMENSIONAL_EXPONENTS ( 1.000000000000000000, 0.0000000000000000000, 0.0000000000000000000, 0.0000000000000000000, 0.0000000000000000000, 0.0000000000000000000, 0.0000000000000000000 ) ;
#285 = EDGE_CURVE ( 'NONE', #262, #62, #274, .T. ) ;
#286 = EDGE_LOOP ( 'NONE', ( #361 ) ) ;
#287 = LINE ( 'NONE', #357, #190 ) ;
#288 = CARTESIAN_POINT ( 'NONE',  ( 9.000000000000000000, -0.08000000000000000167, -3.375000000000000000 ) ) ;
#289 = CARTESIAN_POINT ( 'NONE',  ( 0.0000000000000000000, 0.0000000000000000000, 3.375000000000000000 ) ) ;
#290 = ORIENTED_EDGE ( 'NONE', *, *, #6, .F. ) ;
#291 = DIRECTION ( 'NONE',  ( 0.0000000000000000000, 0.0000000000000000000, 1.000000000000000000 ) ) ;
#292 = CARTESIAN_POINT ( 'NONE',  ( 0.0000000000000000000, 0.0000000000000000000, 0.0000000000000000000 ) ) ;
#293 = AXIS2_PLACEMENT_3D ( 'NONE', #393, #46, #117 ) ;
#294 = CIRCLE ( 'NONE', #250, 0.1249999999999999029 ) ;
#295 = DIRECTION ( 'NONE',  ( 1.000000000000000000, 0.0000000000000000000, -0.0000000000000000000 ) ) ;
#296 = EDGE_CURVE ( 'NONE', #110, #110, #178, .T. ) ;
#297 = PLANE ( 'NONE',  #156 ) ;
#298 = ORIENTED_EDGE ( 'NONE', *, *, #99, .T. ) ;
#299 = DIRECTION ( 'NONE',  ( 0.0000000000000000000, 1.000000000000000000, 0.0000000000000000000 ) ) ;
#300 = VERTEX_POINT ( 'NONE', #116 ) ;
#301 = FACE_BOUND ( 'NONE', #152, .T. ) ;
#302 = DIRECTION ( 'NONE',  ( 0.0000000000000000000, 0.0000000000000000000, 1.000000000000000000 ) ) ;
#303 = AXIS2_PLACEMENT_3D ( 'NONE', #376, #35, #291 ) ;
#304 = CARTESIAN_POINT ( 'NONE',  ( 9.000000000000000000, 0.0000000000000000000, 3.500000000000000000 ) ) ;
#305 = CARTESIAN_POINT ( 'NONE',  ( 9.000000000000000000, -0.08000000000000000167, -3.250000000000000000 ) ) ;
#306 = ADVANCED_FACE ( 'NONE', ( #192, #91 ), #29, .F. ) ;
#307 = DIRECTION ( 'NONE',  ( 0.0000000000000000000, 0.0000000000000000000, 1.000000000000000000 ) ) ;
#308 = DIRECTION ( 'NONE',  ( 1.000000000000000000, 0.0000000000000000000, 0.0000000000000000000 ) ) ;
#309 = ORIENTED_EDGE ( 'NONE', *, *, #14, .F. ) ;
#310 = VERTEX_POINT ( 'NONE', #373 ) ;
#311 = FACE_BOUND ( 'NONE', #176, .T. ) ;
#312 = ADVANCED_FACE ( 'NONE', ( #253 ), #115, .T. ) ;
#313 = ORIENTED_EDGE ( 'NONE', *, *, #127, .F. ) ;
#314 = FACE_BOUND ( 'NONE', #36, .T. ) ;
#315 = AXIS2_PLACEMENT_3D ( 'NONE', #165, #323, #45 ) ;
#316 = ORIENTED_EDGE ( 'NONE', *, *, #350, .F. ) ;
#317 = LINE ( 'NONE', #196, #63 ) ;
#318 = STYLED_ITEM ( 'NONE', ( #111 ), #375 ) ;
#319 = UNCERTAINTY_MEASURE_WITH_UNIT (LENGTH_MEASURE( 1.000000000000000082E-05 ), #391, 'distance_accuracy_value', 'NONE');
#320 = ORIENTED_EDGE ( 'NONE', *, *, #20, .T. ) ;
#321 = DIRECTION ( 'NONE',  ( 0.0000000000000000000, 0.0000000000000000000, -1.000000000000000000 ) ) ;
#322 = DIRECTION ( 'NONE',  ( 0.0000000000000000000, -0.0000000000000000000, 1.000000000000000000 ) ) ;
#323 = DIRECTION ( 'NONE',  ( 0.0000000000000000000, 1.000000000000000000, 0.0000000000000000000 ) ) ;
#324 = CARTESIAN_POINT ( 'NONE',  ( -10.87500000000000000, 0.0000000000000000000, -3.937499999999999556 ) ) ;
#325 = ORIENTED_EDGE ( 'NONE', *, *, #296, .T. ) ;
#326 = PRODUCT_DEFINITION ( 'UNKNOWN', '', #354, #401 ) ;
#327 = ORIENTED_EDGE ( 'NONE', *, *, #20, .F. ) ;
#328 = DIRECTION ( 'NONE',  ( 0.0000000000000000000, -0.0000000000000000000, 1.000000000000000000 ) ) ;
#329 = SHAPE_DEFINITION_REPRESENTATION ( #23, #198 ) ;
#330 = CIRCLE ( 'NONE', #293, 0.1249999999999999029 ) ;
#331 = CARTESIAN_POINT ( 'NONE',  ( 10.87500000000000000, -0.08000000000000000167, 3.937499999999999556 ) ) ;
#332 = EDGE_LOOP ( 'NONE', ( #67 ) ) ;
#333 = LINE ( 'NONE', #236, #95 ) ;
#334 = DIRECTION ( 'NONE',  ( 1.000000000000000000, 0.0000000000000000000, -0.0000000000000000000 ) ) ;
#335 = CARTESIAN_POINT ( 'NONE',  ( 0.0000000000000000000, -0.08000000000000000167, 3.500000000000000000 ) ) ;
#336 = DIRECTION ( 'NONE',  ( 0.0000000000000000000, 0.0000000000000000000, -1.000000000000000000 ) ) ;
#337 = ADVANCED_FACE ( 'NONE', ( #186, #263 ), #379, .F. ) ;
#338 = EDGE_LOOP ( 'NONE', ( #87 ) ) ;
#339 = ORIENTED_EDGE ( 'NONE', *, *, #180, .T. ) ;
#340 = EDGE_CURVE ( 'NONE', #369, #369, #342, .T. ) ;
#341 = DIRECTION ( 'NONE',  ( 0.0000000000000000000, 1.000000000000000000, 0.0000000000000000000 ) ) ;
#342 = CIRCLE ( 'NONE', #194, 0.1249999999999999029 ) ;
#343 = AXIS2_PLACEMENT_3D ( 'NONE', #396, #240, #174 ) ;
#344 = FILL_AREA_STYLE ('',( #404 ) ) ;
#345 = APPLICATION_PROTOCOL_DEFINITION ( 'draft international standard', 'automotive_design', 1998, #96 ) ;
#346 = ORIENTED_EDGE ( 'NONE', *, *, #60, .T. ) ;
#347 = VERTEX_POINT ( 'NONE', #305 ) ;
#348 = LENGTH_MEASURE_WITH_UNIT ( LENGTH_MEASURE( 0.02539999999999999897 ), #275 );
#349 = DIMENSIONAL_EXPONENTS ( 1.000000000000000000, 0.0000000000000000000, 0.0000000000000000000, 0.0000000000000000000, 0.0000000000000000000, 0.0000000000000000000, 0.0000000000000000000 ) ;
#350 = EDGE_CURVE ( 'NONE', #43, #43, #68, .T. ) ;
#351 = ORIENTED_EDGE ( 'NONE', *, *, #153, .F. ) ;
#352 = FACE_BOUND ( 'NONE', #21, .T. ) ;
#353 = CARTESIAN_POINT ( 'NONE',  ( 10.87500000000000000, 0.0000000000000000000, 0.0000000000000000000 ) ) ;
#354 = PRODUCT_DEFINITION_FORMATION_WITH_SPECIFIED_SOURCE ( 'ANY', '', #170, .NOT_KNOWN. ) ;
#355 = ORIENTED_EDGE ( 'NONE', *, *, #381, .F. ) ;
#356 = CARTESIAN_POINT ( 'NONE',  ( 9.000000000000000000, 0.0000000000000000000, -3.375000000000000000 ) ) ;
#357 = CARTESIAN_POINT ( 'NONE',  ( -10.87500000000000000, -0.08000000000000000167, 3.937499999999999556 ) ) ;
#358 = COLOUR_RGB ( '',0.7921568627450980005, 0.8196078431372548767, 0.9333333333333333481 ) ;
#359 = DIRECTION ( 'NONE',  ( 0.0000000000000000000, 1.000000000000000000, 0.0000000000000000000 ) ) ;
#360 = PRODUCT_RELATED_PRODUCT_CATEGORY ( 'part', '', ( #170 ) ) ;
#361 = ORIENTED_EDGE ( 'NONE', *, *, #153, .T. ) ;
#362 = DIRECTION ( 'NONE',  ( -0.0000000000000000000, 1.000000000000000000, 0.0000000000000000000 ) ) ;
#363 = FACE_BOUND ( 'NONE', #54, .T. ) ;
#364 =( NAMED_UNIT ( * ) PLANE_ANGLE_UNIT ( ) SI_UNIT ( $, .RADIAN. ) );
#365 = CARTESIAN_POINT ( 'NONE',  ( -9.000000000000000000, -0.08000000000000000167, -3.375000000000000000 ) ) ;
#366 = ORIENTED_EDGE ( 'NONE', *, *, #340, .F. ) ;
#367 = DIRECTION ( 'NONE',  ( 0.0000000000000000000, 1.000000000000000000, 0.0000000000000000000 ) ) ;
#368 = FACE_OUTER_BOUND ( 'NONE', #245, .T. ) ;
#369 = VERTEX_POINT ( 'NONE', #50 ) ;
#370 = PRESENTATION_LAYER_ASSIGNMENT (  '', '', ( #218 ) ) ;
#371 = EDGE_LOOP ( 'NONE', ( #309 ) ) ;
#372 = EDGE_CURVE ( 'NONE', #40, #40, #330, .T. ) ;
#373 = CARTESIAN_POINT ( 'NONE',  ( -9.000000000000000000, -0.08000000000000000167, -3.250000000000000000 ) ) ;
#374 = FACE_OUTER_BOUND ( 'NONE', #188, .T. ) ;
#375 = MANIFOLD_SOLID_BREP ( 'Imported1', #5 ) ;
#376 = CARTESIAN_POINT ( 'NONE',  ( 0.0000000000000000000, 0.0000000000000000000, 3.375000000000000000 ) ) ;
#377 = FACE_OUTER_BOUND ( 'NONE', #3, .T. ) ;
#378 = EDGE_LOOP ( 'NONE', ( #135, #230, #101, #346 ) ) ;
#379 = CYLINDRICAL_SURFACE ( 'NONE', #118, 0.1249999999999999029 ) ;
#380 = VECTOR ( 'NONE', #12, 39.37007874015748143 ) ;
#381 = EDGE_CURVE ( 'NONE', #310, #310, #89, .T. ) ;
#382 = ORIENTED_EDGE ( 'NONE', *, *, #238, .T. ) ;
#383 = CIRCLE ( 'NONE', #227, 0.1249999999999999029 ) ;
#384 = CARTESIAN_POINT ( 'NONE',  ( -9.000000000000000000, 0.0000000000000000000, -3.375000000000000000 ) ) ;
#385 = DIRECTION ( 'NONE',  ( -0.0000000000000000000, -1.000000000000000000, -0.0000000000000000000 ) ) ;
#386 = DIRECTION ( 'NONE',  ( 0.0000000000000000000, 0.0000000000000000000, 1.000000000000000000 ) ) ;
#387 = AXIS2_PLACEMENT_3D ( 'NONE', #264, #2, #139 ) ;
#388 = EDGE_LOOP ( 'NONE', ( #407 ) ) ;
#389 = CYLINDRICAL_SURFACE ( 'NONE', #387, 0.1249999999999999029 ) ;
#390 = EDGE_CURVE ( 'NONE', #262, #28, #410, .T. ) ;
#391 =( CONVERSION_BASED_UNIT ( 'INCH', #348 ) LENGTH_UNIT ( ) NAMED_UNIT ( #349 ) );
#392 = EDGE_LOOP ( 'NONE', ( #16, #327, #205, #157 ) ) ;
#393 = CARTESIAN_POINT ( 'NONE',  ( 0.0000000000000000000, -0.08000000000000000167, 3.375000000000000000 ) ) ;
#394 = LINE ( 'NONE', #104, #25 ) ;
#395 =( GEOMETRIC_REPRESENTATION_CONTEXT ( 3 ) GLOBAL_UNCERTAINTY_ASSIGNED_CONTEXT ( ( #123 ) ) GLOBAL_UNIT_ASSIGNED_CONTEXT ( ( #24, #59, #94 ) ) REPRESENTATION_CONTEXT ( 'NONE', 'WORKASPACE' ) );
#396 = CARTESIAN_POINT ( 'NONE',  ( 9.000000000000000000, -0.08000000000000000167, 3.375000000000000000 ) ) ;
#397 = ADVANCED_FACE ( 'NONE', ( #137 ), #171, .T. ) ;
#398 = ORIENTED_EDGE ( 'NONE', *, *, #238, .F. ) ;
#399 = VERTEX_POINT ( 'NONE', #247 ) ;
#400 = FACE_BOUND ( 'NONE', #246, .T. ) ;
#401 = PRODUCT_DEFINITION_CONTEXT ( 'detailed design', #96, 'design' ) ;
#402 = AXIS2_PLACEMENT_3D ( 'NONE', #270, #26, #308 ) ;
#403 = EDGE_LOOP ( 'NONE', ( #351 ) ) ;
#404 = FILL_AREA_STYLE_COLOUR ( '', #143 ) ;
#405 = VECTOR ( 'NONE', #229, 39.37007874015748143 ) ;
#406 =( NAMED_UNIT ( * ) SI_UNIT ( $, .STERADIAN. ) SOLID_ANGLE_UNIT ( ) );
#407 = ORIENTED_EDGE ( 'NONE', *, *, #296, .F. ) ;
#408 = DIMENSIONAL_EXPONENTS ( 1.000000000000000000, 0.0000000000000000000, 0.0000000000000000000, 0.0000000000000000000, 0.0000000000000000000, 0.0000000000000000000, 0.0000000000000000000 ) ;
#409 = VERTEX_POINT ( 'NONE', #19 ) ;
#410 = LINE ( 'NONE', #168, #213 ) ;
#411 = LENGTH_MEASURE_WITH_UNIT ( LENGTH_MEASURE( 0.02539999999999999897 ), #149 );
#412 = ORIENTED_EDGE ( 'NONE', *, *, #282, .T. ) ;
#413 = PLANE ( 'NONE',  #251 ) ;
#414 = LINE ( 'NONE', #128, #148 ) ;
#415 = DIRECTION ( 'NONE',  ( 0.0000000000000000000, 0.0000000000000000000, 1.000000000000000000 ) ) ;
ENDSEC;
END-ISO-10303-21;
