ISO-10303-21;
HEADER;
FILE_DESCRIPTION(('STEP AP203'),'1');
FILE_NAME('BP4SWA.stp','2015-10-16T06:19:43',(' '),(' '),'Spatial InterOp 3D',' ',' ');
FILE_SCHEMA(('CONFIG_CONTROL_DESIGN'));
ENDSEC;
DATA;
#1=DESIGN_CONTEXT('',#27,'design');
#2=APPLICATION_PROTOCOL_DEFINITION('INTERNATIONAL STANDARD','config_control_design',1994,#27);
#3=PRODUCT_CATEGORY_RELATIONSHIP('NONE','NONE',#28,#29);
#4=DATE_AND_TIME(#30,#31);
#5=DATE_TIME_ROLE('creation_date');
#6=DATE_TIME_ROLE('classification_date');
#7=PERSON_AND_ORGANIZATION_ROLE('creator');
#8=PERSON_AND_ORGANIZATION_ROLE('design_supplier');
#9=PERSON_AND_ORGANIZATION_ROLE('classification_officer');
#10=PERSON_AND_ORGANIZATION_ROLE('design_owner');
#11=APPROVAL_PERSON_ORGANIZATION(#32,#33,#34);
#12=APPROVAL_DATE_TIME(#4,#33);
#13=CC_DESIGN_APPROVAL(#33,(#35,#36,#37));
#14=CC_DESIGN_DATE_AND_TIME_ASSIGNMENT(#4,#5,(#37));
#15=CC_DESIGN_DATE_AND_TIME_ASSIGNMENT(#4,#6,(#35));
#16=CC_DESIGN_PERSON_AND_ORGANIZATION_ASSIGNMENT(#32,#10,(#38));
#17=CC_DESIGN_PERSON_AND_ORGANIZATION_ASSIGNMENT(#32,#7,(#37));
#18=CC_DESIGN_PERSON_AND_ORGANIZATION_ASSIGNMENT(#32,#7,(#36));
#19=CC_DESIGN_PERSON_AND_ORGANIZATION_ASSIGNMENT(#32,#8,(#36));
#20=CC_DESIGN_SECURITY_CLASSIFICATION(#35,(#36));
#21=CC_DESIGN_PERSON_AND_ORGANIZATION_ASSIGNMENT(#32,#9,(#35));
#22=SHAPE_DEFINITION_REPRESENTATION(#39,#40);
#23= (GEOMETRIC_REPRESENTATION_CONTEXT(3)GLOBAL_UNCERTAINTY_ASSIGNED_CONTEXT((#43))GLOBAL_UNIT_ASSIGNED_CONTEXT((#45,#46,#47))REPRESENTATION_CONTEXT('NONE','WORKSPACE'));
#27=APPLICATION_CONTEXT('CONFIGURATION CONTROLLED 3D DESIGNS OF MECHANICAL PARTS AND ASSEMBLIES');
#28=PRODUCT_CATEGORY('part','NONE');
#29=PRODUCT_RELATED_PRODUCT_CATEGORY('detail',' ',(#38));
#30=CALENDAR_DATE(2015,16,9);
#31=LOCAL_TIME(15,19,43.0,#49);
#32=PERSON_AND_ORGANIZATION(#50,#51);
#33=APPROVAL(#52,'SOLID MODEL');
#34=APPROVAL_ROLE('APPROVED');
#35=SECURITY_CLASSIFICATION('','',#53);
#36=PRODUCT_DEFINITION_FORMATION_WITH_SPECIFIED_SOURCE(' ','NONE',#38,.NOT_KNOWN.);
#37=PRODUCT_DEFINITION('NONE','NONE',#36,#1);
#38=PRODUCT('1','1','PART-1-DESC',(#54));
#39=PRODUCT_DEFINITION_SHAPE('NONE','NONE',#37);
#40=ADVANCED_BREP_SHAPE_REPRESENTATION('1',(#55,#56),#23);
#43=UNCERTAINTY_MEASURE_WITH_UNIT(LENGTH_MEASURE(0.001),#45,'','');
#45= (CONVERSION_BASED_UNIT('MILLIMETRE',#59)LENGTH_UNIT()NAMED_UNIT(#62));
#46= (NAMED_UNIT(#64)PLANE_ANGLE_UNIT()SI_UNIT($,.RADIAN.));
#47= (NAMED_UNIT(#64)SOLID_ANGLE_UNIT()SI_UNIT($,.STERADIAN.));
#49=COORDINATED_UNIVERSAL_TIME_OFFSET(9,0,.AHEAD.);
#50=PERSON('','UNSPECIFIED',$,$,$,$);
#51=ORGANIZATION('UNSPECIFIED','UNSPECIFIED','UNSPECIFIED');
#52=APPROVAL_STATUS('approved');
#53=SECURITY_CLASSIFICATION_LEVEL('unclassified');
#54=MECHANICAL_CONTEXT('',#27,'mechanical');
#55=MANIFOLD_SOLID_BREP('1',#70);
#56=AXIS2_PLACEMENT_3D('',#71,#72,#73);
#59=LENGTH_MEASURE_WITH_UNIT(LENGTH_MEASURE(1.0),#74);
#62=DIMENSIONAL_EXPONENTS(1.0,0.0,0.0,0.0,0.0,0.0,0.0);
#64=DIMENSIONAL_EXPONENTS(0.0,0.0,0.0,0.0,0.0,0.0,0.0);
#70=CLOSED_SHELL('',(#75,#76,#77,#78,#79,#80,#81,#82,#83,#84,#85,#86,#87,#88,#89));
#71=CARTESIAN_POINT('',(0.0,0.0,0.0));
#72=DIRECTION('',(0.0,0.0,1.0));
#73=DIRECTION('',(1.0,0.0,0.0));
#74= (NAMED_UNIT(#62)LENGTH_UNIT()SI_UNIT(.MILLI.,.METRE.));
#75=ADVANCED_FACE('',(#91),#92,.T.);
#76=ADVANCED_FACE('',(#93),#94,.T.);
#77=ADVANCED_FACE('',(#95),#96,.T.);
#78=ADVANCED_FACE('',(#97),#98,.T.);
#79=ADVANCED_FACE('',(#99),#100,.T.);
#80=ADVANCED_FACE('',(#101),#102,.T.);
#81=ADVANCED_FACE('',(#103),#104,.T.);
#82=ADVANCED_FACE('',(#105,#106,#107),#108,.F.);
#83=ADVANCED_FACE('',(#109),#110,.T.);
#84=ADVANCED_FACE('',(#111),#112,.T.);
#85=ADVANCED_FACE('',(#113,#114),#115,.F.);
#86=ADVANCED_FACE('',(#116),#117,.T.);
#87=ADVANCED_FACE('',(#118,#119),#120,.T.);
#88=ADVANCED_FACE('',(#121),#122,.T.);
#89=ADVANCED_FACE('',(#123),#124,.T.);
#91=FACE_OUTER_BOUND('',#125,.T.);
#92=CYLINDRICAL_SURFACE('',#126,0.3);
#93=FACE_OUTER_BOUND('',#127,.T.);
#94=CYLINDRICAL_SURFACE('',#128,0.5);
#95=FACE_OUTER_BOUND('',#129,.T.);
#96=CYLINDRICAL_SURFACE('',#130,2.0);
#97=FACE_OUTER_BOUND('',#131,.T.);
#98=SPHERICAL_SURFACE('',#132,1.5);
#99=FACE_OUTER_BOUND('',#133,.T.);
#100=CYLINDRICAL_SURFACE('',#134,0.3);
#101=FACE_OUTER_BOUND('',#135,.T.);
#102=PLANE('',#136);
#103=FACE_OUTER_BOUND('',#137,.T.);
#104=CYLINDRICAL_SURFACE('',#138,0.3);
#105=FACE_BOUND('',#139,.T.);
#106=FACE_OUTER_BOUND('',#140,.T.);
#107=FACE_BOUND('',#141,.T.);
#108=PLANE('',#142);
#109=FACE_OUTER_BOUND('',#143,.T.);
#110=SPHERICAL_SURFACE('',#144,1.5);
#111=FACE_OUTER_BOUND('',#145,.T.);
#112=CYLINDRICAL_SURFACE('',#146,2.0);
#113=FACE_BOUND('',#147,.T.);
#114=FACE_OUTER_BOUND('',#148,.T.);
#115=PLANE('',#149);
#116=FACE_OUTER_BOUND('',#150,.T.);
#117=CYLINDRICAL_SURFACE('',#151,0.5);
#118=FACE_BOUND('',#152,.T.);
#119=FACE_OUTER_BOUND('',#153,.T.);
#120=PLANE('',#154);
#121=FACE_OUTER_BOUND('',#155,.T.);
#122=CYLINDRICAL_SURFACE('',#156,0.3);
#123=FACE_OUTER_BOUND('',#157,.T.);
#124=PLANE('',#158);
#125=EDGE_LOOP('',(#159,#160,#161,#162));
#126=AXIS2_PLACEMENT_3D('',#163,#164,#165);
#127=EDGE_LOOP('',(#166,#167,#168,#169));
#128=AXIS2_PLACEMENT_3D('',#170,#171,#172);
#129=EDGE_LOOP('',(#173,#174,#175,#176));
#130=AXIS2_PLACEMENT_3D('',#177,#178,#179);
#131=EDGE_LOOP('',(#180,#181,#182));
#132=AXIS2_PLACEMENT_3D('',#183,#184,#185);
#133=EDGE_LOOP('',(#186,#187,#188,#189));
#134=AXIS2_PLACEMENT_3D('',#190,#191,#192);
#135=EDGE_LOOP('',(#193,#194));
#136=AXIS2_PLACEMENT_3D('',#195,#196,#197);
#137=EDGE_LOOP('',(#198,#199,#200,#201));
#138=AXIS2_PLACEMENT_3D('',#202,#203,#204);
#139=EDGE_LOOP('',(#205,#206));
#140=EDGE_LOOP('',(#207,#208));
#141=EDGE_LOOP('',(#209,#210));
#142=AXIS2_PLACEMENT_3D('',#211,#212,#213);
#143=EDGE_LOOP('',(#214,#215,#216,#217));
#144=AXIS2_PLACEMENT_3D('',#218,#219,#220);
#145=EDGE_LOOP('',(#221,#222,#223,#224));
#146=AXIS2_PLACEMENT_3D('',#225,#226,#227);
#147=EDGE_LOOP('',(#228,#229,#230));
#148=EDGE_LOOP('',(#231,#232));
#149=AXIS2_PLACEMENT_3D('',#233,#234,#235);
#150=EDGE_LOOP('',(#236,#237,#238,#239));
#151=AXIS2_PLACEMENT_3D('',#240,#241,#242);
#152=EDGE_LOOP('',(#243,#244));
#153=EDGE_LOOP('',(#245,#246));
#154=AXIS2_PLACEMENT_3D('',#247,#248,#249);
#155=EDGE_LOOP('',(#250,#251,#252,#253));
#156=AXIS2_PLACEMENT_3D('',#254,#255,#256);
#157=EDGE_LOOP('',(#257,#258));
#158=AXIS2_PLACEMENT_3D('',#259,#260,#261);
#159=ORIENTED_EDGE('',*,*,#262,.F.);
#160=ORIENTED_EDGE('',*,*,#263,.T.);
#161=ORIENTED_EDGE('',*,*,#264,.F.);
#162=ORIENTED_EDGE('',*,*,#265,.F.);
#163=CARTESIAN_POINT('',(22.8,-0.8,0.0));
#164=DIRECTION('',(1.0,0.0,-0.0));
#165=DIRECTION('',(0.0,0.0,1.0));
#166=ORIENTED_EDGE('',*,*,#266,.F.);
#167=ORIENTED_EDGE('',*,*,#267,.T.);
#168=ORIENTED_EDGE('',*,*,#268,.F.);
#169=ORIENTED_EDGE('',*,*,#269,.F.);
#170=CARTESIAN_POINT('',(15.3,0.8,0.0));
#171=DIRECTION('',(1.0,0.0,-0.0));
#172=DIRECTION('',(0.0,0.0,1.0));
#173=ORIENTED_EDGE('',*,*,#270,.F.);
#174=ORIENTED_EDGE('',*,*,#271,.F.);
#175=ORIENTED_EDGE('',*,*,#272,.F.);
#176=ORIENTED_EDGE('',*,*,#273,.T.);
#177=CARTESIAN_POINT('',(2.0E-016,0.0,0.0));
#178=DIRECTION('',(1.0,0.0,-0.0));
#179=DIRECTION('',(0.0,0.0,1.0));
#180=ORIENTED_EDGE('',*,*,#274,.F.);
#181=ORIENTED_EDGE('',*,*,#275,.T.);
#182=ORIENTED_EDGE('',*,*,#276,.F.);
#183=CARTESIAN_POINT('',(1.5,2.16840434497101E-016,0.0));
#184=DIRECTION('',(-1.0,-0.0,-0.0));
#185=DIRECTION('',(0.0,1.0,0.0));
#186=ORIENTED_EDGE('',*,*,#277,.F.);
#187=ORIENTED_EDGE('',*,*,#278,.T.);
#188=ORIENTED_EDGE('',*,*,#279,.F.);
#189=ORIENTED_EDGE('',*,*,#280,.T.);
#190=CARTESIAN_POINT('',(22.8,0.8,0.0));
#191=DIRECTION('',(1.0,0.0,-0.0));
#192=DIRECTION('',(0.0,0.0,1.0));
#193=ORIENTED_EDGE('',*,*,#280,.F.);
#194=ORIENTED_EDGE('',*,*,#281,.F.);
#195=CARTESIAN_POINT('',(22.8,0.8,0.0));
#196=DIRECTION('',(1.0,0.0,0.0));
#197=DIRECTION('',(0.0,0.0,-1.0));
#198=ORIENTED_EDGE('',*,*,#277,.T.);
#199=ORIENTED_EDGE('',*,*,#281,.T.);
#200=ORIENTED_EDGE('',*,*,#279,.T.);
#201=ORIENTED_EDGE('',*,*,#282,.T.);
#202=CARTESIAN_POINT('',(22.8,0.8,0.0));
#203=DIRECTION('',(1.0,0.0,-0.0));
#204=DIRECTION('',(0.0,0.0,1.0));
#205=ORIENTED_EDGE('',*,*,#267,.F.);
#206=ORIENTED_EDGE('',*,*,#283,.F.);
#207=ORIENTED_EDGE('',*,*,#284,.F.);
#208=ORIENTED_EDGE('',*,*,#273,.F.);
#209=ORIENTED_EDGE('',*,*,#263,.F.);
#210=ORIENTED_EDGE('',*,*,#285,.F.);
#211=CARTESIAN_POINT('',(12.8,0.0,0.0));
#212=DIRECTION('',(-1.0,0.0,0.0));
#213=DIRECTION('',(0.0,0.0,1.0));
#214=ORIENTED_EDGE('',*,*,#274,.T.);
#215=ORIENTED_EDGE('',*,*,#276,.T.);
#216=ORIENTED_EDGE('',*,*,#286,.T.);
#217=ORIENTED_EDGE('',*,*,#287,.T.);
#218=CARTESIAN_POINT('',(1.5,2.16840434497101E-016,0.0));
#219=DIRECTION('',(-1.0,-0.0,-0.0));
#220=DIRECTION('',(0.0,1.0,0.0));
#221=ORIENTED_EDGE('',*,*,#270,.T.);
#222=ORIENTED_EDGE('',*,*,#284,.T.);
#223=ORIENTED_EDGE('',*,*,#272,.T.);
#224=ORIENTED_EDGE('',*,*,#288,.F.);
#225=CARTESIAN_POINT('',(2.0E-016,0.0,0.0));
#226=DIRECTION('',(1.0,0.0,-0.0));
#227=DIRECTION('',(0.0,0.0,1.0));
#228=ORIENTED_EDGE('',*,*,#287,.F.);
#229=ORIENTED_EDGE('',*,*,#286,.F.);
#230=ORIENTED_EDGE('',*,*,#275,.F.);
#231=ORIENTED_EDGE('',*,*,#288,.T.);
#232=ORIENTED_EDGE('',*,*,#271,.T.);
#233=CARTESIAN_POINT('',(0.800000000000011,2.0,0.0));
#234=DIRECTION('',(1.0,0.0,0.0));
#235=DIRECTION('',(0.0,0.0,-1.0));
#236=ORIENTED_EDGE('',*,*,#266,.T.);
#237=ORIENTED_EDGE('',*,*,#289,.F.);
#238=ORIENTED_EDGE('',*,*,#268,.T.);
#239=ORIENTED_EDGE('',*,*,#283,.T.);
#240=CARTESIAN_POINT('',(15.3,0.8,0.0));
#241=DIRECTION('',(1.0,0.0,-0.0));
#242=DIRECTION('',(0.0,0.0,1.0));
#243=ORIENTED_EDGE('',*,*,#282,.F.);
#244=ORIENTED_EDGE('',*,*,#278,.F.);
#245=ORIENTED_EDGE('',*,*,#289,.T.);
#246=ORIENTED_EDGE('',*,*,#269,.T.);
#247=CARTESIAN_POINT('',(15.3,0.8,0.0));
#248=DIRECTION('',(1.0,0.0,0.0));
#249=DIRECTION('',(0.0,0.0,-1.0));
#250=ORIENTED_EDGE('',*,*,#262,.T.);
#251=ORIENTED_EDGE('',*,*,#290,.F.);
#252=ORIENTED_EDGE('',*,*,#264,.T.);
#253=ORIENTED_EDGE('',*,*,#285,.T.);
#254=CARTESIAN_POINT('',(22.8,-0.8,0.0));
#255=DIRECTION('',(1.0,0.0,-0.0));
#256=DIRECTION('',(0.0,0.0,1.0));
#257=ORIENTED_EDGE('',*,*,#290,.T.);
#258=ORIENTED_EDGE('',*,*,#265,.T.);
#259=CARTESIAN_POINT('',(22.8,-0.8,0.0));
#260=DIRECTION('',(1.0,0.0,0.0));
#261=DIRECTION('',(0.0,0.0,-1.0));
#262=EDGE_CURVE('',#291,#292,#293,.T.);
#263=EDGE_CURVE('',#291,#294,#295,.F.);
#264=EDGE_CURVE('',#296,#294,#297,.T.);
#265=EDGE_CURVE('',#292,#296,#298,.T.);
#266=EDGE_CURVE('',#299,#300,#301,.T.);
#267=EDGE_CURVE('',#299,#302,#303,.F.);
#268=EDGE_CURVE('',#304,#302,#305,.T.);
#269=EDGE_CURVE('',#300,#304,#306,.T.);
#270=EDGE_CURVE('',#307,#308,#309,.T.);
#271=EDGE_CURVE('',#310,#307,#311,.T.);
#272=EDGE_CURVE('',#312,#310,#313,.T.);
#273=EDGE_CURVE('',#312,#308,#314,.T.);
#274=EDGE_CURVE('',#315,#316,#317,.T.);
#275=EDGE_CURVE('',#315,#318,#319,.T.);
#276=EDGE_CURVE('',#316,#318,#320,.T.);
#277=EDGE_CURVE('',#321,#322,#323,.T.);
#278=EDGE_CURVE('',#321,#324,#325,.T.);
#279=EDGE_CURVE('',#326,#324,#327,.T.);
#280=EDGE_CURVE('',#326,#322,#328,.T.);
#281=EDGE_CURVE('',#322,#326,#329,.T.);
#282=EDGE_CURVE('',#324,#321,#330,.T.);
#283=EDGE_CURVE('',#302,#299,#331,.F.);
#284=EDGE_CURVE('',#308,#312,#332,.T.);
#285=EDGE_CURVE('',#294,#291,#333,.F.);
#286=EDGE_CURVE('',#318,#334,#335,.T.);
#287=EDGE_CURVE('',#334,#315,#336,.T.);
#288=EDGE_CURVE('',#307,#310,#337,.T.);
#289=EDGE_CURVE('',#304,#300,#338,.T.);
#290=EDGE_CURVE('',#296,#292,#339,.T.);
#291=VERTEX_POINT('',#340);
#292=VERTEX_POINT('',#341);
#293=LINE('',#342,#343);
#294=VERTEX_POINT('',#344);
#295=CIRCLE('',#345,0.3);
#296=VERTEX_POINT('',#346);
#297=LINE('',#347,#348);
#298=CIRCLE('',#349,0.3);
#299=VERTEX_POINT('',#350);
#300=VERTEX_POINT('',#351);
#301=LINE('',#352,#353);
#302=VERTEX_POINT('',#354);
#303=CIRCLE('',#355,0.5);
#304=VERTEX_POINT('',#356);
#305=LINE('',#357,#358);
#306=CIRCLE('',#359,0.5);
#307=VERTEX_POINT('',#360);
#308=VERTEX_POINT('',#361);
#309=LINE('',#362,#363);
#310=VERTEX_POINT('',#364);
#311=CIRCLE('',#365,2.0);
#312=VERTEX_POINT('',#366);
#313=LINE('',#367,#368);
#314=CIRCLE('',#369,2.0);
#315=VERTEX_POINT('',#370);
#316=VERTEX_POINT('',#371);
#317=CIRCLE('',#372,1.5);
#318=VERTEX_POINT('',#373);
#319=CIRCLE('',#374,1.32664991614217);
#320=CIRCLE('',#375,1.5);
#321=VERTEX_POINT('',#376);
#322=VERTEX_POINT('',#377);
#323=LINE('',#378,#379);
#324=VERTEX_POINT('',#380);
#325=CIRCLE('',#381,0.3);
#326=VERTEX_POINT('',#382);
#327=LINE('',#383,#384);
#328=CIRCLE('',#385,0.3);
#329=CIRCLE('',#386,0.3);
#330=CIRCLE('',#387,0.3);
#331=CIRCLE('',#388,0.5);
#332=CIRCLE('',#389,2.0);
#333=CIRCLE('',#390,0.3);
#334=VERTEX_POINT('',#391);
#335=CIRCLE('',#392,1.32664991614217);
#336=CIRCLE('',#393,1.32664991614217);
#337=CIRCLE('',#394,2.0);
#338=CIRCLE('',#395,0.5);
#339=CIRCLE('',#396,0.3);
#340=CARTESIAN_POINT('',(12.8,-0.8,0.3));
#341=CARTESIAN_POINT('',(22.8,-0.8,0.3));
#342=CARTESIAN_POINT('',(22.8,-0.8,0.3));
#343=VECTOR('',#397,1.0);
#344=CARTESIAN_POINT('',(12.8,-0.8,-0.3));
#345=AXIS2_PLACEMENT_3D('',#398,#399,#400);
#346=CARTESIAN_POINT('',(22.8,-0.8,-0.3));
#347=CARTESIAN_POINT('',(22.8,-0.8,-0.3));
#348=VECTOR('',#401,1.0);
#349=AXIS2_PLACEMENT_3D('',#402,#403,#404);
#350=CARTESIAN_POINT('',(12.8,0.8,0.5));
#351=CARTESIAN_POINT('',(15.3,0.8,0.5));
#352=CARTESIAN_POINT('',(15.3,0.8,0.5));
#353=VECTOR('',#405,1.0);
#354=CARTESIAN_POINT('',(12.8,0.8,-0.5));
#355=AXIS2_PLACEMENT_3D('',#406,#407,#408);
#356=CARTESIAN_POINT('',(15.3,0.8,-0.5));
#357=CARTESIAN_POINT('',(15.3,0.8,-0.5));
#358=VECTOR('',#409,1.0);
#359=AXIS2_PLACEMENT_3D('',#410,#411,#412);
#360=CARTESIAN_POINT('',(0.800000000000011,0.0,2.0));
#361=CARTESIAN_POINT('',(12.8,0.0,2.0));
#362=CARTESIAN_POINT('',(6.80000000000001,2.44921270764475E-016,2.0));
#363=VECTOR('',#413,1.0);
#364=CARTESIAN_POINT('',(0.800000000000011,-2.44921270764475E-016,-2.0));
#365=AXIS2_PLACEMENT_3D('',#414,#415,#416);
#366=CARTESIAN_POINT('',(12.8,-2.44921270764475E-016,-2.0));
#367=CARTESIAN_POINT('',(6.80000000000001,-2.44921270764475E-016,-2.0));
#368=VECTOR('',#417,1.0);
#369=AXIS2_PLACEMENT_3D('',#418,#419,#420);
#370=CARTESIAN_POINT('',(0.800000000000011,1.32664991614217,1.62462391660562E-016));
#371=CARTESIAN_POINT('',(2.22044604925031E-016,2.16840434497101E-016,0.0));
#372=AXIS2_PLACEMENT_3D('',#421,#422,#423);
#373=CARTESIAN_POINT('',(0.800000000000011,-1.32664991614217,-1.62462391660562E-016));
#374=AXIS2_PLACEMENT_3D('',#424,#425,#426);
#375=AXIS2_PLACEMENT_3D('',#427,#428,#429);
#376=CARTESIAN_POINT('',(15.3,0.8,0.3));
#377=CARTESIAN_POINT('',(22.8,0.8,0.3));
#378=CARTESIAN_POINT('',(22.8,0.8,0.3));
#379=VECTOR('',#430,1.0);
#380=CARTESIAN_POINT('',(15.3,0.8,-0.3));
#381=AXIS2_PLACEMENT_3D('',#431,#432,#433);
#382=CARTESIAN_POINT('',(22.8,0.8,-0.3));
#383=CARTESIAN_POINT('',(22.8,0.8,-0.3));
#384=VECTOR('',#434,1.0);
#385=AXIS2_PLACEMENT_3D('',#435,#436,#437);
#386=AXIS2_PLACEMENT_3D('',#438,#439,#440);
#387=AXIS2_PLACEMENT_3D('',#441,#442,#443);
#388=AXIS2_PLACEMENT_3D('',#444,#445,#446);
#389=AXIS2_PLACEMENT_3D('',#447,#448,#449);
#390=AXIS2_PLACEMENT_3D('',#450,#451,#452);
#391=CARTESIAN_POINT('',(0.800000000000011,0.0,1.32664991614217));
#392=AXIS2_PLACEMENT_3D('',#453,#454,#455);
#393=AXIS2_PLACEMENT_3D('',#456,#457,#458);
#394=AXIS2_PLACEMENT_3D('',#459,#460,#461);
#395=AXIS2_PLACEMENT_3D('',#462,#463,#464);
#396=AXIS2_PLACEMENT_3D('',#465,#466,#467);
#397=DIRECTION('',(1.0,-0.0,-0.0));
#398=CARTESIAN_POINT('',(12.8,-0.8,0.0));
#399=DIRECTION('',(-1.0,0.0,0.0));
#400=DIRECTION('',(0.0,0.0,1.0));
#401=DIRECTION('',(-1.0,0.0,-0.0));
#402=CARTESIAN_POINT('',(22.8,-0.8,0.0));
#403=DIRECTION('',(1.0,0.0,0.0));
#404=DIRECTION('',(0.0,0.0,-1.0));
#405=DIRECTION('',(1.0,-0.0,-0.0));
#406=CARTESIAN_POINT('',(12.8,0.8,0.0));
#407=DIRECTION('',(-1.0,0.0,0.0));
#408=DIRECTION('',(0.0,0.0,1.0));
#409=DIRECTION('',(-1.0,-0.0,-0.0));
#410=CARTESIAN_POINT('',(15.3,0.8,0.0));
#411=DIRECTION('',(1.0,0.0,0.0));
#412=DIRECTION('',(0.0,0.0,-1.0));
#413=DIRECTION('',(1.0,-0.0,-0.0));
#414=CARTESIAN_POINT('',(0.800000000000011,0.0,0.0));
#415=DIRECTION('',(-1.0,0.0,0.0));
#416=DIRECTION('',(0.0,0.0,1.0));
#417=DIRECTION('',(-1.0,-0.0,-0.0));
#418=CARTESIAN_POINT('',(12.8,0.0,0.0));
#419=DIRECTION('',(-1.0,0.0,0.0));
#420=DIRECTION('',(0.0,0.0,1.0));
#421=CARTESIAN_POINT('',(1.5,2.16840434497101E-016,0.0));
#422=DIRECTION('',(0.0,-1.22460635382238E-016,1.0));
#423=DIRECTION('',(0.0,1.0,1.22460635382238E-016));
#424=CARTESIAN_POINT('',(0.800000000000011,0.0,0.0));
#425=DIRECTION('',(-1.0,0.0,0.0));
#426=DIRECTION('',(0.0,0.0,1.0));
#427=CARTESIAN_POINT('',(1.5,2.16840434497101E-016,0.0));
#428=DIRECTION('',(0.0,-1.22460635382238E-016,1.0));
#429=DIRECTION('',(0.0,1.0,1.22460635382238E-016));
#430=DIRECTION('',(1.0,-0.0,-0.0));
#431=CARTESIAN_POINT('',(15.3,0.8,0.0));
#432=DIRECTION('',(1.0,0.0,0.0));
#433=DIRECTION('',(0.0,0.0,-1.0));
#434=DIRECTION('',(-1.0,0.0,-0.0));
#435=CARTESIAN_POINT('',(22.8,0.8,0.0));
#436=DIRECTION('',(-1.0,-0.0,-0.0));
#437=DIRECTION('',(0.0,0.0,-1.0));
#438=CARTESIAN_POINT('',(22.8,0.8,0.0));
#439=DIRECTION('',(-1.0,-0.0,-0.0));
#440=DIRECTION('',(0.0,0.0,-1.0));
#441=CARTESIAN_POINT('',(15.3,0.8,0.0));
#442=DIRECTION('',(1.0,0.0,0.0));
#443=DIRECTION('',(0.0,0.0,-1.0));
#444=CARTESIAN_POINT('',(12.8,0.8,0.0));
#445=DIRECTION('',(-1.0,0.0,0.0));
#446=DIRECTION('',(0.0,0.0,1.0));
#447=CARTESIAN_POINT('',(12.8,0.0,0.0));
#448=DIRECTION('',(-1.0,0.0,0.0));
#449=DIRECTION('',(0.0,0.0,1.0));
#450=CARTESIAN_POINT('',(12.8,-0.8,0.0));
#451=DIRECTION('',(-1.0,0.0,0.0));
#452=DIRECTION('',(0.0,0.0,1.0));
#453=CARTESIAN_POINT('',(0.800000000000011,0.0,0.0));
#454=DIRECTION('',(-1.0,0.0,0.0));
#455=DIRECTION('',(0.0,0.0,1.0));
#456=CARTESIAN_POINT('',(0.800000000000011,0.0,0.0));
#457=DIRECTION('',(-1.0,0.0,0.0));
#458=DIRECTION('',(0.0,0.0,1.0));
#459=CARTESIAN_POINT('',(0.800000000000011,0.0,0.0));
#460=DIRECTION('',(-1.0,0.0,0.0));
#461=DIRECTION('',(0.0,0.0,1.0));
#462=CARTESIAN_POINT('',(15.3,0.8,0.0));
#463=DIRECTION('',(1.0,0.0,0.0));
#464=DIRECTION('',(0.0,0.0,-1.0));
#465=CARTESIAN_POINT('',(22.8,-0.8,0.0));
#466=DIRECTION('',(1.0,0.0,0.0));
#467=DIRECTION('',(0.0,0.0,-1.0));
ENDSEC;
END-ISO-10303-21;
