ISO-10303-21;
HEADER;
FILE_DESCRIPTION (( 'STEP AP214' ),
    '1' );
FILE_NAME ('BPM3024A.STEP',
    '2019-07-09T18:37:08',
    ( '' ),
    ( '' ),
    'SwSTEP 2.0',
    'SolidWorks 2018',
    '' );
FILE_SCHEMA (( 'AUTOMOTIVE_DESIGN' ));
ENDSEC;

DATA;
#1 =( CONVERSION_BASED_UNIT ( 'INCH', #297 ) LENGTH_UNIT ( ) NAMED_UNIT ( #338 ) );
#2 =( GEOMETRIC_REPRESENTATION_CONTEXT ( 3 ) GLOBAL_UNCERTAINTY_ASSIGNED_CONTEXT ( ( #37 ) ) GLOBAL_UNIT_ASSIGNED_CONTEXT ( ( #26, #269, #319 ) ) REPRESENTATION_CONTEXT ( 'NONE', 'WORKASPACE' ) );
#3 = VERTEX_POINT ( 'NONE', #291 ) ;
#4 = VECTOR ( 'NONE', #270, 39.37007874015748143 ) ;
#5 = ORIENTED_EDGE ( 'NONE', *, *, #43, .F. ) ;
#6 = EDGE_CURVE ( 'NONE', #326, #125, #322, .T. ) ;
#7 = UNCERTAINTY_MEASURE_WITH_UNIT (LENGTH_MEASURE( 1.000000000000000082E-05 ), #256, 'distance_accuracy_value', 'NONE');
#8 = CARTESIAN_POINT ( 'NONE',  ( 21.00000000000000000, 0.0000000000000000000, 0.0000000000000000000 ) ) ;
#9 = AXIS2_PLACEMENT_3D ( 'NONE', #142, #160, #105 ) ;
#10 = PLANE ( 'NONE',  #170 ) ;
#11 = EDGE_CURVE ( 'NONE', #74, #286, #182, .T. ) ;
#12 = ORIENTED_EDGE ( 'NONE', *, *, #345, .F. ) ;
#13 = CARTESIAN_POINT ( 'NONE',  ( -8.623026658355388927E-15, 27.00000000000000000, 0.0000000000000000000 ) ) ;
#14 = CARTESIAN_POINT ( 'NONE',  ( 20.12499999999999645, 0.8750000000000000000, 0.1280000000000000027 ) ) ;
#15 = EDGE_LOOP ( 'NONE', ( #284 ) ) ;
#16 = DIRECTION ( 'NONE',  ( 1.000000000000000000, 0.0000000000000000000, 0.0000000000000000000 ) ) ;
#17 = ADVANCED_FACE ( 'NONE', ( #104 ), #233, .T. ) ;
#18 = CARTESIAN_POINT ( 'NONE',  ( 0.8750000000000000000, 26.12500000000000000, 0.0000000000000000000 ) ) ;
#19 = ADVANCED_FACE ( 'NONE', ( #97 ), #10, .T. ) ;
#20 = VERTEX_POINT ( 'NONE', #113 ) ;
#21 = CYLINDRICAL_SURFACE ( 'NONE', #202, 0.2499999999999999167 ) ;
#22 = AXIS2_PLACEMENT_3D ( 'NONE', #130, #48, #154 ) ;
#23 = CARTESIAN_POINT ( 'NONE',  ( 20.37499999999999645, 0.8750000000000000000, 0.0000000000000000000 ) ) ;
#24 = EDGE_LOOP ( 'NONE', ( #176, #149, #300, #183 ) ) ;
#25 = ADVANCED_BREP_SHAPE_REPRESENTATION ( 'BPM3024A', ( #328, #206 ), #261 ) ;
#26 =( CONVERSION_BASED_UNIT ( 'INCH', #116 ) LENGTH_UNIT ( ) NAMED_UNIT ( #239 ) );
#27 = AXIS2_PLACEMENT_3D ( 'NONE', #46, #100, #235 ) ;
#28 = CARTESIAN_POINT ( 'NONE',  ( -8.266365894244630389E-15, 27.00000000000000000, 0.1280000000000000027 ) ) ;
#29 = CARTESIAN_POINT ( 'NONE',  ( 20.37499999999999645, 26.12500000000000000, 0.1280000000000000027 ) ) ;
#30 = EDGE_LOOP ( 'NONE', ( #315, #347, #12, #5 ) ) ;
#31 = FILL_AREA_STYLE_COLOUR ( '', #279 ) ;
#32 = PRODUCT_DEFINITION_FORMATION_WITH_SPECIFIED_SOURCE ( 'ANY', '', #307, .NOT_KNOWN. ) ;
#33 = CARTESIAN_POINT ( 'NONE',  ( 1.124999999999999778, 26.12500000000000000, 0.1280000000000000027 ) ) ;
#34 = VERTEX_POINT ( 'NONE', #33 ) ;
#35 = EDGE_CURVE ( 'NONE', #73, #73, #155, .T. ) ;
#36 = ORIENTED_EDGE ( 'NONE', *, *, #177, .F. ) ;
#37 = UNCERTAINTY_MEASURE_WITH_UNIT (LENGTH_MEASURE( 1.000000000000000082E-05 ), #26, 'distance_accuracy_value', 'NONE');
#38 = ORIENTED_EDGE ( 'NONE', *, *, #223, .T. ) ;
#39 = EDGE_CURVE ( 'NONE', #20, #20, #84, .T. ) ;
#40 = ORIENTED_EDGE ( 'NONE', *, *, #126, .F. ) ;
#41 = SURFACE_STYLE_FILL_AREA ( #115 ) ;
#42 = ORIENTED_EDGE ( 'NONE', *, *, #39, .F. ) ;
#43 = EDGE_CURVE ( 'NONE', #90, #74, #220, .T. ) ;
#44 = FACE_OUTER_BOUND ( 'NONE', #52, .T. ) ;
#45 = ORIENTED_EDGE ( 'NONE', *, *, #67, .T. ) ;
#46 = CARTESIAN_POINT ( 'NONE',  ( 20.12499999999999645, 0.8750000000000000000, 0.0000000000000000000 ) ) ;
#47 = EDGE_LOOP ( 'NONE', ( #173 ) ) ;
#48 = DIRECTION ( 'NONE',  ( -1.000000000000000000, -3.061616997868380183E-16, 0.0000000000000000000 ) ) ;
#49 = DIRECTION ( 'NONE',  ( 1.000000000000000000, 0.0000000000000000000, 0.0000000000000000000 ) ) ;
#50 =( GEOMETRIC_REPRESENTATION_CONTEXT ( 3 ) GLOBAL_UNCERTAINTY_ASSIGNED_CONTEXT ( ( #7 ) ) GLOBAL_UNIT_ASSIGNED_CONTEXT ( ( #256, #117, #252 ) ) REPRESENTATION_CONTEXT ( 'NONE', 'WORKASPACE' ) );
#51 = PLANE ( 'NONE',  #22 ) ;
#52 = EDGE_LOOP ( 'NONE', ( #38 ) ) ;
#53 = ORIENTED_EDGE ( 'NONE', *, *, #39, .T. ) ;
#54 = CARTESIAN_POINT ( 'NONE',  ( 20.37499999999999645, 26.12500000000000000, 0.0000000000000000000 ) ) ;
#55 = PLANE ( 'NONE',  #129 ) ;
#56 = VECTOR ( 'NONE', #212, 39.37007874015748143 ) ;
#57 = DIRECTION ( 'NONE',  ( 2.072157292972000206E-16, -1.000000000000000000, -0.0000000000000000000 ) ) ;
#58 = AXIS2_PLACEMENT_3D ( 'NONE', #331, #151, #69 ) ;
#59 =( LENGTH_UNIT ( ) NAMED_UNIT ( * ) SI_UNIT ( $, .METRE. ) );
#60 = FACE_BOUND ( 'NONE', #305, .T. ) ;
#61 = EDGE_LOOP ( 'NONE', ( #214 ) ) ;
#62 = CARTESIAN_POINT ( 'NONE',  ( 1.124999999999999778, 0.8750000000000000000, 0.0000000000000000000 ) ) ;
#63 = EDGE_CURVE ( 'NONE', #286, #141, #346, .T. ) ;
#64 = EDGE_LOOP ( 'NONE', ( #40 ) ) ;
#65 = CARTESIAN_POINT ( 'NONE',  ( 21.00000000000000000, 27.00000000000000000, 0.0000000000000000000 ) ) ;
#66 = LINE ( 'NONE', #309, #257 ) ;
#67 = EDGE_CURVE ( 'NONE', #3, #3, #280, .T. ) ;
#68 = VECTOR ( 'NONE', #102, 39.37007874015748143 ) ;
#69 = DIRECTION ( 'NONE',  ( -2.072157292972000206E-16, 1.000000000000000000, 0.0000000000000000000 ) ) ;
#70 = ORIENTED_EDGE ( 'NONE', *, *, #88, .T. ) ;
#71 = DIRECTION ( 'NONE',  ( -0.0000000000000000000, -0.0000000000000000000, -1.000000000000000000 ) ) ;
#72 = CARTESIAN_POINT ( 'NONE',  ( 20.12499999999999645, 0.8750000000000000000, 0.0000000000000000000 ) ) ;
#73 = VERTEX_POINT ( 'NONE', #23 ) ;
#74 = VERTEX_POINT ( 'NONE', #334 ) ;
#75 = DIRECTION ( 'NONE',  ( 1.000000000000000000, 0.0000000000000000000, 0.0000000000000000000 ) ) ;
#76 = DIRECTION ( 'NONE',  ( 0.0000000000000000000, 0.0000000000000000000, 1.000000000000000000 ) ) ;
#77 = LINE ( 'NONE', #192, #4 ) ;
#78 = VECTOR ( 'NONE', #264, 39.37007874015748143 ) ;
#79 = CARTESIAN_POINT ( 'NONE',  ( 0.0000000000000000000, 0.0000000000000000000, 0.0000000000000000000 ) ) ;
#80 = EDGE_CURVE ( 'NONE', #293, #293, #146, .T. ) ;
#81 = CARTESIAN_POINT ( 'NONE',  ( 0.8750000000000000000, 26.12500000000000000, 0.0000000000000000000 ) ) ;
#82 = DIRECTION ( 'NONE',  ( 1.000000000000000000, 0.0000000000000000000, 0.0000000000000000000 ) ) ;
#83 = VERTEX_POINT ( 'NONE', #62 ) ;
#84 = CIRCLE ( 'NONE', #195, 0.2499999999999999167 ) ;
#85 = EDGE_LOOP ( 'NONE', ( #228, #278, #167, #153 ) ) ;
#86 = AXIS2_PLACEMENT_3D ( 'NONE', #98, #240, #75 ) ;
#87 = DIRECTION ( 'NONE',  ( 0.0000000000000000000, 0.0000000000000000000, 1.000000000000000000 ) ) ;
#88 = EDGE_CURVE ( 'NONE', #207, #118, #66, .T. ) ;
#89 = FACE_OUTER_BOUND ( 'NONE', #47, .T. ) ;
#90 = VERTEX_POINT ( 'NONE', #283 ) ;
#91 = APPLICATION_CONTEXT ( 'automotive_design' ) ;
#92 = UNCERTAINTY_MEASURE_WITH_UNIT (LENGTH_MEASURE( 1.000000000000000082E-05 ), #1, 'distance_accuracy_value', 'NONE');
#93 = FACE_BOUND ( 'NONE', #263, .T. ) ;
#94 = FACE_OUTER_BOUND ( 'NONE', #61, .T. ) ;
#95 = ORIENTED_EDGE ( 'NONE', *, *, #221, .T. ) ;
#96 = LENGTH_MEASURE_WITH_UNIT ( LENGTH_MEASURE( 0.02539999999999999897 ), #59 );
#97 = FACE_OUTER_BOUND ( 'NONE', #341, .T. ) ;
#98 = CARTESIAN_POINT ( 'NONE',  ( 0.8750000000000000000, 26.12500000000000000, 0.1280000000000000027 ) ) ;
#99 = EDGE_LOOP ( 'NONE', ( #335 ) ) ;
#100 = DIRECTION ( 'NONE',  ( -0.0000000000000000000, -0.0000000000000000000, -1.000000000000000000 ) ) ;
#101 = PRESENTATION_LAYER_ASSIGNMENT (  '', '', ( #249 ) ) ;
#102 = DIRECTION ( 'NONE',  ( 0.0000000000000000000, -1.000000000000000000, -0.0000000000000000000 ) ) ;
#103 = LINE ( 'NONE', #110, #320 ) ;
#104 = FACE_OUTER_BOUND ( 'NONE', #201, .T. ) ;
#105 = DIRECTION ( 'NONE',  ( 1.000000000000000000, 0.0000000000000000000, -0.0000000000000000000 ) ) ;
#106 = ORIENTED_EDGE ( 'NONE', *, *, #80, .T. ) ;
#107 = EDGE_CURVE ( 'NONE', #163, #163, #208, .T. ) ;
#108 = DIRECTION ( 'NONE',  ( 0.0000000000000000000, 0.0000000000000000000, 1.000000000000000000 ) ) ;
#109 = DIRECTION ( 'NONE',  ( 0.0000000000000000000, -1.000000000000000000, 0.0000000000000000000 ) ) ;
#110 = CARTESIAN_POINT ( 'NONE',  ( 21.00000000000000000, 0.0000000000000000000, 0.1280000000000000027 ) ) ;
#111 = FACE_OUTER_BOUND ( 'NONE', #24, .T. ) ;
#112 = ORIENTED_EDGE ( 'NONE', *, *, #345, .T. ) ;
#113 = CARTESIAN_POINT ( 'NONE',  ( 1.124999999999999778, 0.8750000000000000000, 0.1280000000000000027 ) ) ;
#114 = AXIS2_PLACEMENT_3D ( 'NONE', #185, #209, #16 ) ;
#115 = FILL_AREA_STYLE ('',( #31 ) ) ;
#116 = LENGTH_MEASURE_WITH_UNIT ( LENGTH_MEASURE( 0.02539999999999999897 ), #137 );
#117 =( NAMED_UNIT ( * ) PLANE_ANGLE_UNIT ( ) SI_UNIT ( $, .RADIAN. ) );
#118 = VERTEX_POINT ( 'NONE', #13 ) ;
#119 = PRODUCT_CONTEXT ( 'NONE', #91, 'mechanical' ) ;
#120 = AXIS2_PLACEMENT_3D ( 'NONE', #81, #157, #82 ) ;
#121 = LINE ( 'NONE', #187, #68 ) ;
#122 = EDGE_LOOP ( 'NONE', ( #42 ) ) ;
#123 = CIRCLE ( 'NONE', #86, 0.2499999999999999167 ) ;
#124 = DIRECTION ( 'NONE',  ( -0.0000000000000000000, 0.0000000000000000000, 1.000000000000000000 ) ) ;
#125 = VERTEX_POINT ( 'NONE', #135 ) ;
#126 = EDGE_CURVE ( 'NONE', #83, #83, #330, .T. ) ;
#127 = DIRECTION ( 'NONE',  ( -1.000000000000000000, -2.664202233821150200E-16, 0.0000000000000000000 ) ) ;
#128 = VECTOR ( 'NONE', #339, 39.37007874015748143 ) ;
#129 = AXIS2_PLACEMENT_3D ( 'NONE', #162, #76, #342 ) ;
#130 = CARTESIAN_POINT ( 'NONE',  ( -8.266365894244630389E-15, 27.00000000000000000, 0.0000000000000000000 ) ) ;
#131 = AXIS2_PLACEMENT_3D ( 'NONE', #238, #336, #281 ) ;
#132 = DIRECTION ( 'NONE',  ( -0.0000000000000000000, -0.0000000000000000000, -1.000000000000000000 ) ) ;
#133 = SURFACE_STYLE_FILL_AREA ( #289 ) ;
#134 = DIRECTION ( 'NONE',  ( -0.0000000000000000000, -0.0000000000000000000, -1.000000000000000000 ) ) ;
#135 = CARTESIAN_POINT ( 'NONE',  ( 20.99999999999999645, 27.00000000000000000, 0.1280000000000000027 ) ) ;
#136 = SURFACE_SIDE_STYLE ('',( #133 ) ) ;
#137 =( LENGTH_UNIT ( ) NAMED_UNIT ( * ) SI_UNIT ( $, .METRE. ) );
#138 = FACE_BOUND ( 'NONE', #99, .T. ) ;
#139 = FACE_BOUND ( 'NONE', #236, .T. ) ;
#140 = CARTESIAN_POINT ( 'NONE',  ( 21.00000000000000000, 27.00000000000000000, 0.0000000000000000000 ) ) ;
#141 = VERTEX_POINT ( 'NONE', #287 ) ;
#142 = CARTESIAN_POINT ( 'NONE',  ( 10.50000000000000000, 13.50000000000000000, 0.1280000000000000027 ) ) ;
#143 = PRESENTATION_STYLE_ASSIGNMENT (( #166 ) ) ;
#144 = VECTOR ( 'NONE', #134, 39.37007874015748143 ) ;
#145 = SURFACE_SIDE_STYLE ('',( #41 ) ) ;
#146 = CIRCLE ( 'NONE', #114, 0.2499999999999986955 ) ;
#147 = ORIENTED_EDGE ( 'NONE', *, *, #63, .F. ) ;
#148 = LINE ( 'NONE', #211, #144 ) ;
#149 = ORIENTED_EDGE ( 'NONE', *, *, #177, .T. ) ;
#150 = DIRECTION ( 'NONE',  ( 1.000000000000000000, 2.664202233821150200E-16, -0.0000000000000000000 ) ) ;
#151 = DIRECTION ( 'NONE',  ( 1.000000000000000000, 2.072157292972000206E-16, -0.0000000000000000000 ) ) ;
#152 = PRODUCT_DEFINITION ( 'UNKNOWN', '', #32, #169 ) ;
#153 = ORIENTED_EDGE ( 'NONE', *, *, #11, .T. ) ;
#154 = DIRECTION ( 'NONE',  ( 3.061616997868380183E-16, -1.000000000000000000, 0.0000000000000000000 ) ) ;
#155 = CIRCLE ( 'NONE', #27, 0.2499999999999986955 ) ;
#156 = MECHANICAL_DESIGN_GEOMETRIC_PRESENTATION_REPRESENTATION (  '', ( #249 ), #50 ) ;
#157 = DIRECTION ( 'NONE',  ( -0.0000000000000000000, -0.0000000000000000000, -1.000000000000000000 ) ) ;
#158 = ADVANCED_FACE ( 'NONE', ( #230, #200 ), #180, .F. ) ;
#159 = EDGE_LOOP ( 'NONE', ( #310 ) ) ;
#160 = DIRECTION ( 'NONE',  ( 0.0000000000000000000, 0.0000000000000000000, 1.000000000000000000 ) ) ;
#161 = PRODUCT_RELATED_PRODUCT_CATEGORY ( 'part', '', ( #307 ) ) ;
#162 = CARTESIAN_POINT ( 'NONE',  ( 10.50000000000000000, 13.50000000000000000, 0.0000000000000000000 ) ) ;
#163 = VERTEX_POINT ( 'NONE', #54 ) ;
#164 = LINE ( 'NONE', #140, #224 ) ;
#165 = VECTOR ( 'NONE', #124, 39.37007874015748143 ) ;
#166 = SURFACE_STYLE_USAGE ( .BOTH. , #145 ) ;
#167 = ORIENTED_EDGE ( 'NONE', *, *, #43, .T. ) ;
#168 = EDGE_LOOP ( 'NONE', ( #232 ) ) ;
#169 = PRODUCT_DEFINITION_CONTEXT ( 'detailed design', #295, 'design' ) ;
#170 = AXIS2_PLACEMENT_3D ( 'NONE', #65, #333, #127 ) ;
#171 = CARTESIAN_POINT ( 'NONE',  ( 1.124999999999999778, 26.12500000000000000, 0.0000000000000000000 ) ) ;
#172 = CYLINDRICAL_SURFACE ( 'NONE', #323, 0.2499999999999986955 ) ;
#173 = ORIENTED_EDGE ( 'NONE', *, *, #107, .T. ) ;
#174 = FACE_OUTER_BOUND ( 'NONE', #159, .T. ) ;
#175 = ORIENTED_EDGE ( 'NONE', *, *, #296, .T. ) ;
#176 = ORIENTED_EDGE ( 'NONE', *, *, #308, .T. ) ;
#177 = EDGE_CURVE ( 'NONE', #326, #118, #148, .T. ) ;
#178 = CARTESIAN_POINT ( 'NONE',  ( 0.8750000000000000000, 0.8750000000000000000, 0.1280000000000000027 ) ) ;
#179 = FACE_BOUND ( 'NONE', #259, .T. ) ;
#180 = CYLINDRICAL_SURFACE ( 'NONE', #258, 0.2499999999999986955 ) ;
#181 = DIRECTION ( 'NONE',  ( 1.000000000000000000, 0.0000000000000000000, 0.0000000000000000000 ) ) ;
#182 = LINE ( 'NONE', #8, #165 ) ;
#183 = ORIENTED_EDGE ( 'NONE', *, *, #302, .F. ) ;
#184 = DIRECTION ( 'NONE',  ( 1.000000000000000000, 0.0000000000000000000, 0.0000000000000000000 ) ) ;
#185 = CARTESIAN_POINT ( 'NONE',  ( 20.12499999999999645, 26.12500000000000000, 0.1280000000000000027 ) ) ;
#186 = SHAPE_DEFINITION_REPRESENTATION ( #246, #25 ) ;
#187 = CARTESIAN_POINT ( 'NONE',  ( -8.741913579725642299E-15, 13.50000000000000000, 0.0000000000000000000 ) ) ;
#188 = EDGE_CURVE ( 'NONE', #34, #34, #123, .T. ) ;
#189 = CARTESIAN_POINT ( 'NONE',  ( -8.623026658355388927E-15, 27.00000000000000000, 0.1280000000000000027 ) ) ;
#190 = ADVANCED_FACE ( 'NONE', ( #111 ), #51, .T. ) ;
#191 = DIRECTION ( 'NONE',  ( 0.0000000000000000000, 0.0000000000000000000, 1.000000000000000000 ) ) ;
#192 = CARTESIAN_POINT ( 'NONE',  ( 0.0000000000000000000, 0.0000000000000000000, 0.0000000000000000000 ) ) ;
#193 = CYLINDRICAL_SURFACE ( 'NONE', #226, 0.2499999999999999167 ) ;
#194 = CARTESIAN_POINT ( 'NONE',  ( 0.0000000000000000000, 0.0000000000000000000, 0.0000000000000000000 ) ) ;
#195 = AXIS2_PLACEMENT_3D ( 'NONE', #178, #314, #184 ) ;
#196 = EDGE_LOOP ( 'NONE', ( #231, #222, #147, #197 ) ) ;
#197 = ORIENTED_EDGE ( 'NONE', *, *, #296, .F. ) ;
#198 = DIRECTION ( 'NONE',  ( -0.0000000000000000000, 1.000000000000000000, 0.0000000000000000000 ) ) ;
#199 = APPLICATION_PROTOCOL_DEFINITION ( 'draft international standard', 'automotive_design', 1998, #295 ) ;
#200 = FACE_OUTER_BOUND ( 'NONE', #168, .T. ) ;
#201 = EDGE_LOOP ( 'NONE', ( #175, #266, #112, #318 ) ) ;
#202 = AXIS2_PLACEMENT_3D ( 'NONE', #216, #273, #294 ) ;
#203 = DIRECTION ( 'NONE',  ( 1.000000000000000000, 0.0000000000000000000, 0.0000000000000000000 ) ) ;
#204 = PRESENTATION_STYLE_ASSIGNMENT (( #340 ) ) ;
#205 = FACE_OUTER_BOUND ( 'NONE', #325, .T. ) ;
#206 = AXIS2_PLACEMENT_3D ( 'NONE', #194, #87, #203 ) ;
#207 = VERTEX_POINT ( 'NONE', #262 ) ;
#208 = CIRCLE ( 'NONE', #275, 0.2499999999999986955 ) ;
#209 = DIRECTION ( 'NONE',  ( -0.0000000000000000000, -0.0000000000000000000, -1.000000000000000000 ) ) ;
#210 = EDGE_CURVE ( 'NONE', #118, #90, #121, .T. ) ;
#211 = CARTESIAN_POINT ( 'NONE',  ( -8.266365894244630389E-15, 27.00000000000000000, 0.0000000000000000000 ) ) ;
#212 = DIRECTION ( 'NONE',  ( -1.000000000000000000, -0.0000000000000000000, -0.0000000000000000000 ) ) ;
#213 = ADVANCED_FACE ( 'NONE', ( #60, #139, #272, #313, #276 ), #337, .T. ) ;
#214 = ORIENTED_EDGE ( 'NONE', *, *, #188, .F. ) ;
#215 = CARTESIAN_POINT ( 'NONE',  ( 21.00000000000000000, 0.0000000000000000000, 0.1280000000000000027 ) ) ;
#216 = CARTESIAN_POINT ( 'NONE',  ( 0.8750000000000000000, 0.8750000000000000000, 0.0000000000000000000 ) ) ;
#217 = ADVANCED_FACE ( 'NONE', ( #44, #94 ), #193, .F. ) ;
#218 = DIRECTION ( 'NONE',  ( -0.0000000000000000000, -0.0000000000000000000, -1.000000000000000000 ) ) ;
#219 =( NAMED_UNIT ( * ) PLANE_ANGLE_UNIT ( ) SI_UNIT ( $, .RADIAN. ) );
#220 = LINE ( 'NONE', #288, #78 ) ;
#221 = EDGE_CURVE ( 'NONE', #125, #207, #164, .T. ) ;
#222 = ORIENTED_EDGE ( 'NONE', *, *, #308, .F. ) ;
#223 = EDGE_CURVE ( 'NONE', #277, #277, #254, .T. ) ;
#224 = VECTOR ( 'NONE', #218, 39.37007874015748143 ) ;
#225 = CLOSED_SHELL ( 'NONE', ( #317, #242, #158, #311, #217, #343, #190, #19, #17, #213 ) ) ;
#226 = AXIS2_PLACEMENT_3D ( 'NONE', #18, #108, #271 ) ;
#227 = ORIENTED_EDGE ( 'NONE', *, *, #35, .F. ) ;
#228 = ORIENTED_EDGE ( 'NONE', *, *, #63, .T. ) ;
#229 = FACE_OUTER_BOUND ( 'NONE', #85, .T. ) ;
#230 = FACE_OUTER_BOUND ( 'NONE', #15, .T. ) ;
#231 = ORIENTED_EDGE ( 'NONE', *, *, #6, .F. ) ;
#232 = ORIENTED_EDGE ( 'NONE', *, *, #67, .F. ) ;
#233 = PLANE ( 'NONE',  #58 ) ;
#234 = DIRECTION ( 'NONE',  ( 0.0000000000000000000, 0.0000000000000000000, 1.000000000000000000 ) ) ;
#235 = DIRECTION ( 'NONE',  ( 1.000000000000000000, 0.0000000000000000000, 0.0000000000000000000 ) ) ;
#236 = EDGE_LOOP ( 'NONE', ( #45 ) ) ;
#237 = CARTESIAN_POINT ( 'NONE',  ( 0.0000000000000000000, 0.0000000000000000000, 0.1280000000000000027 ) ) ;
#238 = CARTESIAN_POINT ( 'NONE',  ( 0.8750000000000000000, 0.8750000000000000000, 0.0000000000000000000 ) ) ;
#239 = DIMENSIONAL_EXPONENTS ( 1.000000000000000000, 0.0000000000000000000, 0.0000000000000000000, 0.0000000000000000000, 0.0000000000000000000, 0.0000000000000000000, 0.0000000000000000000 ) ;
#240 = DIRECTION ( 'NONE',  ( -0.0000000000000000000, -0.0000000000000000000, -1.000000000000000000 ) ) ;
#241 = AXIS2_PLACEMENT_3D ( 'NONE', #14, #132, #306 ) ;
#242 = ADVANCED_FACE ( 'NONE', ( #205, #251 ), #21, .F. ) ;
#243 = LINE ( 'NONE', #28, #128 ) ;
#244 = DIRECTION ( 'NONE',  ( 1.000000000000000000, 0.0000000000000000000, 0.0000000000000000000 ) ) ;
#245 = EDGE_LOOP ( 'NONE', ( #268 ) ) ;
#246 = PRODUCT_DEFINITION_SHAPE ( 'NONE', 'NONE',  #152 ) ;
#247 = CARTESIAN_POINT ( 'NONE',  ( 20.12499999999999645, 26.12500000000000000, 0.0000000000000000000 ) ) ;
#248 = DIMENSIONAL_EXPONENTS ( 1.000000000000000000, 0.0000000000000000000, 0.0000000000000000000, 0.0000000000000000000, 0.0000000000000000000, 0.0000000000000000000, 0.0000000000000000000 ) ;
#249 = STYLED_ITEM ( 'NONE', ( #143 ), #25 ) ;
#250 = PLANE ( 'NONE',  #332 ) ;
#251 = FACE_OUTER_BOUND ( 'NONE', #122, .T. ) ;
#252 =( NAMED_UNIT ( * ) SI_UNIT ( $, .STERADIAN. ) SOLID_ANGLE_UNIT ( ) );
#253 =( LENGTH_UNIT ( ) NAMED_UNIT ( * ) SI_UNIT ( $, .METRE. ) );
#254 = CIRCLE ( 'NONE', #120, 0.2499999999999999167 ) ;
#255 = EDGE_LOOP ( 'NONE', ( #106 ) ) ;
#256 =( CONVERSION_BASED_UNIT ( 'INCH', #96 ) LENGTH_UNIT ( ) NAMED_UNIT ( #248 ) );
#257 = VECTOR ( 'NONE', #267, 39.37007874015748143 ) ;
#258 = AXIS2_PLACEMENT_3D ( 'NONE', #72, #234, #49 ) ;
#259 = EDGE_LOOP ( 'NONE', ( #274 ) ) ;
#260 = ORIENTED_EDGE ( 'NONE', *, *, #6, .T. ) ;
#261 =( GEOMETRIC_REPRESENTATION_CONTEXT ( 3 ) GLOBAL_UNCERTAINTY_ASSIGNED_CONTEXT ( ( #92 ) ) GLOBAL_UNIT_ASSIGNED_CONTEXT ( ( #1, #219, #327 ) ) REPRESENTATION_CONTEXT ( 'NONE', 'WORKASPACE' ) );
#262 = CARTESIAN_POINT ( 'NONE',  ( 20.99999999999999645, 27.00000000000000000, 0.0000000000000000000 ) ) ;
#263 = EDGE_LOOP ( 'NONE', ( #227 ) ) ;
#264 = DIRECTION ( 'NONE',  ( 1.000000000000000000, 0.0000000000000000000, -0.0000000000000000000 ) ) ;
#265 = CARTESIAN_POINT ( 'NONE',  ( 20.12499999999999645, 26.12500000000000000, 0.0000000000000000000 ) ) ;
#266 = ORIENTED_EDGE ( 'NONE', *, *, #11, .F. ) ;
#267 = DIRECTION ( 'NONE',  ( -1.000000000000000000, -0.0000000000000000000, 0.0000000000000000000 ) ) ;
#268 = ORIENTED_EDGE ( 'NONE', *, *, #188, .T. ) ;
#269 =( NAMED_UNIT ( * ) PLANE_ANGLE_UNIT ( ) SI_UNIT ( $, .RADIAN. ) );
#270 = DIRECTION ( 'NONE',  ( 0.0000000000000000000, -0.0000000000000000000, -1.000000000000000000 ) ) ;
#271 = DIRECTION ( 'NONE',  ( 1.000000000000000000, 0.0000000000000000000, 0.0000000000000000000 ) ) ;
#272 = FACE_BOUND ( 'NONE', #255, .T. ) ;
#273 = DIRECTION ( 'NONE',  ( 0.0000000000000000000, 0.0000000000000000000, 1.000000000000000000 ) ) ;
#274 = ORIENTED_EDGE ( 'NONE', *, *, #223, .F. ) ;
#275 = AXIS2_PLACEMENT_3D ( 'NONE', #265, #71, #181 ) ;
#276 = FACE_OUTER_BOUND ( 'NONE', #196, .T. ) ;
#277 = VERTEX_POINT ( 'NONE', #171 ) ;
#278 = ORIENTED_EDGE ( 'NONE', *, *, #302, .T. ) ;
#279 = COLOUR_RGB ( '',0.9529411764705881804, 0.9529411764705881804, 0.9529411764705881804 ) ;
#280 = CIRCLE ( 'NONE', #241, 0.2499999999999986955 ) ;
#281 = DIRECTION ( 'NONE',  ( 1.000000000000000000, 0.0000000000000000000, 0.0000000000000000000 ) ) ;
#282 = VECTOR ( 'NONE', #198, 39.37007874015748143 ) ;
#283 = CARTESIAN_POINT ( 'NONE',  ( -2.185478394931412547E-15, 0.0000000000000000000, 0.0000000000000000000 ) ) ;
#284 = ORIENTED_EDGE ( 'NONE', *, *, #35, .T. ) ;
#285 = STYLED_ITEM ( 'NONE', ( #204 ), #328 ) ;
#286 = VERTEX_POINT ( 'NONE', #215 ) ;
#287 = CARTESIAN_POINT ( 'NONE',  ( -4.370956789862821938E-15, 0.0000000000000000000, 0.1280000000000000027 ) ) ;
#288 = CARTESIAN_POINT ( 'NONE',  ( 10.50000000000000000, 0.0000000000000000000, 0.0000000000000000000 ) ) ;
#289 = FILL_AREA_STYLE ('',( #321 ) ) ;
#290 = ORIENTED_EDGE ( 'NONE', *, *, #126, .T. ) ;
#291 = CARTESIAN_POINT ( 'NONE',  ( 20.37499999999999645, 0.8750000000000000000, 0.1280000000000000027 ) ) ;
#292 = DIRECTION ( 'NONE',  ( 0.0000000000000000000, -0.0000000000000000000, -1.000000000000000000 ) ) ;
#293 = VERTEX_POINT ( 'NONE', #29 ) ;
#294 = DIRECTION ( 'NONE',  ( 1.000000000000000000, 0.0000000000000000000, 0.0000000000000000000 ) ) ;
#295 = APPLICATION_CONTEXT ( 'automotive_design' ) ;
#296 = EDGE_CURVE ( 'NONE', #125, #286, #103, .T. ) ;
#297 = LENGTH_MEASURE_WITH_UNIT ( LENGTH_MEASURE( 0.02539999999999999897 ), #253 );
#298 = FACE_BOUND ( 'NONE', #64, .T. ) ;
#299 = PRESENTATION_LAYER_ASSIGNMENT (  '', '', ( #285 ) ) ;
#300 = ORIENTED_EDGE ( 'NONE', *, *, #210, .T. ) ;
#301 = CARTESIAN_POINT ( 'NONE',  ( 21.00000000000000000, 27.00000000000000000, 0.1280000000000000027 ) ) ;
#302 = EDGE_CURVE ( 'NONE', #141, #90, #77, .T. ) ;
#303 = COLOUR_RGB ( '',0.9529411764705881804, 0.9529411764705881804, 0.9529411764705881804 ) ;
#304 = VECTOR ( 'NONE', #150, 39.37007874015748143 ) ;
#305 = EDGE_LOOP ( 'NONE', ( #53 ) ) ;
#306 = DIRECTION ( 'NONE',  ( 1.000000000000000000, 0.0000000000000000000, 0.0000000000000000000 ) ) ;
#307 = PRODUCT ( 'BPM3024A', 'BPM3024A', '', ( #119 ) ) ;
#308 = EDGE_CURVE ( 'NONE', #141, #326, #243, .T. ) ;
#309 = CARTESIAN_POINT ( 'NONE',  ( 10.50000000000000000, 27.00000000000000000, 0.0000000000000000000 ) ) ;
#310 = ORIENTED_EDGE ( 'NONE', *, *, #80, .F. ) ;
#311 = ADVANCED_FACE ( 'NONE', ( #89, #174 ), #172, .F. ) ;
#312 = LINE ( 'NONE', #344, #282 ) ;
#313 = FACE_BOUND ( 'NONE', #245, .T. ) ;
#314 = DIRECTION ( 'NONE',  ( -0.0000000000000000000, -0.0000000000000000000, -1.000000000000000000 ) ) ;
#315 = ORIENTED_EDGE ( 'NONE', *, *, #210, .F. ) ;
#316 = MECHANICAL_DESIGN_GEOMETRIC_PRESENTATION_REPRESENTATION (  '', ( #285 ), #2 ) ;
#317 = ADVANCED_FACE ( 'NONE', ( #298, #93, #138, #179, #329 ), #55, .F. ) ;
#318 = ORIENTED_EDGE ( 'NONE', *, *, #221, .F. ) ;
#319 =( NAMED_UNIT ( * ) SI_UNIT ( $, .STERADIAN. ) SOLID_ANGLE_UNIT ( ) );
#320 = VECTOR ( 'NONE', #57, 39.37007874015748143 ) ;
#321 = FILL_AREA_STYLE_COLOUR ( '', #303 ) ;
#322 = LINE ( 'NONE', #301, #304 ) ;
#323 = AXIS2_PLACEMENT_3D ( 'NONE', #247, #191, #244 ) ;
#324 = APPLICATION_PROTOCOL_DEFINITION ( 'draft international standard', 'automotive_design', 1998, #91 ) ;
#325 = EDGE_LOOP ( 'NONE', ( #290 ) ) ;
#326 = VERTEX_POINT ( 'NONE', #189 ) ;
#327 =( NAMED_UNIT ( * ) SI_UNIT ( $, .STERADIAN. ) SOLID_ANGLE_UNIT ( ) );
#328 = MANIFOLD_SOLID_BREP ( 'Solid1', #225 ) ;
#329 = FACE_OUTER_BOUND ( 'NONE', #30, .T. ) ;
#330 = CIRCLE ( 'NONE', #131, 0.2499999999999999167 ) ;
#331 = CARTESIAN_POINT ( 'NONE',  ( 21.00000000000000000, 0.0000000000000000000, 0.0000000000000000000 ) ) ;
#332 = AXIS2_PLACEMENT_3D ( 'NONE', #79, #109, #292 ) ;
#333 = DIRECTION ( 'NONE',  ( -2.664202233821150200E-16, 1.000000000000000000, 0.0000000000000000000 ) ) ;
#334 = CARTESIAN_POINT ( 'NONE',  ( 21.00000000000000000, 0.0000000000000000000, 0.0000000000000000000 ) ) ;
#335 = ORIENTED_EDGE ( 'NONE', *, *, #107, .F. ) ;
#336 = DIRECTION ( 'NONE',  ( -0.0000000000000000000, -0.0000000000000000000, -1.000000000000000000 ) ) ;
#337 = PLANE ( 'NONE',  #9 ) ;
#338 = DIMENSIONAL_EXPONENTS ( 1.000000000000000000, 0.0000000000000000000, 0.0000000000000000000, 0.0000000000000000000, 0.0000000000000000000, 0.0000000000000000000, 0.0000000000000000000 ) ;
#339 = DIRECTION ( 'NONE',  ( -3.061616997868380183E-16, 1.000000000000000000, -0.0000000000000000000 ) ) ;
#340 = SURFACE_STYLE_USAGE ( .BOTH. , #136 ) ;
#341 = EDGE_LOOP ( 'NONE', ( #260, #95, #70, #36 ) ) ;
#342 = DIRECTION ( 'NONE',  ( 1.000000000000000000, 0.0000000000000000000, -0.0000000000000000000 ) ) ;
#343 = ADVANCED_FACE ( 'NONE', ( #229 ), #250, .T. ) ;
#344 = CARTESIAN_POINT ( 'NONE',  ( 21.00000000000000000, 13.50000000000000000, 0.0000000000000000000 ) ) ;
#345 = EDGE_CURVE ( 'NONE', #74, #207, #312, .T. ) ;
#346 = LINE ( 'NONE', #237, #56 ) ;
#347 = ORIENTED_EDGE ( 'NONE', *, *, #88, .F. ) ;
ENDSEC;
END-ISO-10303-21;
