ISO-10303-21;
HEADER;
/* Generated by software containing ST-Developer
 * from STEP Tools, Inc. (www.steptools.com) 
 */

FILE_DESCRIPTION(
/* description */ (''),
/* implementation_level */ '2;1');

FILE_NAME(
/* name */ 
'S:\\Stahlin_Non_Metallic\\30675\\CAD_files\\ENTEGEE_Design\\HW-WM3630
A.stp',
/* time_stamp */ '2014-03-05T12:16:26-06:00',
/* author */ ('jtigges'),
/* organization */ (''),
/* preprocessor_version */ 'ST-DEVELOPER v15.2',
/* originating_system */ 'Autodesk Inventor 2014',
/* authorisation */ '');

FILE_SCHEMA (('AUTOMOTIVE_DESIGN { 1 0 10303 214 3 1 1 }'));
ENDSEC;

DATA;
#10=SHAPE_REPRESENTATION_RELATIONSHIP('SRR','None',#384,#11);
#11=ADVANCED_BREP_SHAPE_REPRESENTATION($,(#226),#372);
#12=STYLED_ITEM($,(#393),#226);
#13=LINE($,#348,#25);
#14=LINE($,#350,#26);
#15=LINE($,#352,#27);
#16=LINE($,#353,#28);
#17=LINE($,#357,#29);
#18=LINE($,#358,#30);
#19=LINE($,#359,#31);
#20=LINE($,#362,#32);
#21=LINE($,#363,#33);
#22=LINE($,#366,#34);
#23=LINE($,#367,#35);
#24=LINE($,#369,#36);
#25=VECTOR($,#292,0.13);
#26=VECTOR($,#293,33.);
#27=VECTOR($,#294,0.13);
#28=VECTOR($,#295,33.);
#29=VECTOR($,#298,0.13);
#30=VECTOR($,#299,27.);
#31=VECTOR($,#300,27.);
#32=VECTOR($,#303,33.);
#33=VECTOR($,#304,27.);
#34=VECTOR($,#307,0.13);
#35=VECTOR($,#308,27.);
#36=VECTOR($,#311,33.);
#37=PLANE($,#246);
#38=PLANE($,#247);
#39=PLANE($,#248);
#40=PLANE($,#249);
#41=PLANE($,#250);
#42=PLANE($,#251);
#43=FACE_BOUND($,#74,.T.);
#44=FACE_BOUND($,#76,.T.);
#45=FACE_BOUND($,#78,.T.);
#46=FACE_BOUND($,#80,.T.);
#47=FACE_BOUND($,#82,.T.);
#48=FACE_BOUND($,#84,.T.);
#49=FACE_BOUND($,#88,.T.);
#50=FACE_BOUND($,#89,.T.);
#51=FACE_BOUND($,#90,.T.);
#52=FACE_BOUND($,#91,.T.);
#53=FACE_BOUND($,#92,.T.);
#54=FACE_BOUND($,#93,.T.);
#55=FACE_BOUND($,#96,.T.);
#56=FACE_BOUND($,#97,.T.);
#57=FACE_BOUND($,#98,.T.);
#58=FACE_BOUND($,#99,.T.);
#59=FACE_BOUND($,#100,.T.);
#60=FACE_BOUND($,#101,.T.);
#61=FACE_OUTER_BOUND($,#73,.T.);
#62=FACE_OUTER_BOUND($,#75,.T.);
#63=FACE_OUTER_BOUND($,#77,.T.);
#64=FACE_OUTER_BOUND($,#79,.T.);
#65=FACE_OUTER_BOUND($,#81,.T.);
#66=FACE_OUTER_BOUND($,#83,.T.);
#67=FACE_OUTER_BOUND($,#85,.T.);
#68=FACE_OUTER_BOUND($,#86,.T.);
#69=FACE_OUTER_BOUND($,#87,.T.);
#70=FACE_OUTER_BOUND($,#94,.T.);
#71=FACE_OUTER_BOUND($,#95,.T.);
#72=FACE_OUTER_BOUND($,#102,.T.);
#73=EDGE_LOOP($,(#159));
#74=EDGE_LOOP($,(#160));
#75=EDGE_LOOP($,(#161));
#76=EDGE_LOOP($,(#162));
#77=EDGE_LOOP($,(#163));
#78=EDGE_LOOP($,(#164));
#79=EDGE_LOOP($,(#165));
#80=EDGE_LOOP($,(#166));
#81=EDGE_LOOP($,(#167));
#82=EDGE_LOOP($,(#168));
#83=EDGE_LOOP($,(#169));
#84=EDGE_LOOP($,(#170));
#85=EDGE_LOOP($,(#171,#172,#173,#174));
#86=EDGE_LOOP($,(#175,#176,#177,#178));
#87=EDGE_LOOP($,(#179,#180,#181,#182));
#88=EDGE_LOOP($,(#183));
#89=EDGE_LOOP($,(#184));
#90=EDGE_LOOP($,(#185));
#91=EDGE_LOOP($,(#186));
#92=EDGE_LOOP($,(#187));
#93=EDGE_LOOP($,(#188));
#94=EDGE_LOOP($,(#189,#190,#191,#192));
#95=EDGE_LOOP($,(#193,#194,#195,#196));
#96=EDGE_LOOP($,(#197));
#97=EDGE_LOOP($,(#198));
#98=EDGE_LOOP($,(#199));
#99=EDGE_LOOP($,(#200));
#100=EDGE_LOOP($,(#201));
#101=EDGE_LOOP($,(#202));
#102=EDGE_LOOP($,(#203,#204,#205,#206));
#103=CIRCLE($,#229,0.25);
#104=CIRCLE($,#230,0.25);
#105=CIRCLE($,#232,0.25);
#106=CIRCLE($,#233,0.25);
#107=CIRCLE($,#235,0.25);
#108=CIRCLE($,#236,0.25);
#109=CIRCLE($,#238,0.25);
#110=CIRCLE($,#239,0.25);
#111=CIRCLE($,#241,0.25);
#112=CIRCLE($,#242,0.25);
#113=CIRCLE($,#244,0.25);
#114=CIRCLE($,#245,0.25);
#115=VERTEX_POINT($,#316);
#116=VERTEX_POINT($,#318);
#117=VERTEX_POINT($,#321);
#118=VERTEX_POINT($,#323);
#119=VERTEX_POINT($,#326);
#120=VERTEX_POINT($,#328);
#121=VERTEX_POINT($,#331);
#122=VERTEX_POINT($,#333);
#123=VERTEX_POINT($,#336);
#124=VERTEX_POINT($,#338);
#125=VERTEX_POINT($,#341);
#126=VERTEX_POINT($,#343);
#127=VERTEX_POINT($,#346);
#128=VERTEX_POINT($,#347);
#129=VERTEX_POINT($,#349);
#130=VERTEX_POINT($,#351);
#131=VERTEX_POINT($,#355);
#132=VERTEX_POINT($,#356);
#133=VERTEX_POINT($,#361);
#134=VERTEX_POINT($,#365);
#135=EDGE_CURVE($,#115,#115,#103,.T.);
#136=EDGE_CURVE($,#116,#116,#104,.T.);
#137=EDGE_CURVE($,#117,#117,#105,.T.);
#138=EDGE_CURVE($,#118,#118,#106,.T.);
#139=EDGE_CURVE($,#119,#119,#107,.T.);
#140=EDGE_CURVE($,#120,#120,#108,.T.);
#141=EDGE_CURVE($,#121,#121,#109,.T.);
#142=EDGE_CURVE($,#122,#122,#110,.T.);
#143=EDGE_CURVE($,#123,#123,#111,.T.);
#144=EDGE_CURVE($,#124,#124,#112,.T.);
#145=EDGE_CURVE($,#125,#125,#113,.T.);
#146=EDGE_CURVE($,#126,#126,#114,.T.);
#147=EDGE_CURVE($,#127,#128,#13,.T.);
#148=EDGE_CURVE($,#129,#127,#14,.T.);
#149=EDGE_CURVE($,#130,#129,#15,.T.);
#150=EDGE_CURVE($,#128,#130,#16,.T.);
#151=EDGE_CURVE($,#131,#132,#17,.T.);
#152=EDGE_CURVE($,#130,#132,#18,.T.);
#153=EDGE_CURVE($,#131,#129,#19,.T.);
#154=EDGE_CURVE($,#132,#133,#20,.T.);
#155=EDGE_CURVE($,#128,#133,#21,.T.);
#156=EDGE_CURVE($,#133,#134,#22,.T.);
#157=EDGE_CURVE($,#127,#134,#23,.T.);
#158=EDGE_CURVE($,#134,#131,#24,.T.);
#159=ORIENTED_EDGE($,*,*,#135,.F.);
#160=ORIENTED_EDGE($,*,*,#136,.F.);
#161=ORIENTED_EDGE($,*,*,#137,.F.);
#162=ORIENTED_EDGE($,*,*,#138,.F.);
#163=ORIENTED_EDGE($,*,*,#139,.F.);
#164=ORIENTED_EDGE($,*,*,#140,.F.);
#165=ORIENTED_EDGE($,*,*,#141,.F.);
#166=ORIENTED_EDGE($,*,*,#142,.F.);
#167=ORIENTED_EDGE($,*,*,#143,.F.);
#168=ORIENTED_EDGE($,*,*,#144,.F.);
#169=ORIENTED_EDGE($,*,*,#145,.F.);
#170=ORIENTED_EDGE($,*,*,#146,.F.);
#171=ORIENTED_EDGE($,*,*,#147,.F.);
#172=ORIENTED_EDGE($,*,*,#148,.F.);
#173=ORIENTED_EDGE($,*,*,#149,.F.);
#174=ORIENTED_EDGE($,*,*,#150,.F.);
#175=ORIENTED_EDGE($,*,*,#151,.T.);
#176=ORIENTED_EDGE($,*,*,#152,.F.);
#177=ORIENTED_EDGE($,*,*,#149,.T.);
#178=ORIENTED_EDGE($,*,*,#153,.F.);
#179=ORIENTED_EDGE($,*,*,#154,.T.);
#180=ORIENTED_EDGE($,*,*,#155,.F.);
#181=ORIENTED_EDGE($,*,*,#150,.T.);
#182=ORIENTED_EDGE($,*,*,#152,.T.);
#183=ORIENTED_EDGE($,*,*,#136,.T.);
#184=ORIENTED_EDGE($,*,*,#138,.T.);
#185=ORIENTED_EDGE($,*,*,#140,.T.);
#186=ORIENTED_EDGE($,*,*,#142,.T.);
#187=ORIENTED_EDGE($,*,*,#144,.T.);
#188=ORIENTED_EDGE($,*,*,#146,.T.);
#189=ORIENTED_EDGE($,*,*,#156,.T.);
#190=ORIENTED_EDGE($,*,*,#157,.F.);
#191=ORIENTED_EDGE($,*,*,#147,.T.);
#192=ORIENTED_EDGE($,*,*,#155,.T.);
#193=ORIENTED_EDGE($,*,*,#158,.T.);
#194=ORIENTED_EDGE($,*,*,#153,.T.);
#195=ORIENTED_EDGE($,*,*,#148,.T.);
#196=ORIENTED_EDGE($,*,*,#157,.T.);
#197=ORIENTED_EDGE($,*,*,#135,.T.);
#198=ORIENTED_EDGE($,*,*,#137,.T.);
#199=ORIENTED_EDGE($,*,*,#139,.T.);
#200=ORIENTED_EDGE($,*,*,#141,.T.);
#201=ORIENTED_EDGE($,*,*,#143,.T.);
#202=ORIENTED_EDGE($,*,*,#145,.T.);
#203=ORIENTED_EDGE($,*,*,#151,.F.);
#204=ORIENTED_EDGE($,*,*,#158,.F.);
#205=ORIENTED_EDGE($,*,*,#156,.F.);
#206=ORIENTED_EDGE($,*,*,#154,.F.);
#207=CYLINDRICAL_SURFACE($,#228,0.25);
#208=CYLINDRICAL_SURFACE($,#231,0.25);
#209=CYLINDRICAL_SURFACE($,#234,0.25);
#210=CYLINDRICAL_SURFACE($,#237,0.25);
#211=CYLINDRICAL_SURFACE($,#240,0.25);
#212=CYLINDRICAL_SURFACE($,#243,0.25);
#213=ADVANCED_FACE($,(#61,#43),#207,.F.);
#214=ADVANCED_FACE($,(#62,#44),#208,.F.);
#215=ADVANCED_FACE($,(#63,#45),#209,.F.);
#216=ADVANCED_FACE($,(#64,#46),#210,.F.);
#217=ADVANCED_FACE($,(#65,#47),#211,.F.);
#218=ADVANCED_FACE($,(#66,#48),#212,.F.);
#219=ADVANCED_FACE($,(#67),#37,.T.);
#220=ADVANCED_FACE($,(#68),#38,.T.);
#221=ADVANCED_FACE($,(#69,#49,#50,#51,#52,#53,#54),#39,.T.);
#222=ADVANCED_FACE($,(#70),#40,.T.);
#223=ADVANCED_FACE($,(#71,#55,#56,#57,#58,#59,#60),#41,.T.);
#224=ADVANCED_FACE($,(#72),#42,.F.);
#225=CLOSED_SHELL($,(#213,#214,#215,#216,#217,#218,#219,#220,#221,#222,
#223,#224));
#226=MANIFOLD_SOLID_BREP('Solid1',#225);
#227=AXIS2_PLACEMENT_3D('placement',#314,#252,#253);
#228=AXIS2_PLACEMENT_3D($,#315,#254,#255);
#229=AXIS2_PLACEMENT_3D($,#317,#256,#257);
#230=AXIS2_PLACEMENT_3D($,#319,#258,#259);
#231=AXIS2_PLACEMENT_3D($,#320,#260,#261);
#232=AXIS2_PLACEMENT_3D($,#322,#262,#263);
#233=AXIS2_PLACEMENT_3D($,#324,#264,#265);
#234=AXIS2_PLACEMENT_3D($,#325,#266,#267);
#235=AXIS2_PLACEMENT_3D($,#327,#268,#269);
#236=AXIS2_PLACEMENT_3D($,#329,#270,#271);
#237=AXIS2_PLACEMENT_3D($,#330,#272,#273);
#238=AXIS2_PLACEMENT_3D($,#332,#274,#275);
#239=AXIS2_PLACEMENT_3D($,#334,#276,#277);
#240=AXIS2_PLACEMENT_3D($,#335,#278,#279);
#241=AXIS2_PLACEMENT_3D($,#337,#280,#281);
#242=AXIS2_PLACEMENT_3D($,#339,#282,#283);
#243=AXIS2_PLACEMENT_3D($,#340,#284,#285);
#244=AXIS2_PLACEMENT_3D($,#342,#286,#287);
#245=AXIS2_PLACEMENT_3D($,#344,#288,#289);
#246=AXIS2_PLACEMENT_3D($,#345,#290,#291);
#247=AXIS2_PLACEMENT_3D($,#354,#296,#297);
#248=AXIS2_PLACEMENT_3D($,#360,#301,#302);
#249=AXIS2_PLACEMENT_3D($,#364,#305,#306);
#250=AXIS2_PLACEMENT_3D($,#368,#309,#310);
#251=AXIS2_PLACEMENT_3D($,#370,#312,#313);
#252=DIRECTION('axis',(0.,0.,1.));
#253=DIRECTION('refdir',(1.,0.,0.));
#254=DIRECTION('center_axis',(0.,-1.,0.));
#255=DIRECTION('ref_axis',(-1.,0.,0.));
#256=DIRECTION('center_axis',(0.,1.,0.));
#257=DIRECTION('ref_axis',(-1.,0.,0.));
#258=DIRECTION('center_axis',(0.,-1.,0.));
#259=DIRECTION('ref_axis',(-1.,0.,0.));
#260=DIRECTION('center_axis',(0.,-1.,0.));
#261=DIRECTION('ref_axis',(-1.,0.,0.));
#262=DIRECTION('center_axis',(0.,1.,0.));
#263=DIRECTION('ref_axis',(-1.,0.,0.));
#264=DIRECTION('center_axis',(0.,-1.,0.));
#265=DIRECTION('ref_axis',(-1.,0.,0.));
#266=DIRECTION('center_axis',(0.,-1.,0.));
#267=DIRECTION('ref_axis',(-1.,0.,0.));
#268=DIRECTION('center_axis',(0.,1.,0.));
#269=DIRECTION('ref_axis',(-1.,0.,0.));
#270=DIRECTION('center_axis',(0.,-1.,0.));
#271=DIRECTION('ref_axis',(-1.,0.,0.));
#272=DIRECTION('center_axis',(0.,-1.,0.));
#273=DIRECTION('ref_axis',(-1.,0.,0.));
#274=DIRECTION('center_axis',(0.,1.,0.));
#275=DIRECTION('ref_axis',(-1.,0.,0.));
#276=DIRECTION('center_axis',(0.,-1.,0.));
#277=DIRECTION('ref_axis',(-1.,0.,0.));
#278=DIRECTION('center_axis',(0.,-1.,0.));
#279=DIRECTION('ref_axis',(-1.,0.,0.));
#280=DIRECTION('center_axis',(0.,1.,0.));
#281=DIRECTION('ref_axis',(-1.,0.,0.));
#282=DIRECTION('center_axis',(0.,-1.,0.));
#283=DIRECTION('ref_axis',(-1.,0.,0.));
#284=DIRECTION('center_axis',(0.,-1.,0.));
#285=DIRECTION('ref_axis',(-1.,0.,0.));
#286=DIRECTION('center_axis',(0.,1.,0.));
#287=DIRECTION('ref_axis',(-1.,0.,0.));
#288=DIRECTION('center_axis',(0.,-1.,0.));
#289=DIRECTION('ref_axis',(-1.,0.,0.));
#290=DIRECTION('center_axis',(0.,0.,1.));
#291=DIRECTION('ref_axis',(1.,0.,0.));
#292=DIRECTION($,(0.,1.,0.));
#293=DIRECTION($,(-1.,0.,0.));
#294=DIRECTION($,(0.,-1.,0.));
#295=DIRECTION($,(1.,0.,0.));
#296=DIRECTION('center_axis',(1.,0.,0.));
#297=DIRECTION('ref_axis',(0.,0.,-1.));
#298=DIRECTION($,(0.,1.,0.));
#299=DIRECTION($,(0.,0.,-1.));
#300=DIRECTION($,(0.,0.,1.));
#301=DIRECTION('center_axis',(0.,1.,0.));
#302=DIRECTION('ref_axis',(0.,0.,1.));
#303=DIRECTION($,(-1.,0.,0.));
#304=DIRECTION($,(0.,0.,-1.));
#305=DIRECTION('center_axis',(-1.,0.,0.));
#306=DIRECTION('ref_axis',(0.,0.,1.));
#307=DIRECTION($,(0.,-1.,0.));
#308=DIRECTION($,(0.,0.,-1.));
#309=DIRECTION('center_axis',(0.,-1.,0.));
#310=DIRECTION('ref_axis',(0.,0.,-1.));
#311=DIRECTION($,(1.,0.,0.));
#312=DIRECTION('center_axis',(0.,0.,1.));
#313=DIRECTION('ref_axis',(1.,0.,0.));
#314=CARTESIAN_POINT('',(0.,0.,0.));
#315=CARTESIAN_POINT('Origin',(0.,0.065000000000001,12.625));
#316=CARTESIAN_POINT('',(0.25,-0.064999999999999,12.625));
#317=CARTESIAN_POINT('Origin',(0.,-0.064999999999999,12.625));
#318=CARTESIAN_POINT('',(0.25,0.065000000000001,12.625));
#319=CARTESIAN_POINT('Origin',(0.,0.065000000000001,12.625));
#320=CARTESIAN_POINT('Origin',(0.,0.065000000000001,-12.625));
#321=CARTESIAN_POINT('',(0.25,-0.064999999999999,-12.625));
#322=CARTESIAN_POINT('Origin',(0.,-0.064999999999999,-12.625));
#323=CARTESIAN_POINT('',(0.25,0.065000000000001,-12.625));
#324=CARTESIAN_POINT('Origin',(0.,0.065000000000001,-12.625));
#325=CARTESIAN_POINT('Origin',(-15.625,0.065000000000001,12.625));
#326=CARTESIAN_POINT('',(-15.375,-0.064999999999999,12.625));
#327=CARTESIAN_POINT('Origin',(-15.625,-0.064999999999999,12.625));
#328=CARTESIAN_POINT('',(-15.375,0.065000000000001,12.625));
#329=CARTESIAN_POINT('Origin',(-15.625,0.065000000000001,12.625));
#330=CARTESIAN_POINT('Origin',(15.625,0.065000000000001,12.625));
#331=CARTESIAN_POINT('',(15.875,-0.064999999999999,12.625));
#332=CARTESIAN_POINT('Origin',(15.625,-0.064999999999999,12.625));
#333=CARTESIAN_POINT('',(15.875,0.065000000000001,12.625));
#334=CARTESIAN_POINT('Origin',(15.625,0.065000000000001,12.625));
#335=CARTESIAN_POINT('Origin',(-15.625,0.065000000000001,-12.625));
#336=CARTESIAN_POINT('',(-15.375,-0.064999999999999,-12.625));
#337=CARTESIAN_POINT('Origin',(-15.625,-0.064999999999999,-12.625));
#338=CARTESIAN_POINT('',(-15.375,0.065000000000001,-12.625));
#339=CARTESIAN_POINT('Origin',(-15.625,0.065000000000001,-12.625));
#340=CARTESIAN_POINT('Origin',(15.625,0.065000000000001,-12.625));
#341=CARTESIAN_POINT('',(15.875,-0.064999999999999,-12.625));
#342=CARTESIAN_POINT('Origin',(15.625,-0.064999999999999,-12.625));
#343=CARTESIAN_POINT('',(15.875,0.065000000000001,-12.625));
#344=CARTESIAN_POINT('Origin',(15.625,0.065000000000001,-12.625));
#345=CARTESIAN_POINT('Origin',(0.,9.4158E-016,13.5));
#346=CARTESIAN_POINT('',(-16.5,-0.064999999999999,13.5));
#347=CARTESIAN_POINT('',(-16.5,0.065000000000001,13.5));
#348=CARTESIAN_POINT($,(-16.5,-0.064999999999999,13.5));
#349=CARTESIAN_POINT('',(16.5,-0.064999999999999,13.5));
#350=CARTESIAN_POINT($,(16.5,-0.064999999999999,13.5));
#351=CARTESIAN_POINT('',(16.5,0.065000000000001,13.5));
#352=CARTESIAN_POINT($,(16.5,0.065000000000001,13.5));
#353=CARTESIAN_POINT($,(-16.5,0.065000000000001,13.5));
#354=CARTESIAN_POINT('Origin',(16.5,-0.064999999999999,0.));
#355=CARTESIAN_POINT('',(16.5,-0.064999999999999,-13.5));
#356=CARTESIAN_POINT('',(16.5,0.065000000000001,-13.5));
#357=CARTESIAN_POINT($,(16.5,-0.064999999999999,-13.5));
#358=CARTESIAN_POINT($,(16.5,0.065000000000001,13.5));
#359=CARTESIAN_POINT($,(16.5,-0.064999999999999,-13.5));
#360=CARTESIAN_POINT('Origin',(16.5,0.065000000000001,0.));
#361=CARTESIAN_POINT('',(-16.5,0.065000000000001,-13.5));
#362=CARTESIAN_POINT($,(16.5,0.065000000000001,-13.5));
#363=CARTESIAN_POINT($,(-16.5,0.065000000000001,13.5));
#364=CARTESIAN_POINT('Origin',(-16.5,0.065000000000001,0.));
#365=CARTESIAN_POINT('',(-16.5,-0.064999999999999,-13.5));
#366=CARTESIAN_POINT($,(-16.5,0.065000000000001,-13.5));
#367=CARTESIAN_POINT($,(-16.5,-0.064999999999999,13.5));
#368=CARTESIAN_POINT('Origin',(-16.5,-0.064999999999999,0.));
#369=CARTESIAN_POINT($,(-16.5,-0.064999999999999,-13.5));
#370=CARTESIAN_POINT('Origin',(0.,9.415761E-016,-13.5));
#371=UNCERTAINTY_MEASURE_WITH_UNIT(LENGTH_MEASURE(0.000393700787401575),
#373,'DISTANCE_ACCURACY_VALUE',
'Maximum model space distance between geometric entities at asserted c
onnectivities');
#372=(
GEOMETRIC_REPRESENTATION_CONTEXT(3)
GLOBAL_UNCERTAINTY_ASSIGNED_CONTEXT((#371))
GLOBAL_UNIT_ASSIGNED_CONTEXT((#373,#379,#376))
REPRESENTATION_CONTEXT('','3D')
);
#373=(
CONVERSION_BASED_UNIT('__CONSTANT UNIT inch',#375)
LENGTH_UNIT()
NAMED_UNIT(#378)
);
#374=(
LENGTH_UNIT()
NAMED_UNIT(*)
SI_UNIT(.MILLI.,.METRE.)
);
#375=LENGTH_MEASURE_WITH_UNIT(LENGTH_MEASURE(25.4),#374);
#376=(
NAMED_UNIT(*)
SI_UNIT($,.STERADIAN.)
SOLID_ANGLE_UNIT()
);
#377=DIMENSIONAL_EXPONENTS(0.,0.,0.,0.,0.,0.,0.);
#378=DIMENSIONAL_EXPONENTS(1.,0.,0.,0.,0.,0.,0.);
#379=(
CONVERSION_BASED_UNIT('degree',#381)
NAMED_UNIT(#377)
PLANE_ANGLE_UNIT()
);
#380=(
NAMED_UNIT(*)
PLANE_ANGLE_UNIT()
SI_UNIT($,.RADIAN.)
);
#381=PLANE_ANGLE_MEASURE_WITH_UNIT(PLANE_ANGLE_MEASURE(0.01745329252),#380);
#382=SHAPE_DEFINITION_REPRESENTATION(#383,#384);
#383=PRODUCT_DEFINITION_SHAPE('',$,#386);
#384=SHAPE_REPRESENTATION('',(#227),#372);
#385=PRODUCT_DEFINITION_CONTEXT('3D Mechanical Parts',#389,'design');
#386=PRODUCT_DEFINITION('BP3630AL_STP','BP3630AL_STP',#387,#385);
#387=PRODUCT_DEFINITION_FORMATION('',$,#391);
#388=APPLICATION_PROTOCOL_DEFINITION('international standard',
'automotive_design',2009,#389);
#389=APPLICATION_CONTEXT(
'Core Data for Automotive Mechanical Design Process');
#390=PRODUCT_CONTEXT('3D Mechanical Parts',#389,'mechanical');
#391=PRODUCT('BP3630AL_STP','BP3630AL_STP',$,(#390));
#392=PRESENTATION_STYLE_ASSIGNMENT((#394));
#393=PRESENTATION_STYLE_ASSIGNMENT((#395));
#394=SURFACE_STYLE_USAGE(.BOTH.,#396);
#395=SURFACE_STYLE_USAGE(.BOTH.,#397);
#396=SURFACE_SIDE_STYLE($,(#398));
#397=SURFACE_SIDE_STYLE($,(#399));
#398=SURFACE_STYLE_FILL_AREA(#400);
#399=SURFACE_STYLE_FILL_AREA(#401);
#400=FILL_AREA_STYLE($,(#402));
#401=FILL_AREA_STYLE($,(#403));
#402=FILL_AREA_STYLE_COLOUR($,#404);
#403=FILL_AREA_STYLE_COLOUR($,#405);
#404=COLOUR_RGB('',0.749019607843137,0.749019607843137,0.749019607843137);
#405=COLOUR_RGB('',0.847058823529412,0.83921568627451,0.83921568627451);
ENDSEC;
END-ISO-10303-21;
