ISO-10303-21;
HEADER;
/* Generated by software containing ST-Developer
 * from STEP Tools, Inc. (www.steptools.com) 
 */

FILE_DESCRIPTION(
/* description */ (''),
/* implementation_level */ '2;1');

FILE_NAME(
/* name */ 'G:\\INVENTOR\\WEBSITE SOLIDS\\STP FILES\\CBKT-7.stp',
/* time_stamp */ '2015-08-19T10:29:02-04:00',
/* author */ ('eanderson'),
/* organization */ (''),
/* preprocessor_version */ 'ST-DEVELOPER v15.2',
/* originating_system */ 'Autodesk Inventor 2014',
/* authorisation */ '');

FILE_SCHEMA (('AUTOMOTIVE_DESIGN { 1 0 10303 214 3 1 1 }'));
ENDSEC;

DATA;
#10=SHAPE_REPRESENTATION_RELATIONSHIP('SRR','None',#694,#11);
#11=ADVANCED_BREP_SHAPE_REPRESENTATION($,(#402),#682);
#12=STYLED_ITEM($,(#702),#402);
#13=FACE_BOUND($,#61,.T.);
#14=FACE_BOUND($,#62,.T.);
#15=FACE_BOUND($,#63,.T.);
#16=FACE_BOUND($,#72,.T.);
#17=FACE_BOUND($,#73,.T.);
#18=FACE_BOUND($,#76,.T.);
#19=FACE_BOUND($,#78,.T.);
#20=FACE_BOUND($,#80,.T.);
#21=FACE_BOUND($,#83,.T.);
#22=FACE_BOUND($,#85,.T.);
#23=FACE_BOUND($,#87,.T.);
#24=FACE_BOUND($,#88,.T.);
#25=FACE_BOUND($,#89,.T.);
#26=FACE_BOUND($,#92,.T.);
#27=FACE_BOUND($,#93,.T.);
#28=PLANE($,#410);
#29=PLANE($,#419);
#30=PLANE($,#422);
#31=PLANE($,#425);
#32=PLANE($,#429);
#33=PLANE($,#441);
#34=PLANE($,#446);
#35=PLANE($,#447);
#36=PLANE($,#448);
#37=FACE_OUTER_BOUND($,#58,.T.);
#38=FACE_OUTER_BOUND($,#59,.T.);
#39=FACE_OUTER_BOUND($,#60,.T.);
#40=FACE_OUTER_BOUND($,#64,.T.);
#41=FACE_OUTER_BOUND($,#65,.T.);
#42=FACE_OUTER_BOUND($,#66,.T.);
#43=FACE_OUTER_BOUND($,#67,.T.);
#44=FACE_OUTER_BOUND($,#68,.T.);
#45=FACE_OUTER_BOUND($,#69,.T.);
#46=FACE_OUTER_BOUND($,#70,.T.);
#47=FACE_OUTER_BOUND($,#71,.T.);
#48=FACE_OUTER_BOUND($,#74,.T.);
#49=FACE_OUTER_BOUND($,#75,.T.);
#50=FACE_OUTER_BOUND($,#77,.T.);
#51=FACE_OUTER_BOUND($,#79,.T.);
#52=FACE_OUTER_BOUND($,#81,.T.);
#53=FACE_OUTER_BOUND($,#82,.T.);
#54=FACE_OUTER_BOUND($,#84,.T.);
#55=FACE_OUTER_BOUND($,#86,.T.);
#56=FACE_OUTER_BOUND($,#90,.T.);
#57=FACE_OUTER_BOUND($,#91,.T.);
#58=EDGE_LOOP($,(#264,#265,#266,#267));
#59=EDGE_LOOP($,(#268,#269,#270,#271));
#60=EDGE_LOOP($,(#272,#273,#274,#275,#276,#277,#278,#279,#280,#281));
#61=EDGE_LOOP($,(#282));
#62=EDGE_LOOP($,(#283));
#63=EDGE_LOOP($,(#284));
#64=EDGE_LOOP($,(#285,#286,#287,#288));
#65=EDGE_LOOP($,(#289,#290,#291,#292));
#66=EDGE_LOOP($,(#293,#294,#295,#296));
#67=EDGE_LOOP($,(#297,#298,#299,#300,#301,#302));
#68=EDGE_LOOP($,(#303,#304,#305,#306));
#69=EDGE_LOOP($,(#307,#308,#309,#310,#311,#312));
#70=EDGE_LOOP($,(#313,#314,#315,#316));
#71=EDGE_LOOP($,(#317,#318,#319,#320,#321,#322));
#72=EDGE_LOOP($,(#323));
#73=EDGE_LOOP($,(#324));
#74=EDGE_LOOP($,(#325,#326,#327,#328));
#75=EDGE_LOOP($,(#329));
#76=EDGE_LOOP($,(#330));
#77=EDGE_LOOP($,(#331));
#78=EDGE_LOOP($,(#332));
#79=EDGE_LOOP($,(#333));
#80=EDGE_LOOP($,(#334));
#81=EDGE_LOOP($,(#335,#336,#337,#338));
#82=EDGE_LOOP($,(#339));
#83=EDGE_LOOP($,(#340));
#84=EDGE_LOOP($,(#341));
#85=EDGE_LOOP($,(#342));
#86=EDGE_LOOP($,(#343,#344,#345,#346,#347,#348,#349,#350,#351,#352));
#87=EDGE_LOOP($,(#353));
#88=EDGE_LOOP($,(#354));
#89=EDGE_LOOP($,(#355));
#90=EDGE_LOOP($,(#356,#357,#358,#359));
#91=EDGE_LOOP($,(#360,#361,#362,#363,#364,#365));
#92=EDGE_LOOP($,(#366));
#93=EDGE_LOOP($,(#367));
#94=LINE($,#575,#122);
#95=LINE($,#578,#123);
#96=LINE($,#583,#124);
#97=LINE($,#587,#125);
#98=LINE($,#591,#126);
#99=LINE($,#593,#127);
#100=LINE($,#595,#128);
#101=LINE($,#599,#129);
#102=LINE($,#609,#130);
#103=LINE($,#613,#131);
#104=LINE($,#614,#132);
#105=LINE($,#617,#133);
#106=LINE($,#621,#134);
#107=LINE($,#623,#135);
#108=LINE($,#625,#136);
#109=LINE($,#626,#137);
#110=LINE($,#629,#138);
#111=LINE($,#632,#139);
#112=LINE($,#635,#140);
#113=LINE($,#637,#141);
#114=LINE($,#639,#142);
#115=LINE($,#640,#143);
#116=LINE($,#645,#144);
#117=LINE($,#649,#145);
#118=LINE($,#651,#146);
#119=LINE($,#659,#147);
#120=LINE($,#670,#148);
#121=LINE($,#679,#149);
#122=VECTOR($,#455,0.06);
#123=VECTOR($,#458,0.06);
#124=VECTOR($,#463,0.06);
#125=VECTOR($,#468,0.221214308031066);
#126=VECTOR($,#471,1.065);
#127=VECTOR($,#472,3.);
#128=VECTOR($,#473,1.065);
#129=VECTOR($,#476,0.221214308031065);
#130=VECTOR($,#487,0.06);
#131=VECTOR($,#492,0.06);
#132=VECTOR($,#493,0.221214308031065);
#133=VECTOR($,#496,0.06);
#134=VECTOR($,#501,0.815);
#135=VECTOR($,#502,0.06);
#136=VECTOR($,#503,0.875);
#137=VECTOR($,#504,1.125);
#138=VECTOR($,#507,0.06);
#139=VECTOR($,#510,0.06);
#140=VECTOR($,#513,1.125);
#141=VECTOR($,#514,0.875);
#142=VECTOR($,#515,0.06);
#143=VECTOR($,#516,0.815);
#144=VECTOR($,#521,0.06);
#145=VECTOR($,#526,2.5);
#146=VECTOR($,#529,3.);
#147=VECTOR($,#538,0.06);
#148=VECTOR($,#553,0.221214308031066);
#149=VECTOR($,#566,2.5);
#150=CIRCLE($,#405,0.25);
#151=CIRCLE($,#406,0.25);
#152=CIRCLE($,#408,1.);
#153=CIRCLE($,#409,1.);
#154=CIRCLE($,#411,0.25);
#155=CIRCLE($,#412,0.25);
#156=CIRCLE($,#413,0.25);
#157=CIRCLE($,#414,0.136);
#158=CIRCLE($,#415,0.136);
#159=CIRCLE($,#416,0.136);
#160=CIRCLE($,#418,0.25);
#161=CIRCLE($,#421,0.25);
#162=CIRCLE($,#424,0.25);
#163=CIRCLE($,#427,0.25);
#164=CIRCLE($,#428,0.25);
#165=CIRCLE($,#430,0.25);
#166=CIRCLE($,#431,0.1715);
#167=CIRCLE($,#432,0.1715);
#168=CIRCLE($,#434,0.25);
#169=CIRCLE($,#436,0.136);
#170=CIRCLE($,#438,0.136);
#171=CIRCLE($,#440,0.136);
#172=CIRCLE($,#443,0.1715);
#173=CIRCLE($,#445,0.1715);
#174=VERTEX_POINT($,#571);
#175=VERTEX_POINT($,#572);
#176=VERTEX_POINT($,#574);
#177=VERTEX_POINT($,#576);
#178=VERTEX_POINT($,#580);
#179=VERTEX_POINT($,#582);
#180=VERTEX_POINT($,#586);
#181=VERTEX_POINT($,#588);
#182=VERTEX_POINT($,#590);
#183=VERTEX_POINT($,#592);
#184=VERTEX_POINT($,#594);
#185=VERTEX_POINT($,#596);
#186=VERTEX_POINT($,#598);
#187=VERTEX_POINT($,#601);
#188=VERTEX_POINT($,#603);
#189=VERTEX_POINT($,#605);
#190=VERTEX_POINT($,#608);
#191=VERTEX_POINT($,#612);
#192=VERTEX_POINT($,#616);
#193=VERTEX_POINT($,#620);
#194=VERTEX_POINT($,#622);
#195=VERTEX_POINT($,#624);
#196=VERTEX_POINT($,#628);
#197=VERTEX_POINT($,#630);
#198=VERTEX_POINT($,#634);
#199=VERTEX_POINT($,#636);
#200=VERTEX_POINT($,#638);
#201=VERTEX_POINT($,#642);
#202=VERTEX_POINT($,#644);
#203=VERTEX_POINT($,#648);
#204=VERTEX_POINT($,#652);
#205=VERTEX_POINT($,#654);
#206=VERTEX_POINT($,#657);
#207=VERTEX_POINT($,#661);
#208=VERTEX_POINT($,#664);
#209=VERTEX_POINT($,#667);
#210=VERTEX_POINT($,#672);
#211=VERTEX_POINT($,#675);
#212=EDGE_CURVE($,#174,#175,#150,.T.);
#213=EDGE_CURVE($,#175,#176,#94,.T.);
#214=EDGE_CURVE($,#176,#177,#151,.T.);
#215=EDGE_CURVE($,#177,#174,#95,.T.);
#216=EDGE_CURVE($,#178,#175,#152,.T.);
#217=EDGE_CURVE($,#179,#178,#96,.T.);
#218=EDGE_CURVE($,#176,#179,#153,.T.);
#219=EDGE_CURVE($,#174,#180,#97,.T.);
#220=EDGE_CURVE($,#181,#180,#154,.T.);
#221=EDGE_CURVE($,#181,#182,#98,.T.);
#222=EDGE_CURVE($,#183,#182,#99,.T.);
#223=EDGE_CURVE($,#183,#184,#100,.T.);
#224=EDGE_CURVE($,#185,#184,#155,.T.);
#225=EDGE_CURVE($,#185,#186,#101,.T.);
#226=EDGE_CURVE($,#178,#186,#156,.T.);
#227=EDGE_CURVE($,#187,#187,#157,.T.);
#228=EDGE_CURVE($,#188,#188,#158,.T.);
#229=EDGE_CURVE($,#189,#189,#159,.T.);
#230=EDGE_CURVE($,#186,#190,#102,.T.);
#231=EDGE_CURVE($,#190,#179,#160,.T.);
#232=EDGE_CURVE($,#191,#185,#103,.T.);
#233=EDGE_CURVE($,#190,#191,#104,.T.);
#234=EDGE_CURVE($,#184,#192,#105,.T.);
#235=EDGE_CURVE($,#192,#191,#161,.T.);
#236=EDGE_CURVE($,#193,#183,#106,.T.);
#237=EDGE_CURVE($,#194,#193,#107,.T.);
#238=EDGE_CURVE($,#194,#195,#108,.T.);
#239=EDGE_CURVE($,#195,#192,#109,.T.);
#240=EDGE_CURVE($,#180,#196,#110,.T.);
#241=EDGE_CURVE($,#196,#197,#162,.T.);
#242=EDGE_CURVE($,#197,#181,#111,.T.);
#243=EDGE_CURVE($,#198,#197,#112,.T.);
#244=EDGE_CURVE($,#198,#199,#113,.T.);
#245=EDGE_CURVE($,#200,#199,#114,.T.);
#246=EDGE_CURVE($,#182,#200,#115,.T.);
#247=EDGE_CURVE($,#193,#201,#163,.T.);
#248=EDGE_CURVE($,#201,#202,#116,.T.);
#249=EDGE_CURVE($,#202,#194,#164,.T.);
#250=EDGE_CURVE($,#203,#202,#117,.T.);
#251=EDGE_CURVE($,#199,#203,#165,.T.);
#252=EDGE_CURVE($,#195,#198,#118,.T.);
#253=EDGE_CURVE($,#204,#204,#166,.T.);
#254=EDGE_CURVE($,#205,#205,#167,.T.);
#255=EDGE_CURVE($,#206,#200,#168,.T.);
#256=EDGE_CURVE($,#203,#206,#119,.T.);
#257=EDGE_CURVE($,#207,#207,#169,.T.);
#258=EDGE_CURVE($,#208,#208,#170,.T.);
#259=EDGE_CURVE($,#209,#209,#171,.T.);
#260=EDGE_CURVE($,#196,#177,#120,.T.);
#261=EDGE_CURVE($,#210,#210,#172,.T.);
#262=EDGE_CURVE($,#211,#211,#173,.T.);
#263=EDGE_CURVE($,#206,#201,#121,.T.);
#264=ORIENTED_EDGE($,*,*,#212,.T.);
#265=ORIENTED_EDGE($,*,*,#213,.T.);
#266=ORIENTED_EDGE($,*,*,#214,.T.);
#267=ORIENTED_EDGE($,*,*,#215,.T.);
#268=ORIENTED_EDGE($,*,*,#213,.F.);
#269=ORIENTED_EDGE($,*,*,#216,.F.);
#270=ORIENTED_EDGE($,*,*,#217,.F.);
#271=ORIENTED_EDGE($,*,*,#218,.F.);
#272=ORIENTED_EDGE($,*,*,#212,.F.);
#273=ORIENTED_EDGE($,*,*,#219,.T.);
#274=ORIENTED_EDGE($,*,*,#220,.F.);
#275=ORIENTED_EDGE($,*,*,#221,.T.);
#276=ORIENTED_EDGE($,*,*,#222,.F.);
#277=ORIENTED_EDGE($,*,*,#223,.T.);
#278=ORIENTED_EDGE($,*,*,#224,.F.);
#279=ORIENTED_EDGE($,*,*,#225,.T.);
#280=ORIENTED_EDGE($,*,*,#226,.F.);
#281=ORIENTED_EDGE($,*,*,#216,.T.);
#282=ORIENTED_EDGE($,*,*,#227,.T.);
#283=ORIENTED_EDGE($,*,*,#228,.T.);
#284=ORIENTED_EDGE($,*,*,#229,.T.);
#285=ORIENTED_EDGE($,*,*,#226,.T.);
#286=ORIENTED_EDGE($,*,*,#230,.T.);
#287=ORIENTED_EDGE($,*,*,#231,.T.);
#288=ORIENTED_EDGE($,*,*,#217,.T.);
#289=ORIENTED_EDGE($,*,*,#230,.F.);
#290=ORIENTED_EDGE($,*,*,#225,.F.);
#291=ORIENTED_EDGE($,*,*,#232,.F.);
#292=ORIENTED_EDGE($,*,*,#233,.F.);
#293=ORIENTED_EDGE($,*,*,#224,.T.);
#294=ORIENTED_EDGE($,*,*,#234,.T.);
#295=ORIENTED_EDGE($,*,*,#235,.T.);
#296=ORIENTED_EDGE($,*,*,#232,.T.);
#297=ORIENTED_EDGE($,*,*,#234,.F.);
#298=ORIENTED_EDGE($,*,*,#223,.F.);
#299=ORIENTED_EDGE($,*,*,#236,.F.);
#300=ORIENTED_EDGE($,*,*,#237,.F.);
#301=ORIENTED_EDGE($,*,*,#238,.T.);
#302=ORIENTED_EDGE($,*,*,#239,.T.);
#303=ORIENTED_EDGE($,*,*,#220,.T.);
#304=ORIENTED_EDGE($,*,*,#240,.T.);
#305=ORIENTED_EDGE($,*,*,#241,.T.);
#306=ORIENTED_EDGE($,*,*,#242,.T.);
#307=ORIENTED_EDGE($,*,*,#242,.F.);
#308=ORIENTED_EDGE($,*,*,#243,.F.);
#309=ORIENTED_EDGE($,*,*,#244,.T.);
#310=ORIENTED_EDGE($,*,*,#245,.F.);
#311=ORIENTED_EDGE($,*,*,#246,.F.);
#312=ORIENTED_EDGE($,*,*,#221,.F.);
#313=ORIENTED_EDGE($,*,*,#247,.T.);
#314=ORIENTED_EDGE($,*,*,#248,.T.);
#315=ORIENTED_EDGE($,*,*,#249,.T.);
#316=ORIENTED_EDGE($,*,*,#237,.T.);
#317=ORIENTED_EDGE($,*,*,#249,.F.);
#318=ORIENTED_EDGE($,*,*,#250,.F.);
#319=ORIENTED_EDGE($,*,*,#251,.F.);
#320=ORIENTED_EDGE($,*,*,#244,.F.);
#321=ORIENTED_EDGE($,*,*,#252,.F.);
#322=ORIENTED_EDGE($,*,*,#238,.F.);
#323=ORIENTED_EDGE($,*,*,#253,.T.);
#324=ORIENTED_EDGE($,*,*,#254,.T.);
#325=ORIENTED_EDGE($,*,*,#255,.T.);
#326=ORIENTED_EDGE($,*,*,#245,.T.);
#327=ORIENTED_EDGE($,*,*,#251,.T.);
#328=ORIENTED_EDGE($,*,*,#256,.T.);
#329=ORIENTED_EDGE($,*,*,#229,.F.);
#330=ORIENTED_EDGE($,*,*,#257,.F.);
#331=ORIENTED_EDGE($,*,*,#228,.F.);
#332=ORIENTED_EDGE($,*,*,#258,.F.);
#333=ORIENTED_EDGE($,*,*,#227,.F.);
#334=ORIENTED_EDGE($,*,*,#259,.F.);
#335=ORIENTED_EDGE($,*,*,#215,.F.);
#336=ORIENTED_EDGE($,*,*,#260,.F.);
#337=ORIENTED_EDGE($,*,*,#240,.F.);
#338=ORIENTED_EDGE($,*,*,#219,.F.);
#339=ORIENTED_EDGE($,*,*,#261,.F.);
#340=ORIENTED_EDGE($,*,*,#254,.F.);
#341=ORIENTED_EDGE($,*,*,#262,.F.);
#342=ORIENTED_EDGE($,*,*,#253,.F.);
#343=ORIENTED_EDGE($,*,*,#214,.F.);
#344=ORIENTED_EDGE($,*,*,#218,.T.);
#345=ORIENTED_EDGE($,*,*,#231,.F.);
#346=ORIENTED_EDGE($,*,*,#233,.T.);
#347=ORIENTED_EDGE($,*,*,#235,.F.);
#348=ORIENTED_EDGE($,*,*,#239,.F.);
#349=ORIENTED_EDGE($,*,*,#252,.T.);
#350=ORIENTED_EDGE($,*,*,#243,.T.);
#351=ORIENTED_EDGE($,*,*,#241,.F.);
#352=ORIENTED_EDGE($,*,*,#260,.T.);
#353=ORIENTED_EDGE($,*,*,#259,.T.);
#354=ORIENTED_EDGE($,*,*,#258,.T.);
#355=ORIENTED_EDGE($,*,*,#257,.T.);
#356=ORIENTED_EDGE($,*,*,#248,.F.);
#357=ORIENTED_EDGE($,*,*,#263,.F.);
#358=ORIENTED_EDGE($,*,*,#256,.F.);
#359=ORIENTED_EDGE($,*,*,#250,.T.);
#360=ORIENTED_EDGE($,*,*,#247,.F.);
#361=ORIENTED_EDGE($,*,*,#236,.T.);
#362=ORIENTED_EDGE($,*,*,#222,.T.);
#363=ORIENTED_EDGE($,*,*,#246,.T.);
#364=ORIENTED_EDGE($,*,*,#255,.F.);
#365=ORIENTED_EDGE($,*,*,#263,.T.);
#366=ORIENTED_EDGE($,*,*,#261,.T.);
#367=ORIENTED_EDGE($,*,*,#262,.T.);
#368=CYLINDRICAL_SURFACE($,#404,0.25);
#369=CYLINDRICAL_SURFACE($,#407,1.);
#370=CYLINDRICAL_SURFACE($,#417,0.25);
#371=CYLINDRICAL_SURFACE($,#420,0.25);
#372=CYLINDRICAL_SURFACE($,#423,0.25);
#373=CYLINDRICAL_SURFACE($,#426,0.25);
#374=CYLINDRICAL_SURFACE($,#433,0.25);
#375=CYLINDRICAL_SURFACE($,#435,0.136);
#376=CYLINDRICAL_SURFACE($,#437,0.136);
#377=CYLINDRICAL_SURFACE($,#439,0.136);
#378=CYLINDRICAL_SURFACE($,#442,0.1715);
#379=CYLINDRICAL_SURFACE($,#444,0.1715);
#380=ADVANCED_FACE($,(#37),#368,.T.);
#381=ADVANCED_FACE($,(#38),#369,.F.);
#382=ADVANCED_FACE($,(#39,#13,#14,#15),#28,.T.);
#383=ADVANCED_FACE($,(#40),#370,.T.);
#384=ADVANCED_FACE($,(#41),#29,.T.);
#385=ADVANCED_FACE($,(#42),#371,.T.);
#386=ADVANCED_FACE($,(#43),#30,.T.);
#387=ADVANCED_FACE($,(#44),#372,.T.);
#388=ADVANCED_FACE($,(#45),#31,.T.);
#389=ADVANCED_FACE($,(#46),#373,.T.);
#390=ADVANCED_FACE($,(#47,#16,#17),#32,.F.);
#391=ADVANCED_FACE($,(#48),#374,.T.);
#392=ADVANCED_FACE($,(#49,#18),#375,.F.);
#393=ADVANCED_FACE($,(#50,#19),#376,.F.);
#394=ADVANCED_FACE($,(#51,#20),#377,.F.);
#395=ADVANCED_FACE($,(#52),#33,.T.);
#396=ADVANCED_FACE($,(#53,#21),#378,.F.);
#397=ADVANCED_FACE($,(#54,#22),#379,.F.);
#398=ADVANCED_FACE($,(#55,#23,#24,#25),#34,.T.);
#399=ADVANCED_FACE($,(#56),#35,.T.);
#400=ADVANCED_FACE($,(#57,#26,#27),#36,.T.);
#401=CLOSED_SHELL($,(#380,#381,#382,#383,#384,#385,#386,#387,#388,#389,
#390,#391,#392,#393,#394,#395,#396,#397,#398,#399,#400));
#402=MANIFOLD_SOLID_BREP('Solid1',#401);
#403=AXIS2_PLACEMENT_3D('placement',#569,#449,#450);
#404=AXIS2_PLACEMENT_3D($,#570,#451,#452);
#405=AXIS2_PLACEMENT_3D($,#573,#453,#454);
#406=AXIS2_PLACEMENT_3D($,#577,#456,#457);
#407=AXIS2_PLACEMENT_3D($,#579,#459,#460);
#408=AXIS2_PLACEMENT_3D($,#581,#461,#462);
#409=AXIS2_PLACEMENT_3D($,#584,#464,#465);
#410=AXIS2_PLACEMENT_3D($,#585,#466,#467);
#411=AXIS2_PLACEMENT_3D($,#589,#469,#470);
#412=AXIS2_PLACEMENT_3D($,#597,#474,#475);
#413=AXIS2_PLACEMENT_3D($,#600,#477,#478);
#414=AXIS2_PLACEMENT_3D($,#602,#479,#480);
#415=AXIS2_PLACEMENT_3D($,#604,#481,#482);
#416=AXIS2_PLACEMENT_3D($,#606,#483,#484);
#417=AXIS2_PLACEMENT_3D($,#607,#485,#486);
#418=AXIS2_PLACEMENT_3D($,#610,#488,#489);
#419=AXIS2_PLACEMENT_3D($,#611,#490,#491);
#420=AXIS2_PLACEMENT_3D($,#615,#494,#495);
#421=AXIS2_PLACEMENT_3D($,#618,#497,#498);
#422=AXIS2_PLACEMENT_3D($,#619,#499,#500);
#423=AXIS2_PLACEMENT_3D($,#627,#505,#506);
#424=AXIS2_PLACEMENT_3D($,#631,#508,#509);
#425=AXIS2_PLACEMENT_3D($,#633,#511,#512);
#426=AXIS2_PLACEMENT_3D($,#641,#517,#518);
#427=AXIS2_PLACEMENT_3D($,#643,#519,#520);
#428=AXIS2_PLACEMENT_3D($,#646,#522,#523);
#429=AXIS2_PLACEMENT_3D($,#647,#524,#525);
#430=AXIS2_PLACEMENT_3D($,#650,#527,#528);
#431=AXIS2_PLACEMENT_3D($,#653,#530,#531);
#432=AXIS2_PLACEMENT_3D($,#655,#532,#533);
#433=AXIS2_PLACEMENT_3D($,#656,#534,#535);
#434=AXIS2_PLACEMENT_3D($,#658,#536,#537);
#435=AXIS2_PLACEMENT_3D($,#660,#539,#540);
#436=AXIS2_PLACEMENT_3D($,#662,#541,#542);
#437=AXIS2_PLACEMENT_3D($,#663,#543,#544);
#438=AXIS2_PLACEMENT_3D($,#665,#545,#546);
#439=AXIS2_PLACEMENT_3D($,#666,#547,#548);
#440=AXIS2_PLACEMENT_3D($,#668,#549,#550);
#441=AXIS2_PLACEMENT_3D($,#669,#551,#552);
#442=AXIS2_PLACEMENT_3D($,#671,#554,#555);
#443=AXIS2_PLACEMENT_3D($,#673,#556,#557);
#444=AXIS2_PLACEMENT_3D($,#674,#558,#559);
#445=AXIS2_PLACEMENT_3D($,#676,#560,#561);
#446=AXIS2_PLACEMENT_3D($,#677,#562,#563);
#447=AXIS2_PLACEMENT_3D($,#678,#564,#565);
#448=AXIS2_PLACEMENT_3D($,#680,#567,#568);
#449=DIRECTION('axis',(0.,0.,1.));
#450=DIRECTION('refdir',(1.,0.,0.));
#451=DIRECTION('center_axis',(0.,1.,0.));
#452=DIRECTION('ref_axis',(-0.464758001544889,0.,0.885437744847147));
#453=DIRECTION('center_axis',(0.,-1.,0.));
#454=DIRECTION('ref_axis',(-0.464758001544889,0.,0.885437744847147));
#455=DIRECTION($,(0.,-1.,0.));
#456=DIRECTION('center_axis',(0.,1.,0.));
#457=DIRECTION('ref_axis',(-0.464758001544889,0.,0.885437744847147));
#458=DIRECTION($,(0.,1.,0.));
#459=DIRECTION('center_axis',(0.,1.,0.));
#460=DIRECTION('ref_axis',(0.887918915216925,0.,-0.46));
#461=DIRECTION('center_axis',(0.,-1.,0.));
#462=DIRECTION('ref_axis',(0.887918915216925,0.,-0.46));
#463=DIRECTION($,(0.,1.,0.));
#464=DIRECTION('center_axis',(0.,1.,0.));
#465=DIRECTION('ref_axis',(0.887918915216925,0.,-0.46));
#466=DIRECTION('center_axis',(0.,1.,0.));
#467=DIRECTION('ref_axis',(0.,0.,1.));
#468=DIRECTION($,(1.,0.,0.));
#469=DIRECTION('center_axis',(0.,-1.,0.));
#470=DIRECTION('ref_axis',(0.707106781186548,3.29678206547774E-016,0.707106781186548));
#471=DIRECTION($,(1.27155106614191E-016,0.,-1.));
#472=DIRECTION($,(1.,0.,0.));
#473=DIRECTION($,(0.,0.,1.));
#474=DIRECTION('center_axis',(0.,-1.,0.));
#475=DIRECTION('ref_axis',(-0.707106781186548,0.,0.707106781186548));
#476=DIRECTION($,(1.,0.,0.));
#477=DIRECTION('center_axis',(0.,-1.,0.));
#478=DIRECTION('ref_axis',(0.464758001544889,0.,0.885437744847147));
#479=DIRECTION('center_axis',(0.,-1.,0.));
#480=DIRECTION('ref_axis',(1.,0.,0.));
#481=DIRECTION('center_axis',(0.,-1.,0.));
#482=DIRECTION('ref_axis',(1.,0.,0.));
#483=DIRECTION('center_axis',(0.,-1.,0.));
#484=DIRECTION('ref_axis',(1.,0.,0.));
#485=DIRECTION('center_axis',(0.,1.,0.));
#486=DIRECTION('ref_axis',(0.464758001544889,0.,0.885437744847147));
#487=DIRECTION($,(0.,-1.,0.));
#488=DIRECTION('center_axis',(0.,1.,0.));
#489=DIRECTION('ref_axis',(0.464758001544889,0.,0.885437744847147));
#490=DIRECTION('center_axis',(0.,0.,1.));
#491=DIRECTION('ref_axis',(1.,0.,0.));
#492=DIRECTION($,(-1.554117969729E-016,1.,0.));
#493=DIRECTION($,(-1.,0.,0.));
#494=DIRECTION('center_axis',(-1.554117969729E-016,1.,0.));
#495=DIRECTION('ref_axis',(-0.707106781186548,0.,0.707106781186548));
#496=DIRECTION($,(1.554117969729E-016,-1.,0.));
#497=DIRECTION('center_axis',(0.,1.,0.));
#498=DIRECTION('ref_axis',(-0.707106781186548,0.,0.707106781186548));
#499=DIRECTION('center_axis',(-1.,-1.554117969729E-016,0.));
#500=DIRECTION('ref_axis',(0.,-1.,0.));
#501=DIRECTION($,(1.554117969729E-016,-1.,0.));
#502=DIRECTION($,(0.,0.,1.));
#503=DIRECTION($,(1.554117969729E-016,-1.,0.));
#504=DIRECTION($,(0.,0.,1.));
#505=DIRECTION('center_axis',(-4.66235390918701E-016,1.,0.));
#506=DIRECTION('ref_axis',(0.707106781186548,3.29678206547774E-016,0.707106781186548));
#507=DIRECTION($,(4.66235390918701E-016,-1.,0.));
#508=DIRECTION('center_axis',(0.,1.,0.));
#509=DIRECTION('ref_axis',(0.707106781186548,3.29678206547774E-016,0.707106781186548));
#510=DIRECTION($,(-4.66235390918701E-016,1.,0.));
#511=DIRECTION('center_axis',(1.,4.66235390918701E-016,0.));
#512=DIRECTION('ref_axis',(-5.6399329650958E-016,1.,0.));
#513=DIRECTION($,(0.,0.,1.));
#514=DIRECTION($,(-4.66235390918701E-016,1.,0.));
#515=DIRECTION($,(0.,0.,-1.));
#516=DIRECTION($,(-4.66235390918701E-016,1.,0.));
#517=DIRECTION('center_axis',(0.,0.,1.));
#518=DIRECTION('ref_axis',(-0.707106781186548,0.707106781186548,0.));
#519=DIRECTION('center_axis',(0.,0.,-1.));
#520=DIRECTION('ref_axis',(-0.707106781186548,0.707106781186548,0.));
#521=DIRECTION($,(0.,0.,-1.));
#522=DIRECTION('center_axis',(0.,0.,1.));
#523=DIRECTION('ref_axis',(-0.707106781186548,0.707106781186548,0.));
#524=DIRECTION('center_axis',(0.,0.,1.));
#525=DIRECTION('ref_axis',(1.,0.,0.));
#526=DIRECTION($,(-1.,0.,0.));
#527=DIRECTION('center_axis',(0.,0.,1.));
#528=DIRECTION('ref_axis',(0.707106781186548,0.707106781186548,0.));
#529=DIRECTION($,(1.,0.,0.));
#530=DIRECTION('center_axis',(0.,0.,1.));
#531=DIRECTION('ref_axis',(-1.,0.,0.));
#532=DIRECTION('center_axis',(0.,0.,1.));
#533=DIRECTION('ref_axis',(-1.,0.,0.));
#534=DIRECTION('center_axis',(0.,0.,1.));
#535=DIRECTION('ref_axis',(0.707106781186548,0.707106781186548,0.));
#536=DIRECTION('center_axis',(0.,0.,-1.));
#537=DIRECTION('ref_axis',(0.707106781186548,0.707106781186548,0.));
#538=DIRECTION($,(0.,0.,1.));
#539=DIRECTION('center_axis',(0.,1.,0.));
#540=DIRECTION('ref_axis',(1.,0.,0.));
#541=DIRECTION('center_axis',(0.,1.,0.));
#542=DIRECTION('ref_axis',(1.,0.,0.));
#543=DIRECTION('center_axis',(0.,1.,0.));
#544=DIRECTION('ref_axis',(1.,0.,0.));
#545=DIRECTION('center_axis',(0.,1.,0.));
#546=DIRECTION('ref_axis',(1.,0.,0.));
#547=DIRECTION('center_axis',(0.,1.,0.));
#548=DIRECTION('ref_axis',(1.,0.,0.));
#549=DIRECTION('center_axis',(0.,1.,0.));
#550=DIRECTION('ref_axis',(1.,0.,0.));
#551=DIRECTION('center_axis',(0.,0.,1.));
#552=DIRECTION('ref_axis',(1.,0.,0.));
#553=DIRECTION($,(-1.,0.,0.));
#554=DIRECTION('center_axis',(0.,0.,1.));
#555=DIRECTION('ref_axis',(-1.,0.,0.));
#556=DIRECTION('center_axis',(0.,0.,-1.));
#557=DIRECTION('ref_axis',(-1.,0.,0.));
#558=DIRECTION('center_axis',(0.,0.,1.));
#559=DIRECTION('ref_axis',(-1.,0.,0.));
#560=DIRECTION('center_axis',(0.,0.,-1.));
#561=DIRECTION('ref_axis',(-1.,0.,0.));
#562=DIRECTION('center_axis',(0.,-1.,0.));
#563=DIRECTION('ref_axis',(1.,0.,0.));
#564=DIRECTION('center_axis',(0.,1.,0.));
#565=DIRECTION('ref_axis',(-1.,0.,0.));
#566=DIRECTION($,(-1.,0.,0.));
#567=DIRECTION('center_axis',(0.,0.,1.));
#568=DIRECTION('ref_axis',(1.,0.,0.));
#569=CARTESIAN_POINT('',(0.,0.,0.));
#570=CARTESIAN_POINT('Origin',(1.02878569196893,0.,1.125));
#571=CARTESIAN_POINT('',(1.02878569196893,0.06,1.375));
#572=CARTESIAN_POINT('',(0.823028553575148,0.06,1.267));
#573=CARTESIAN_POINT('Origin',(1.02878569196893,0.06,1.125));
#574=CARTESIAN_POINT('',(0.823028553575148,0.,1.267));
#575=CARTESIAN_POINT($,(0.823028553575148,0.,1.267));
#576=CARTESIAN_POINT('',(1.02878569196893,0.,1.375));
#577=CARTESIAN_POINT('Origin',(1.02878569196893,0.,1.125));
#578=CARTESIAN_POINT($,(1.02878569196893,0.,1.375));
#579=CARTESIAN_POINT('Origin',(0.,0.,1.835));
#580=CARTESIAN_POINT('',(-0.823028553575148,0.06,1.267));
#581=CARTESIAN_POINT('Origin',(0.,0.06,1.835));
#582=CARTESIAN_POINT('',(-0.823028553575148,0.,1.267));
#583=CARTESIAN_POINT($,(-0.823028553575148,0.,1.267));
#584=CARTESIAN_POINT('Origin',(0.,0.,1.835));
#585=CARTESIAN_POINT('Origin',(1.67822153139156E-016,0.06,0.609506882435644));
#586=CARTESIAN_POINT('',(1.25,0.06,1.375));
#587=CARTESIAN_POINT($,(1.5,0.06,1.375));
#588=CARTESIAN_POINT('',(1.5,0.06,1.125));
#589=CARTESIAN_POINT('Origin',(1.25,0.0600000000000006,1.125));
#590=CARTESIAN_POINT('',(1.5,0.06,0.06));
#591=CARTESIAN_POINT($,(1.5,0.06,0.));
#592=CARTESIAN_POINT('',(-1.5,0.06,0.06));
#593=CARTESIAN_POINT($,(1.91792672929256E-016,0.06,0.06));
#594=CARTESIAN_POINT('',(-1.5,0.06,1.125));
#595=CARTESIAN_POINT($,(-1.5,0.06,1.375));
#596=CARTESIAN_POINT('',(-1.25,0.06,1.375));
#597=CARTESIAN_POINT('Origin',(-1.25,0.0599999999999999,1.125));
#598=CARTESIAN_POINT('',(-1.02878569196893,0.06,1.375));
#599=CARTESIAN_POINT($,(-0.887918915216925,0.06,1.375));
#600=CARTESIAN_POINT('Origin',(-1.02878569196893,0.06,1.125));
#601=CARTESIAN_POINT('',(-0.136,0.06,0.5));
#602=CARTESIAN_POINT('Origin',(0.,0.06,0.5));
#603=CARTESIAN_POINT('',(-1.2295679791258,0.06,1.06927545747135));
#604=CARTESIAN_POINT('Origin',(-1.0935679791258,0.06,1.06927545747135));
#605=CARTESIAN_POINT('',(0.957567979125804,0.06,1.06927545747135));
#606=CARTESIAN_POINT('Origin',(1.0935679791258,0.06,1.06927545747135));
#607=CARTESIAN_POINT('Origin',(-1.02878569196893,0.,1.125));
#608=CARTESIAN_POINT('',(-1.02878569196893,0.,1.375));
#609=CARTESIAN_POINT($,(-1.02878569196893,0.,1.375));
#610=CARTESIAN_POINT('Origin',(-1.02878569196893,0.,1.125));
#611=CARTESIAN_POINT('Origin',(-1.5,0.,1.375));
#612=CARTESIAN_POINT('',(-1.25,0.,1.375));
#613=CARTESIAN_POINT($,(-1.25,0.5625,1.375));
#614=CARTESIAN_POINT($,(-0.887918915216925,0.,1.375));
#615=CARTESIAN_POINT('Origin',(-1.25,0.5625,1.125));
#616=CARTESIAN_POINT('',(-1.5,0.,1.125));
#617=CARTESIAN_POINT($,(-1.5,0.5625,1.125));
#618=CARTESIAN_POINT('Origin',(-1.25,0.,1.125));
#619=CARTESIAN_POINT('Origin',(-1.5,1.125,0.));
#620=CARTESIAN_POINT('',(-1.5,0.875,0.06));
#621=CARTESIAN_POINT($,(-1.5,1.125,0.06));
#622=CARTESIAN_POINT('',(-1.5,0.875,0.));
#623=CARTESIAN_POINT($,(-1.5,0.875,0.));
#624=CARTESIAN_POINT('',(-1.5,0.,0.));
#625=CARTESIAN_POINT($,(-1.5,1.125,0.));
#626=CARTESIAN_POINT($,(-1.5,0.,0.));
#627=CARTESIAN_POINT('Origin',(1.25,2.61280841892148E-017,1.125));
#628=CARTESIAN_POINT('',(1.25,0.,1.375));
#629=CARTESIAN_POINT($,(1.25,2.61280841892148E-017,1.375));
#630=CARTESIAN_POINT('',(1.5,0.,1.125));
#631=CARTESIAN_POINT('Origin',(1.25,1.28214732502643E-015,1.125));
#632=CARTESIAN_POINT($,(1.5,1.4268693191889E-016,1.125));
#633=CARTESIAN_POINT('Origin',(1.5,0.,0.));
#634=CARTESIAN_POINT('',(1.5,0.,0.));
#635=CARTESIAN_POINT($,(1.5,0.,0.));
#636=CARTESIAN_POINT('',(1.5,0.875,0.));
#637=CARTESIAN_POINT($,(1.5,0.,0.));
#638=CARTESIAN_POINT('',(1.5,0.875,0.06));
#639=CARTESIAN_POINT($,(1.5,0.875,0.));
#640=CARTESIAN_POINT($,(1.5,0.,0.06));
#641=CARTESIAN_POINT('Origin',(-1.25,0.875,0.));
#642=CARTESIAN_POINT('',(-1.25,1.125,0.06));
#643=CARTESIAN_POINT('Origin',(-1.25,0.875,0.06));
#644=CARTESIAN_POINT('',(-1.25,1.125,0.));
#645=CARTESIAN_POINT($,(-1.25,1.125,0.));
#646=CARTESIAN_POINT('Origin',(-1.25,0.875,0.));
#647=CARTESIAN_POINT('Origin',(2.15763192719356E-016,0.5625,0.));
#648=CARTESIAN_POINT('',(1.25,1.125,0.));
#649=CARTESIAN_POINT($,(1.5,1.125,0.));
#650=CARTESIAN_POINT('Origin',(1.25,0.875,0.));
#651=CARTESIAN_POINT($,(-1.5,0.,0.));
#652=CARTESIAN_POINT('',(-0.9535,0.75,0.));
#653=CARTESIAN_POINT('Origin',(-1.125,0.75,0.));
#654=CARTESIAN_POINT('',(1.2965,0.75,0.));
#655=CARTESIAN_POINT('Origin',(1.125,0.75,0.));
#656=CARTESIAN_POINT('Origin',(1.25,0.875,0.));
#657=CARTESIAN_POINT('',(1.25,1.125,0.06));
#658=CARTESIAN_POINT('Origin',(1.25,0.875,0.06));
#659=CARTESIAN_POINT($,(1.25,1.125,0.));
#660=CARTESIAN_POINT('Origin',(1.0935679791258,0.,1.06927545747135));
#661=CARTESIAN_POINT('',(0.957567979125804,0.,1.06927545747135));
#662=CARTESIAN_POINT('Origin',(1.0935679791258,0.,1.06927545747135));
#663=CARTESIAN_POINT('Origin',(-1.0935679791258,0.,1.06927545747135));
#664=CARTESIAN_POINT('',(-1.2295679791258,0.,1.06927545747135));
#665=CARTESIAN_POINT('Origin',(-1.0935679791258,0.,1.06927545747135));
#666=CARTESIAN_POINT('Origin',(0.,0.,0.5));
#667=CARTESIAN_POINT('',(-0.136,0.,0.5));
#668=CARTESIAN_POINT('Origin',(0.,0.,0.5));
#669=CARTESIAN_POINT('Origin',(0.887918915216925,0.,1.375));
#670=CARTESIAN_POINT($,(1.5,0.,1.375));
#671=CARTESIAN_POINT('Origin',(1.125,0.75,0.));
#672=CARTESIAN_POINT('',(1.2965,0.75,0.06));
#673=CARTESIAN_POINT('Origin',(1.125,0.75,0.06));
#674=CARTESIAN_POINT('Origin',(-1.125,0.75,0.));
#675=CARTESIAN_POINT('',(-0.9535,0.75,0.06));
#676=CARTESIAN_POINT('Origin',(-1.125,0.75,0.06));
#677=CARTESIAN_POINT('Origin',(-1.5,0.,0.));
#678=CARTESIAN_POINT('Origin',(1.5,1.125,0.));
#679=CARTESIAN_POINT($,(1.5,1.125,0.06));
#680=CARTESIAN_POINT('Origin',(2.15763192719356E-016,0.5625,0.06));
#681=UNCERTAINTY_MEASURE_WITH_UNIT(LENGTH_MEASURE(0.000393700787401575),
#683,'DISTANCE_ACCURACY_VALUE',
'Maximum model space distance between geometric entities at asserted c
onnectivities');
#682=(
GEOMETRIC_REPRESENTATION_CONTEXT(3)
GLOBAL_UNCERTAINTY_ASSIGNED_CONTEXT((#681))
GLOBAL_UNIT_ASSIGNED_CONTEXT((#683,#689,#686))
REPRESENTATION_CONTEXT('','3D')
);
#683=(
CONVERSION_BASED_UNIT('__CONSTANT UNIT inch',#685)
LENGTH_UNIT()
NAMED_UNIT(#688)
);
#684=(
LENGTH_UNIT()
NAMED_UNIT(*)
SI_UNIT(.MILLI.,.METRE.)
);
#685=LENGTH_MEASURE_WITH_UNIT(LENGTH_MEASURE(25.4),#684);
#686=(
NAMED_UNIT(*)
SI_UNIT($,.STERADIAN.)
SOLID_ANGLE_UNIT()
);
#687=DIMENSIONAL_EXPONENTS(0.,0.,0.,0.,0.,0.,0.);
#688=DIMENSIONAL_EXPONENTS(1.,0.,0.,0.,0.,0.,0.);
#689=(
CONVERSION_BASED_UNIT('degree',#691)
NAMED_UNIT(#687)
PLANE_ANGLE_UNIT()
);
#690=(
NAMED_UNIT(*)
PLANE_ANGLE_UNIT()
SI_UNIT($,.RADIAN.)
);
#691=PLANE_ANGLE_MEASURE_WITH_UNIT(PLANE_ANGLE_MEASURE(0.01745329252),#690);
#692=SHAPE_DEFINITION_REPRESENTATION(#693,#694);
#693=PRODUCT_DEFINITION_SHAPE('',$,#696);
#694=SHAPE_REPRESENTATION('',(#403),#682);
#695=PRODUCT_DEFINITION_CONTEXT('3D Mechanical Parts',#699,'design');
#696=PRODUCT_DEFINITION('707025','707025',#697,#695);
#697=PRODUCT_DEFINITION_FORMATION('',$,#701);
#698=APPLICATION_PROTOCOL_DEFINITION('international standard',
'automotive_design',2009,#699);
#699=APPLICATION_CONTEXT(
'Core Data for Automotive Mechanical Design Process');
#700=PRODUCT_CONTEXT('3D Mechanical Parts',#699,'mechanical');
#701=PRODUCT('707025','707025',$,(#700));
#702=PRESENTATION_STYLE_ASSIGNMENT((#703));
#703=SURFACE_STYLE_USAGE(.BOTH.,#704);
#704=SURFACE_SIDE_STYLE($,(#705));
#705=SURFACE_STYLE_FILL_AREA(#706);
#706=FILL_AREA_STYLE($,(#707));
#707=FILL_AREA_STYLE_COLOUR($,#708);
#708=COLOUR_RGB('',0.749019607843137,0.749019607843137,0.749019607843137);
ENDSEC;
END-ISO-10303-21;
