ISO-10303-21;
HEADER;
FILE_DESCRIPTION (( 'STEP AP214' ),
    '1' );
FILE_NAME ('CD8.STEP',
    '2020-08-21T16:08:54',
    ( '' ),
    ( '' ),
    'SwSTEP 2.0',
    'SolidWorks 2019',
    '' );
FILE_SCHEMA (( 'AUTOMOTIVE_DESIGN' ));
ENDSEC;

DATA;
#1 = SURFACE_STYLE_USAGE ( .BOTH. , #15 ) ;
#2 = AXIS2_PLACEMENT_3D ( 'NONE', #40, #21, #123 ) ;
#3 = CYLINDRICAL_SURFACE ( 'NONE', #67, 2.400000000014171242 ) ;
#4 =( GEOMETRIC_REPRESENTATION_CONTEXT ( 3 ) GLOBAL_UNCERTAINTY_ASSIGNED_CONTEXT ( ( #130 ) ) GLOBAL_UNIT_ASSIGNED_CONTEXT ( ( #121, #61, #31 ) ) REPRESENTATION_CONTEXT ( 'NONE', 'WORKASPACE' ) );
#5 = CARTESIAN_POINT ( 'NONE',  ( -4.000000000000000000, -1.416390876113338138E-11, 0.0000000000000000000 ) ) ;
#6 = EDGE_LOOP ( 'NONE', ( #50 ) ) ;
#7 = EDGE_LOOP ( 'NONE', ( #106 ) ) ;
#8 = PRODUCT_DEFINITION_CONTEXT ( 'detailed design', #26, 'design' ) ;
#9 = EDGE_LOOP ( 'NONE', ( #37 ) ) ;
#10 = VERTEX_POINT ( 'NONE', #13 ) ;
#11 = FACE_OUTER_BOUND ( 'NONE', #104, .T. ) ;
#12 = AXIS2_PLACEMENT_3D ( 'NONE', #60, #59, #23 ) ;
#13 = CARTESIAN_POINT ( 'NONE',  ( -4.000000000000000000, -1.416390876113338138E-11, 2.400000000014171242 ) ) ;
#14 = CARTESIAN_POINT ( 'NONE',  ( 0.0000000000000000000, 0.0000000000000000000, 0.0000000000000000000 ) ) ;
#15 = SURFACE_SIDE_STYLE ('',( #34 ) ) ;
#16 = CARTESIAN_POINT ( 'NONE',  ( -3.999999999999998224, -1.416390876113338138E-11, 0.0000000000000000000 ) ) ;
#17 = ORIENTED_EDGE ( 'NONE', *, *, #55, .T. ) ;
#18 = ORIENTED_EDGE ( 'NONE', *, *, #46, .T. ) ;
#19 = DIRECTION ( 'NONE',  ( -1.000000000000000000, -0.0000000000000000000, -0.0000000000000000000 ) ) ;
#20 = DIRECTION ( 'NONE',  ( 0.0000000000000000000, 0.0000000000000000000, 1.000000000000000000 ) ) ;
#21 = DIRECTION ( 'NONE',  ( -1.000000000000000000, -0.0000000000000000000, -0.0000000000000000000 ) ) ;
#22 = PRESENTATION_LAYER_ASSIGNMENT (  '', '', ( #49 ) ) ;
#23 = DIRECTION ( 'NONE',  ( 0.0000000000000000000, 0.0000000000000000000, -1.000000000000000000 ) ) ;
#24 = MECHANICAL_DESIGN_GEOMETRIC_PRESENTATION_REPRESENTATION (  '', ( #118 ), #4 ) ;
#25 = DIRECTION ( 'NONE',  ( 1.000000000000000000, 0.0000000000000000000, 0.0000000000000000000 ) ) ;
#26 = APPLICATION_CONTEXT ( 'automotive_design' ) ;
#27 = DIRECTION ( 'NONE',  ( 0.0000000000000000000, 0.0000000000000000000, 1.000000000000000000 ) ) ;
#28 = UNCERTAINTY_MEASURE_WITH_UNIT (LENGTH_MEASURE( 1.000000000000000082E-05 ), #134, 'distance_accuracy_value', 'NONE');
#29 = ADVANCED_BREP_SHAPE_REPRESENTATION ( 'CD8', ( #91, #30 ), #86 ) ;
#30 = AXIS2_PLACEMENT_3D ( 'NONE', #14, #27, #25 ) ;
#31 =( NAMED_UNIT ( * ) SI_UNIT ( $, .STERADIAN. ) SOLID_ANGLE_UNIT ( ) );
#32 = SURFACE_STYLE_USAGE ( .BOTH. , #124 ) ;
#33 = CLOSED_SHELL ( 'NONE', ( #100, #56, #103, #36 ) ) ;
#34 = SURFACE_STYLE_FILL_AREA ( #90 ) ;
#35 = EDGE_CURVE ( 'NONE', #72, #72, #125, .T. ) ;
#36 = ADVANCED_FACE ( 'NONE', ( #83, #92 ), #3, .F. ) ;
#37 = ORIENTED_EDGE ( 'NONE', *, *, #55, .F. ) ;
#38 = COLOUR_RGB ( '',0.7921568627450980005, 0.8196078431372548767, 0.9333333333333333481 ) ;
#39 = CYLINDRICAL_SURFACE ( 'NONE', #89, 42.00000000001417533 ) ;
#40 = CARTESIAN_POINT ( 'NONE',  ( 2.000000000000001776, -1.416390876113338138E-11, 0.0000000000000000000 ) ) ;
#41 =( NAMED_UNIT ( * ) PLANE_ANGLE_UNIT ( ) SI_UNIT ( $, .RADIAN. ) );
#42 = FILL_AREA_STYLE ('',( #107 ) ) ;
#43 = DIRECTION ( 'NONE',  ( -1.000000000000000000, -0.0000000000000000000, -0.0000000000000000000 ) ) ;
#44 = CIRCLE ( 'NONE', #65, 2.400000000014171242 ) ;
#45 = PRESENTATION_STYLE_ASSIGNMENT (( #1 ) ) ;
#46 = EDGE_CURVE ( 'NONE', #10, #10, #44, .T. ) ;
#47 = DIRECTION ( 'NONE',  ( -1.000000000000000000, -0.0000000000000000000, -0.0000000000000000000 ) ) ;
#48 = ORIENTED_EDGE ( 'NONE', *, *, #110, .F. ) ;
#49 = STYLED_ITEM ( 'NONE', ( #45 ), #29 ) ;
#50 = ORIENTED_EDGE ( 'NONE', *, *, #35, .F. ) ;
#51 = CARTESIAN_POINT ( 'NONE',  ( 4.000000000000003553, -1.416390876113338138E-11, 0.0000000000000000000 ) ) ;
#52 = FACE_OUTER_BOUND ( 'NONE', #7, .T. ) ;
#53 = MECHANICAL_DESIGN_GEOMETRIC_PRESENTATION_REPRESENTATION (  '', ( #49 ), #80 ) ;
#54 = DIRECTION ( 'NONE',  ( 0.0000000000000000000, 0.0000000000000000000, 1.000000000000000000 ) ) ;
#55 = EDGE_CURVE ( 'NONE', #111, #111, #116, .T. ) ;
#56 = ADVANCED_FACE ( 'NONE', ( #131, #109 ), #39, .T. ) ;
#57 = UNCERTAINTY_MEASURE_WITH_UNIT (LENGTH_MEASURE( 1.000000000000000082E-05 ), #120, 'distance_accuracy_value', 'NONE');
#58 = AXIS2_PLACEMENT_3D ( 'NONE', #16, #19, #129 ) ;
#59 = DIRECTION ( 'NONE',  ( 1.000000000000000000, 0.0000000000000000000, 0.0000000000000000000 ) ) ;
#60 = CARTESIAN_POINT ( 'NONE',  ( -3.999999999999999112, 2.400000000000007017, 0.0000000000000000000 ) ) ;
#61 =( NAMED_UNIT ( * ) PLANE_ANGLE_UNIT ( ) SI_UNIT ( $, .RADIAN. ) );
#62 = VERTEX_POINT ( 'NONE', #98 ) ;
#63 = PRESENTATION_LAYER_ASSIGNMENT (  '', '', ( #118 ) ) ;
#64 = CARTESIAN_POINT ( 'NONE',  ( -425.9959491894114194, -1.416390876113338138E-11, 0.0000000000000000000 ) ) ;
#65 = AXIS2_PLACEMENT_3D ( 'NONE', #119, #96, #54 ) ;
#66 =( NAMED_UNIT ( * ) PLANE_ANGLE_UNIT ( ) SI_UNIT ( $, .RADIAN. ) );
#67 = AXIS2_PLACEMENT_3D ( 'NONE', #5, #47, #128 ) ;
#68 = EDGE_LOOP ( 'NONE', ( #105 ) ) ;
#69 = EDGE_LOOP ( 'NONE', ( #18 ) ) ;
#70 = APPLICATION_CONTEXT ( 'automotive_design' ) ;
#71 = FACE_OUTER_BOUND ( 'NONE', #94, .T. ) ;
#72 = VERTEX_POINT ( 'NONE', #84 ) ;
#73 = DIRECTION ( 'NONE',  ( -1.000000000000000000, -0.0000000000000000000, -0.0000000000000000000 ) ) ;
#74 = FACE_BOUND ( 'NONE', #68, .T. ) ;
#75 = SURFACE_STYLE_FILL_AREA ( #42 ) ;
#76 = DIRECTION ( 'NONE',  ( -1.000000000000000000, -0.0000000000000000000, -0.0000000000000000000 ) ) ;
#77 = PRESENTATION_STYLE_ASSIGNMENT (( #32 ) ) ;
#78 = PRODUCT_CONTEXT ( 'NONE', #70, 'mechanical' ) ;
#79 = ORIENTED_EDGE ( 'NONE', *, *, #110, .T. ) ;
#80 =( GEOMETRIC_REPRESENTATION_CONTEXT ( 3 ) GLOBAL_UNCERTAINTY_ASSIGNED_CONTEXT ( ( #28 ) ) GLOBAL_UNIT_ASSIGNED_CONTEXT ( ( #134, #66, #127 ) ) REPRESENTATION_CONTEXT ( 'NONE', 'WORKASPACE' ) );
#81 = EDGE_LOOP ( 'NONE', ( #79 ) ) ;
#82 = AXIS2_PLACEMENT_3D ( 'NONE', #64, #73, #99 ) ;
#83 = FACE_OUTER_BOUND ( 'NONE', #9, .T. ) ;
#84 = CARTESIAN_POINT ( 'NONE',  ( -3.999999999999998224, -1.416390876113338138E-11, 42.00000000001417533 ) ) ;
#85 = DIRECTION ( 'NONE',  ( 0.0000000000000000000, 0.0000000000000000000, 1.000000000000000000 ) ) ;
#86 =( GEOMETRIC_REPRESENTATION_CONTEXT ( 3 ) GLOBAL_UNCERTAINTY_ASSIGNED_CONTEXT ( ( #57 ) ) GLOBAL_UNIT_ASSIGNED_CONTEXT ( ( #120, #41, #97 ) ) REPRESENTATION_CONTEXT ( 'NONE', 'WORKASPACE' ) );
#87 = PLANE ( 'NONE',  #12 ) ;
#88 = CARTESIAN_POINT ( 'NONE',  ( 4.000000000000003553, -1.416390876113338138E-11, 2.400000000014171242 ) ) ;
#89 = AXIS2_PLACEMENT_3D ( 'NONE', #132, #43, #20 ) ;
#90 = FILL_AREA_STYLE ('',( #114 ) ) ;
#91 = MANIFOLD_SOLID_BREP ( 'Revolve1', #33 ) ;
#92 = FACE_OUTER_BOUND ( 'NONE', #69, .T. ) ;
#93 = PRODUCT_RELATED_PRODUCT_CATEGORY ( 'part', '', ( #112 ) ) ;
#94 = EDGE_LOOP ( 'NONE', ( #17 ) ) ;
#95 = TOROIDAL_SURFACE ( 'NONE', #82, 0.5335379197408725016, 430.0000000000000000 ) ;
#96 = DIRECTION ( 'NONE',  ( -1.000000000000000000, -0.0000000000000000000, -0.0000000000000000000 ) ) ;
#97 =( NAMED_UNIT ( * ) SI_UNIT ( $, .STERADIAN. ) SOLID_ANGLE_UNIT ( ) );
#98 = CARTESIAN_POINT ( 'NONE',  ( 2.000000000000001776, -1.416390876113338138E-11, 42.00000000001417533 ) ) ;
#99 = DIRECTION ( 'NONE',  ( 0.0000000000000000000, 0.0000000000000000000, 1.000000000000000000 ) ) ;
#100 = ADVANCED_FACE ( 'NONE', ( #74, #52 ), #87, .F. ) ;
#101 = PRODUCT_DEFINITION_FORMATION_WITH_SPECIFIED_SOURCE ( 'ANY', '', #112, .NOT_KNOWN. ) ;
#102 = SHAPE_DEFINITION_REPRESENTATION ( #122, #29 ) ;
#103 = ADVANCED_FACE ( 'NONE', ( #11, #71 ), #95, .T. ) ;
#104 = EDGE_LOOP ( 'NONE', ( #48 ) ) ;
#105 = ORIENTED_EDGE ( 'NONE', *, *, #46, .F. ) ;
#106 = ORIENTED_EDGE ( 'NONE', *, *, #35, .T. ) ;
#107 = FILL_AREA_STYLE_COLOUR ( '', #38 ) ;
#108 = CIRCLE ( 'NONE', #2, 42.00000000001417533 ) ;
#109 = FACE_OUTER_BOUND ( 'NONE', #81, .T. ) ;
#110 = EDGE_CURVE ( 'NONE', #62, #62, #108, .T. ) ;
#111 = VERTEX_POINT ( 'NONE', #88 ) ;
#112 = PRODUCT ( 'CD8', 'CD8', '', ( #78 ) ) ;
#113 = APPLICATION_PROTOCOL_DEFINITION ( 'draft international standard', 'automotive_design', 1998, #70 ) ;
#114 = FILL_AREA_STYLE_COLOUR ( '', #115 ) ;
#115 = COLOUR_RGB ( '',0.7921568627450980005, 0.8196078431372548767, 0.9333333333333333481 ) ;
#116 = CIRCLE ( 'NONE', #133, 2.400000000014171242 ) ;
#117 = PRODUCT_DEFINITION ( 'UNKNOWN', '', #101, #8 ) ;
#118 = STYLED_ITEM ( 'NONE', ( #77 ), #91 ) ;
#119 = CARTESIAN_POINT ( 'NONE',  ( -4.000000000000000000, -1.416390876113338138E-11, 0.0000000000000000000 ) ) ;
#120 =( LENGTH_UNIT ( ) NAMED_UNIT ( * ) SI_UNIT ( .MILLI., .METRE. ) );
#121 =( LENGTH_UNIT ( ) NAMED_UNIT ( * ) SI_UNIT ( .MILLI., .METRE. ) );
#122 = PRODUCT_DEFINITION_SHAPE ( 'NONE', 'NONE',  #117 ) ;
#123 = DIRECTION ( 'NONE',  ( 0.0000000000000000000, 0.0000000000000000000, 1.000000000000000000 ) ) ;
#124 = SURFACE_SIDE_STYLE ('',( #75 ) ) ;
#125 = CIRCLE ( 'NONE', #58, 42.00000000001417533 ) ;
#126 = APPLICATION_PROTOCOL_DEFINITION ( 'draft international standard', 'automotive_design', 1998, #26 ) ;
#127 =( NAMED_UNIT ( * ) SI_UNIT ( $, .STERADIAN. ) SOLID_ANGLE_UNIT ( ) );
#128 = DIRECTION ( 'NONE',  ( 0.0000000000000000000, 0.0000000000000000000, 1.000000000000000000 ) ) ;
#129 = DIRECTION ( 'NONE',  ( 0.0000000000000000000, 0.0000000000000000000, 1.000000000000000000 ) ) ;
#130 = UNCERTAINTY_MEASURE_WITH_UNIT (LENGTH_MEASURE( 1.000000000000000082E-05 ), #121, 'distance_accuracy_value', 'NONE');
#131 = FACE_OUTER_BOUND ( 'NONE', #6, .T. ) ;
#132 = CARTESIAN_POINT ( 'NONE',  ( -4.000000000000000000, -1.416390876113338138E-11, 0.0000000000000000000 ) ) ;
#133 = AXIS2_PLACEMENT_3D ( 'NONE', #51, #76, #85 ) ;
#134 =( LENGTH_UNIT ( ) NAMED_UNIT ( * ) SI_UNIT ( .MILLI., .METRE. ) );
ENDSEC;
END-ISO-10303-21;
