ISO-10303-21;
HEADER;
FILE_DESCRIPTION(('STEP AP203'),'1');
FILE_NAME('CSS60B.stp','2016-06-10T02:51:47',(' '),(' '),'Spatial InterOp 3D',' ',' ');
FILE_SCHEMA(('CONFIG_CONTROL_DESIGN'));
ENDSEC;
DATA;
#1=DESIGN_CONTEXT('',#27,'design');
#2=APPLICATION_PROTOCOL_DEFINITION('INTERNATIONAL STANDARD','config_control_design',1994,#27);
#3=PRODUCT_CATEGORY_RELATIONSHIP('NONE','NONE',#28,#29);
#4=DATE_AND_TIME(#30,#31);
#5=DATE_TIME_ROLE('creation_date');
#6=DATE_TIME_ROLE('classification_date');
#7=PERSON_AND_ORGANIZATION_ROLE('creator');
#8=PERSON_AND_ORGANIZATION_ROLE('design_supplier');
#9=PERSON_AND_ORGANIZATION_ROLE('classification_officer');
#10=PERSON_AND_ORGANIZATION_ROLE('design_owner');
#11=APPROVAL_PERSON_ORGANIZATION(#32,#33,#34);
#12=APPROVAL_DATE_TIME(#4,#33);
#13=CC_DESIGN_APPROVAL(#33,(#35,#36,#37));
#14=CC_DESIGN_DATE_AND_TIME_ASSIGNMENT(#4,#5,(#37));
#15=CC_DESIGN_DATE_AND_TIME_ASSIGNMENT(#4,#6,(#35));
#16=CC_DESIGN_PERSON_AND_ORGANIZATION_ASSIGNMENT(#32,#10,(#38));
#17=CC_DESIGN_PERSON_AND_ORGANIZATION_ASSIGNMENT(#32,#7,(#37));
#18=CC_DESIGN_PERSON_AND_ORGANIZATION_ASSIGNMENT(#32,#7,(#36));
#19=CC_DESIGN_PERSON_AND_ORGANIZATION_ASSIGNMENT(#32,#8,(#36));
#20=CC_DESIGN_SECURITY_CLASSIFICATION(#35,(#36));
#21=CC_DESIGN_PERSON_AND_ORGANIZATION_ASSIGNMENT(#32,#9,(#35));
#22=SHAPE_DEFINITION_REPRESENTATION(#39,#40);
#23= (GEOMETRIC_REPRESENTATION_CONTEXT(3)GLOBAL_UNCERTAINTY_ASSIGNED_CONTEXT((#43))GLOBAL_UNIT_ASSIGNED_CONTEXT((#45,#46,#47))REPRESENTATION_CONTEXT('NONE','WORKSPACE'));
#27=APPLICATION_CONTEXT('CONFIGURATION CONTROLLED 3D DESIGNS OF MECHANICAL PARTS AND ASSEMBLIES');
#28=PRODUCT_CATEGORY('part','NONE');
#29=PRODUCT_RELATED_PRODUCT_CATEGORY('detail',' ',(#38));
#30=CALENDAR_DATE(2016,10,5);
#31=LOCAL_TIME(11,51,47.0,#49);
#32=PERSON_AND_ORGANIZATION(#50,#51);
#33=APPROVAL(#52,'SOLID MODEL');
#34=APPROVAL_ROLE('APPROVED');
#35=SECURITY_CLASSIFICATION('','',#53);
#36=PRODUCT_DEFINITION_FORMATION_WITH_SPECIFIED_SOURCE(' ','NONE',#38,.NOT_KNOWN.);
#37=PRODUCT_DEFINITION('NONE','NONE',#36,#1);
#38=PRODUCT('1','1','PART-1-DESC',(#54));
#39=PRODUCT_DEFINITION_SHAPE('NONE','NONE',#37);
#40=ADVANCED_BREP_SHAPE_REPRESENTATION('1',(#55,#56),#23);
#43=UNCERTAINTY_MEASURE_WITH_UNIT(LENGTH_MEASURE(0.001),#45,'','');
#45= (CONVERSION_BASED_UNIT('MILLIMETRE',#59)LENGTH_UNIT()NAMED_UNIT(#62));
#46= (NAMED_UNIT(#64)PLANE_ANGLE_UNIT()SI_UNIT($,.RADIAN.));
#47= (NAMED_UNIT(#64)SOLID_ANGLE_UNIT()SI_UNIT($,.STERADIAN.));
#49=COORDINATED_UNIVERSAL_TIME_OFFSET(9,0,.AHEAD.);
#50=PERSON('','UNSPECIFIED',$,$,$,$);
#51=ORGANIZATION('UNSPECIFIED','UNSPECIFIED','UNSPECIFIED');
#52=APPROVAL_STATUS('approved');
#53=SECURITY_CLASSIFICATION_LEVEL('unclassified');
#54=MECHANICAL_CONTEXT('',#27,'mechanical');
#55=MANIFOLD_SOLID_BREP('1',#70);
#56=AXIS2_PLACEMENT_3D('',#71,#72,#73);
#59=LENGTH_MEASURE_WITH_UNIT(LENGTH_MEASURE(1.0),#74);
#62=DIMENSIONAL_EXPONENTS(1.0,0.0,0.0,0.0,0.0,0.0,0.0);
#64=DIMENSIONAL_EXPONENTS(0.0,0.0,0.0,0.0,0.0,0.0,0.0);
#70=CLOSED_SHELL('',(#75,#76,#77,#78,#79,#80,#81,#82,#83,#84,#85,#86,#87,#88,#89,#90,#91));
#71=CARTESIAN_POINT('',(0.0,0.0,0.0));
#72=DIRECTION('',(0.0,0.0,1.0));
#73=DIRECTION('',(1.0,0.0,0.0));
#74= (NAMED_UNIT(#62)LENGTH_UNIT()SI_UNIT(.MILLI.,.METRE.));
#75=ADVANCED_FACE('',(#93),#94,.T.);
#76=ADVANCED_FACE('',(#95),#96,.T.);
#77=ADVANCED_FACE('',(#97),#98,.T.);
#78=ADVANCED_FACE('',(#99),#100,.T.);
#79=ADVANCED_FACE('',(#101),#102,.T.);
#80=ADVANCED_FACE('',(#103),#104,.T.);
#81=ADVANCED_FACE('',(#105),#106,.T.);
#82=ADVANCED_FACE('',(#107,#108),#109,.F.);
#83=ADVANCED_FACE('',(#110),#111,.T.);
#84=ADVANCED_FACE('',(#112,#113),#114,.F.);
#85=ADVANCED_FACE('',(#115),#116,.T.);
#86=ADVANCED_FACE('',(#117,#118),#119,.F.);
#87=ADVANCED_FACE('',(#120),#121,.T.);
#88=ADVANCED_FACE('',(#122,#123),#124,.F.);
#89=ADVANCED_FACE('',(#125),#126,.T.);
#90=ADVANCED_FACE('',(#127),#128,.T.);
#91=ADVANCED_FACE('',(#129),#130,.F.);
#93=FACE_OUTER_BOUND('',#131,.T.);
#94=SPHERICAL_SURFACE('',#132,1.5);
#95=FACE_OUTER_BOUND('',#133,.T.);
#96=CYLINDRICAL_SURFACE('',#134,1.40000000000001);
#97=FACE_OUTER_BOUND('',#135,.T.);
#98=CYLINDRICAL_SURFACE('',#136,2.5);
#99=FACE_OUTER_BOUND('',#137,.T.);
#100=CYLINDRICAL_SURFACE('',#138,3.0);
#101=FACE_OUTER_BOUND('',#139,.T.);
#102=CYLINDRICAL_SURFACE('',#140,2.15000000000001);
#103=FACE_OUTER_BOUND('',#141,.T.);
#104=CYLINDRICAL_SURFACE('',#142,1.0);
#105=FACE_OUTER_BOUND('',#143,.T.);
#106=CYLINDRICAL_SURFACE('',#144,1.0);
#107=FACE_BOUND('',#145,.T.);
#108=FACE_OUTER_BOUND('',#146,.T.);
#109=PLANE('',#147);
#110=FACE_OUTER_BOUND('',#148,.T.);
#111=CYLINDRICAL_SURFACE('',#149,2.15000000000001);
#112=FACE_BOUND('',#150,.T.);
#113=FACE_OUTER_BOUND('',#151,.T.);
#114=PLANE('',#152);
#115=FACE_OUTER_BOUND('',#153,.T.);
#116=CYLINDRICAL_SURFACE('',#154,3.0);
#117=FACE_OUTER_BOUND('',#155,.T.);
#118=FACE_BOUND('',#156,.T.);
#119=PLANE('',#157);
#120=FACE_OUTER_BOUND('',#158,.T.);
#121=CYLINDRICAL_SURFACE('',#159,2.5);
#122=FACE_OUTER_BOUND('',#160,.T.);
#123=FACE_BOUND('',#161,.T.);
#124=PLANE('',#162);
#125=FACE_OUTER_BOUND('',#163,.T.);
#126=CYLINDRICAL_SURFACE('',#164,1.40000000000001);
#127=FACE_OUTER_BOUND('',#165,.T.);
#128=SPHERICAL_SURFACE('',#166,1.5);
#129=FACE_OUTER_BOUND('',#167,.T.);
#130=PLANE('',#168);
#131=EDGE_LOOP('',(#169,#170,#171,#172));
#132=AXIS2_PLACEMENT_3D('',#173,#174,#175);
#133=EDGE_LOOP('',(#176,#177,#178,#179));
#134=AXIS2_PLACEMENT_3D('',#180,#181,#182);
#135=EDGE_LOOP('',(#183,#184,#185,#186));
#136=AXIS2_PLACEMENT_3D('',#187,#188,#189);
#137=EDGE_LOOP('',(#190,#191,#192,#193));
#138=AXIS2_PLACEMENT_3D('',#194,#195,#196);
#139=EDGE_LOOP('',(#197,#198,#199,#200));
#140=AXIS2_PLACEMENT_3D('',#201,#202,#203);
#141=EDGE_LOOP('',(#204,#205,#206,#207,#208));
#142=AXIS2_PLACEMENT_3D('',#209,#210,#211);
#143=EDGE_LOOP('',(#212,#213,#214,#215,#216));
#144=AXIS2_PLACEMENT_3D('',#217,#218,#219);
#145=EDGE_LOOP('',(#220,#221));
#146=EDGE_LOOP('',(#222,#223));
#147=AXIS2_PLACEMENT_3D('',#224,#225,#226);
#148=EDGE_LOOP('',(#227,#228,#229,#230));
#149=AXIS2_PLACEMENT_3D('',#231,#232,#233);
#150=EDGE_LOOP('',(#234,#235));
#151=EDGE_LOOP('',(#236,#237));
#152=AXIS2_PLACEMENT_3D('',#238,#239,#240);
#153=EDGE_LOOP('',(#241,#242,#243,#244));
#154=AXIS2_PLACEMENT_3D('',#245,#246,#247);
#155=EDGE_LOOP('',(#248,#249));
#156=EDGE_LOOP('',(#250,#251));
#157=AXIS2_PLACEMENT_3D('',#252,#253,#254);
#158=EDGE_LOOP('',(#255,#256,#257,#258));
#159=AXIS2_PLACEMENT_3D('',#259,#260,#261);
#160=EDGE_LOOP('',(#262,#263));
#161=EDGE_LOOP('',(#264,#265));
#162=AXIS2_PLACEMENT_3D('',#266,#267,#268);
#163=EDGE_LOOP('',(#269,#270,#271,#272));
#164=AXIS2_PLACEMENT_3D('',#273,#274,#275);
#165=EDGE_LOOP('',(#276,#277,#278,#279));
#166=AXIS2_PLACEMENT_3D('',#280,#281,#282);
#167=EDGE_LOOP('',(#283,#284));
#168=AXIS2_PLACEMENT_3D('',#285,#286,#287);
#169=ORIENTED_EDGE('',*,*,#288,.F.);
#170=ORIENTED_EDGE('',*,*,#289,.T.);
#171=ORIENTED_EDGE('',*,*,#290,.T.);
#172=ORIENTED_EDGE('',*,*,#291,.F.);
#173=CARTESIAN_POINT('',(1.5,1.25779936596335E-008,0.0));
#174=DIRECTION('',(-1.0,-0.0,-0.0));
#175=DIRECTION('',(0.0,1.0,0.0));
#176=ORIENTED_EDGE('',*,*,#292,.F.);
#177=ORIENTED_EDGE('',*,*,#293,.F.);
#178=ORIENTED_EDGE('',*,*,#294,.F.);
#179=ORIENTED_EDGE('',*,*,#295,.T.);
#180=CARTESIAN_POINT('',(0.0,0.0,0.0));
#181=DIRECTION('',(1.0,0.0,-0.0));
#182=DIRECTION('',(0.0,0.0,1.0));
#183=ORIENTED_EDGE('',*,*,#296,.F.);
#184=ORIENTED_EDGE('',*,*,#297,.F.);
#185=ORIENTED_EDGE('',*,*,#298,.F.);
#186=ORIENTED_EDGE('',*,*,#299,.T.);
#187=CARTESIAN_POINT('',(0.0,0.0,0.0));
#188=DIRECTION('',(1.0,0.0,-0.0));
#189=DIRECTION('',(0.0,0.0,1.0));
#190=ORIENTED_EDGE('',*,*,#300,.F.);
#191=ORIENTED_EDGE('',*,*,#301,.F.);
#192=ORIENTED_EDGE('',*,*,#302,.F.);
#193=ORIENTED_EDGE('',*,*,#303,.T.);
#194=CARTESIAN_POINT('',(0.0,0.0,0.0));
#195=DIRECTION('',(1.0,0.0,-0.0));
#196=DIRECTION('',(0.0,0.0,1.0));
#197=ORIENTED_EDGE('',*,*,#304,.F.);
#198=ORIENTED_EDGE('',*,*,#305,.F.);
#199=ORIENTED_EDGE('',*,*,#306,.F.);
#200=ORIENTED_EDGE('',*,*,#307,.T.);
#201=CARTESIAN_POINT('',(0.0,0.0,0.0));
#202=DIRECTION('',(1.0,0.0,-0.0));
#203=DIRECTION('',(0.0,0.0,1.0));
#204=ORIENTED_EDGE('',*,*,#308,.F.);
#205=ORIENTED_EDGE('',*,*,#309,.F.);
#206=ORIENTED_EDGE('',*,*,#290,.F.);
#207=ORIENTED_EDGE('',*,*,#310,.F.);
#208=ORIENTED_EDGE('',*,*,#311,.T.);
#209=CARTESIAN_POINT('',(0.0,0.0,0.0));
#210=DIRECTION('',(1.0,0.0,-0.0));
#211=DIRECTION('',(0.0,0.0,1.0));
#212=ORIENTED_EDGE('',*,*,#308,.T.);
#213=ORIENTED_EDGE('',*,*,#312,.T.);
#214=ORIENTED_EDGE('',*,*,#310,.T.);
#215=ORIENTED_EDGE('',*,*,#289,.F.);
#216=ORIENTED_EDGE('',*,*,#313,.F.);
#217=CARTESIAN_POINT('',(0.0,0.0,0.0));
#218=DIRECTION('',(1.0,0.0,-0.0));
#219=DIRECTION('',(0.0,0.0,1.0));
#220=ORIENTED_EDGE('',*,*,#312,.F.);
#221=ORIENTED_EDGE('',*,*,#311,.F.);
#222=ORIENTED_EDGE('',*,*,#314,.T.);
#223=ORIENTED_EDGE('',*,*,#305,.T.);
#224=CARTESIAN_POINT('',(3.5,2.15000000000001,0.0));
#225=DIRECTION('',(1.0,0.0,0.0));
#226=DIRECTION('',(0.0,0.0,-1.0));
#227=ORIENTED_EDGE('',*,*,#304,.T.);
#228=ORIENTED_EDGE('',*,*,#315,.T.);
#229=ORIENTED_EDGE('',*,*,#306,.T.);
#230=ORIENTED_EDGE('',*,*,#314,.F.);
#231=CARTESIAN_POINT('',(0.0,0.0,0.0));
#232=DIRECTION('',(1.0,0.0,-0.0));
#233=DIRECTION('',(0.0,0.0,1.0));
#234=ORIENTED_EDGE('',*,*,#315,.F.);
#235=ORIENTED_EDGE('',*,*,#307,.F.);
#236=ORIENTED_EDGE('',*,*,#316,.T.);
#237=ORIENTED_EDGE('',*,*,#301,.T.);
#238=CARTESIAN_POINT('',(8.5,3.0,0.0));
#239=DIRECTION('',(1.0,0.0,0.0));
#240=DIRECTION('',(0.0,0.0,-1.0));
#241=ORIENTED_EDGE('',*,*,#300,.T.);
#242=ORIENTED_EDGE('',*,*,#317,.T.);
#243=ORIENTED_EDGE('',*,*,#302,.T.);
#244=ORIENTED_EDGE('',*,*,#316,.F.);
#245=CARTESIAN_POINT('',(0.0,0.0,0.0));
#246=DIRECTION('',(1.0,0.0,-0.0));
#247=DIRECTION('',(0.0,0.0,1.0));
#248=ORIENTED_EDGE('',*,*,#317,.F.);
#249=ORIENTED_EDGE('',*,*,#303,.F.);
#250=ORIENTED_EDGE('',*,*,#318,.T.);
#251=ORIENTED_EDGE('',*,*,#297,.T.);
#252=CARTESIAN_POINT('',(30.5,3.0,0.0));
#253=DIRECTION('',(-1.0,0.0,0.0));
#254=DIRECTION('',(0.0,0.0,1.0));
#255=ORIENTED_EDGE('',*,*,#296,.T.);
#256=ORIENTED_EDGE('',*,*,#319,.T.);
#257=ORIENTED_EDGE('',*,*,#298,.T.);
#258=ORIENTED_EDGE('',*,*,#318,.F.);
#259=CARTESIAN_POINT('',(0.0,0.0,0.0));
#260=DIRECTION('',(1.0,0.0,-0.0));
#261=DIRECTION('',(0.0,0.0,1.0));
#262=ORIENTED_EDGE('',*,*,#319,.F.);
#263=ORIENTED_EDGE('',*,*,#299,.F.);
#264=ORIENTED_EDGE('',*,*,#320,.T.);
#265=ORIENTED_EDGE('',*,*,#293,.T.);
#266=CARTESIAN_POINT('',(42.0,1.40000000000001,0.0));
#267=DIRECTION('',(-1.0,0.0,0.0));
#268=DIRECTION('',(0.0,0.0,1.0));
#269=ORIENTED_EDGE('',*,*,#292,.T.);
#270=ORIENTED_EDGE('',*,*,#321,.T.);
#271=ORIENTED_EDGE('',*,*,#294,.T.);
#272=ORIENTED_EDGE('',*,*,#320,.F.);
#273=CARTESIAN_POINT('',(0.0,0.0,0.0));
#274=DIRECTION('',(1.0,0.0,-0.0));
#275=DIRECTION('',(0.0,0.0,1.0));
#276=ORIENTED_EDGE('',*,*,#288,.T.);
#277=ORIENTED_EDGE('',*,*,#291,.T.);
#278=ORIENTED_EDGE('',*,*,#309,.T.);
#279=ORIENTED_EDGE('',*,*,#313,.T.);
#280=CARTESIAN_POINT('',(1.5,1.25779936596335E-008,0.0));
#281=DIRECTION('',(-1.0,-0.0,-0.0));
#282=DIRECTION('',(0.0,1.0,0.0));
#283=ORIENTED_EDGE('',*,*,#321,.F.);
#284=ORIENTED_EDGE('',*,*,#295,.F.);
#285=CARTESIAN_POINT('',(48.0,1.40000000000001,0.0));
#286=DIRECTION('',(-1.0,0.0,0.0));
#287=DIRECTION('',(0.0,0.0,1.0));
#288=EDGE_CURVE('',#322,#323,#324,.T.);
#289=EDGE_CURVE('',#322,#325,#326,.T.);
#290=EDGE_CURVE('',#325,#327,#328,.T.);
#291=EDGE_CURVE('',#323,#327,#329,.T.);
#292=EDGE_CURVE('',#330,#331,#332,.T.);
#293=EDGE_CURVE('',#333,#330,#334,.T.);
#294=EDGE_CURVE('',#335,#333,#336,.T.);
#295=EDGE_CURVE('',#335,#331,#337,.T.);
#296=EDGE_CURVE('',#338,#339,#340,.T.);
#297=EDGE_CURVE('',#341,#338,#342,.T.);
#298=EDGE_CURVE('',#343,#341,#344,.T.);
#299=EDGE_CURVE('',#343,#339,#345,.T.);
#300=EDGE_CURVE('',#346,#347,#348,.T.);
#301=EDGE_CURVE('',#349,#346,#350,.T.);
#302=EDGE_CURVE('',#351,#349,#352,.T.);
#303=EDGE_CURVE('',#351,#347,#353,.T.);
#304=EDGE_CURVE('',#354,#355,#356,.T.);
#305=EDGE_CURVE('',#357,#354,#358,.T.);
#306=EDGE_CURVE('',#359,#357,#360,.T.);
#307=EDGE_CURVE('',#359,#355,#361,.T.);
#308=EDGE_CURVE('',#362,#363,#364,.T.);
#309=EDGE_CURVE('',#327,#362,#365,.T.);
#310=EDGE_CURVE('',#366,#325,#367,.T.);
#311=EDGE_CURVE('',#366,#363,#368,.T.);
#312=EDGE_CURVE('',#363,#366,#369,.T.);
#313=EDGE_CURVE('',#362,#322,#370,.T.);
#314=EDGE_CURVE('',#354,#357,#371,.T.);
#315=EDGE_CURVE('',#355,#359,#372,.T.);
#316=EDGE_CURVE('',#346,#349,#373,.T.);
#317=EDGE_CURVE('',#347,#351,#374,.T.);
#318=EDGE_CURVE('',#338,#341,#375,.T.);
#319=EDGE_CURVE('',#339,#343,#376,.T.);
#320=EDGE_CURVE('',#330,#333,#377,.T.);
#321=EDGE_CURVE('',#331,#335,#378,.T.);
#322=VERTEX_POINT('',#379);
#323=VERTEX_POINT('',#380);
#324=CIRCLE('',#381,1.5);
#325=VERTEX_POINT('',#382);
#326=CIRCLE('',#383,1.0);
#327=VERTEX_POINT('',#384);
#328=CIRCLE('',#385,1.0);
#329=CIRCLE('',#386,1.5);
#330=VERTEX_POINT('',#387);
#331=VERTEX_POINT('',#388);
#332=LINE('',#389,#390);
#333=VERTEX_POINT('',#391);
#334=CIRCLE('',#392,1.40000000000001);
#335=VERTEX_POINT('',#393);
#336=LINE('',#394,#395);
#337=CIRCLE('',#396,1.40000000000001);
#338=VERTEX_POINT('',#397);
#339=VERTEX_POINT('',#398);
#340=LINE('',#399,#400);
#341=VERTEX_POINT('',#401);
#342=CIRCLE('',#402,2.5);
#343=VERTEX_POINT('',#403);
#344=LINE('',#404,#405);
#345=CIRCLE('',#406,2.5);
#346=VERTEX_POINT('',#407);
#347=VERTEX_POINT('',#408);
#348=LINE('',#409,#410);
#349=VERTEX_POINT('',#411);
#350=CIRCLE('',#412,3.0);
#351=VERTEX_POINT('',#413);
#352=LINE('',#414,#415);
#353=CIRCLE('',#416,3.0);
#354=VERTEX_POINT('',#417);
#355=VERTEX_POINT('',#418);
#356=LINE('',#419,#420);
#357=VERTEX_POINT('',#421);
#358=CIRCLE('',#422,2.15000000000001);
#359=VERTEX_POINT('',#423);
#360=LINE('',#424,#425);
#361=CIRCLE('',#426,2.15000000000001);
#362=VERTEX_POINT('',#427);
#363=VERTEX_POINT('',#428);
#364=LINE('',#429,#430);
#365=CIRCLE('',#431,1.0);
#366=VERTEX_POINT('',#432);
#367=LINE('',#433,#434);
#368=CIRCLE('',#435,1.0);
#369=CIRCLE('',#436,1.0);
#370=CIRCLE('',#437,1.0);
#371=CIRCLE('',#438,2.15000000000001);
#372=CIRCLE('',#439,2.15000000000001);
#373=CIRCLE('',#440,3.0);
#374=CIRCLE('',#441,3.0);
#375=CIRCLE('',#442,2.5);
#376=CIRCLE('',#443,2.5);
#377=CIRCLE('',#444,1.40000000000001);
#378=CIRCLE('',#445,1.40000000000001);
#379=CARTESIAN_POINT('',(0.381966000000006,1.0,1.22460633841929E-016));
#380=CARTESIAN_POINT('',(0.0,1.25779936596335E-008,0.0));
#381=AXIS2_PLACEMENT_3D('',#446,#447,#448);
#382=CARTESIAN_POINT('',(0.381966000000006,-1.22460635382238E-016,-1.0));
#383=AXIS2_PLACEMENT_3D('',#449,#450,#451);
#384=CARTESIAN_POINT('',(0.381966000000006,-1.0,-1.22460636922547E-016));
#385=AXIS2_PLACEMENT_3D('',#452,#453,#454);
#386=AXIS2_PLACEMENT_3D('',#455,#456,#457);
#387=CARTESIAN_POINT('',(42.0,0.0,1.40000000000001));
#388=CARTESIAN_POINT('',(48.0,0.0,1.40000000000001));
#389=CARTESIAN_POINT('',(45.0,1.71444889535134E-016,1.40000000000001));
#390=VECTOR('',#458,1.0);
#391=CARTESIAN_POINT('',(42.0,-1.71444889535134E-016,-1.40000000000001));
#392=AXIS2_PLACEMENT_3D('',#459,#460,#461);
#393=CARTESIAN_POINT('',(48.0,-1.71444889535134E-016,-1.40000000000001));
#394=CARTESIAN_POINT('',(45.0,-1.71444889535134E-016,-1.40000000000001));
#395=VECTOR('',#462,1.0);
#396=AXIS2_PLACEMENT_3D('',#463,#464,#465);
#397=CARTESIAN_POINT('',(30.5,0.0,2.5));
#398=CARTESIAN_POINT('',(42.0,0.0,2.5));
#399=CARTESIAN_POINT('',(36.25,3.06151588455594E-016,2.5));
#400=VECTOR('',#466,1.0);
#401=CARTESIAN_POINT('',(30.5,-3.06151588455594E-016,-2.5));
#402=AXIS2_PLACEMENT_3D('',#467,#468,#469);
#403=CARTESIAN_POINT('',(42.0,-3.06151588455594E-016,-2.5));
#404=CARTESIAN_POINT('',(36.25,-3.06151588455594E-016,-2.5));
#405=VECTOR('',#470,1.0);
#406=AXIS2_PLACEMENT_3D('',#471,#472,#473);
#407=CARTESIAN_POINT('',(8.5,0.0,3.0));
#408=CARTESIAN_POINT('',(30.5,0.0,3.0));
#409=CARTESIAN_POINT('',(19.5,3.67381906146713E-016,3.0));
#410=VECTOR('',#474,1.0);
#411=CARTESIAN_POINT('',(8.5,-3.67381906146713E-016,-3.0));
#412=AXIS2_PLACEMENT_3D('',#475,#476,#477);
#413=CARTESIAN_POINT('',(30.5,-3.67381906146713E-016,-3.0));
#414=CARTESIAN_POINT('',(19.5,-3.67381906146713E-016,-3.0));
#415=VECTOR('',#478,1.0);
#416=AXIS2_PLACEMENT_3D('',#479,#480,#481);
#417=CARTESIAN_POINT('',(3.5,0.0,2.15000000000001));
#418=CARTESIAN_POINT('',(8.5,0.0,2.15000000000001));
#419=CARTESIAN_POINT('',(6.0,2.63290366071812E-016,2.15000000000001));
#420=VECTOR('',#482,1.0);
#421=CARTESIAN_POINT('',(3.5,-2.63290366071812E-016,-2.15000000000001));
#422=AXIS2_PLACEMENT_3D('',#483,#484,#485);
#423=CARTESIAN_POINT('',(8.5,-2.63290366071812E-016,-2.15000000000001));
#424=CARTESIAN_POINT('',(6.0,-2.63290366071812E-016,-2.15000000000001));
#425=VECTOR('',#486,1.0);
#426=AXIS2_PLACEMENT_3D('',#487,#488,#489);
#427=CARTESIAN_POINT('',(0.381966000000006,0.0,1.0));
#428=CARTESIAN_POINT('',(3.5,0.0,1.0));
#429=CARTESIAN_POINT('',(1.940983,1.22460635382238E-016,1.0));
#430=VECTOR('',#490,1.0);
#431=AXIS2_PLACEMENT_3D('',#491,#492,#493);
#432=CARTESIAN_POINT('',(3.5,-1.22460635382238E-016,-1.0));
#433=CARTESIAN_POINT('',(1.940983,-1.22460635382238E-016,-1.0));
#434=VECTOR('',#494,1.0);
#435=AXIS2_PLACEMENT_3D('',#495,#496,#497);
#436=AXIS2_PLACEMENT_3D('',#498,#499,#500);
#437=AXIS2_PLACEMENT_3D('',#501,#502,#503);
#438=AXIS2_PLACEMENT_3D('',#504,#505,#506);
#439=AXIS2_PLACEMENT_3D('',#507,#508,#509);
#440=AXIS2_PLACEMENT_3D('',#510,#511,#512);
#441=AXIS2_PLACEMENT_3D('',#513,#514,#515);
#442=AXIS2_PLACEMENT_3D('',#516,#517,#518);
#443=AXIS2_PLACEMENT_3D('',#519,#520,#521);
#444=AXIS2_PLACEMENT_3D('',#522,#523,#524);
#445=AXIS2_PLACEMENT_3D('',#525,#526,#527);
#446=CARTESIAN_POINT('',(1.5,1.25779936596335E-008,0.0));
#447=DIRECTION('',(0.0,-1.22460635382238E-016,1.0));
#448=DIRECTION('',(0.0,1.0,1.22460635382238E-016));
#449=CARTESIAN_POINT('',(0.381966000000006,0.0,0.0));
#450=DIRECTION('',(-1.0,0.0,0.0));
#451=DIRECTION('',(0.0,0.0,1.0));
#452=CARTESIAN_POINT('',(0.381966000000006,0.0,0.0));
#453=DIRECTION('',(-1.0,0.0,0.0));
#454=DIRECTION('',(0.0,0.0,1.0));
#455=CARTESIAN_POINT('',(1.5,1.25779936596335E-008,0.0));
#456=DIRECTION('',(0.0,-1.22460635382238E-016,1.0));
#457=DIRECTION('',(0.0,1.0,1.22460635382238E-016));
#458=DIRECTION('',(1.0,-0.0,-0.0));
#459=CARTESIAN_POINT('',(42.0,0.0,0.0));
#460=DIRECTION('',(-1.0,0.0,0.0));
#461=DIRECTION('',(0.0,0.0,1.0));
#462=DIRECTION('',(-1.0,-0.0,-0.0));
#463=CARTESIAN_POINT('',(48.0,0.0,0.0));
#464=DIRECTION('',(-1.0,0.0,0.0));
#465=DIRECTION('',(0.0,0.0,1.0));
#466=DIRECTION('',(1.0,-0.0,-0.0));
#467=CARTESIAN_POINT('',(30.5,0.0,0.0));
#468=DIRECTION('',(-1.0,0.0,0.0));
#469=DIRECTION('',(0.0,0.0,1.0));
#470=DIRECTION('',(-1.0,-0.0,-0.0));
#471=CARTESIAN_POINT('',(42.0,0.0,0.0));
#472=DIRECTION('',(-1.0,0.0,0.0));
#473=DIRECTION('',(0.0,0.0,1.0));
#474=DIRECTION('',(1.0,-0.0,-0.0));
#475=CARTESIAN_POINT('',(8.5,0.0,0.0));
#476=DIRECTION('',(-1.0,0.0,0.0));
#477=DIRECTION('',(0.0,0.0,1.0));
#478=DIRECTION('',(-1.0,-0.0,-0.0));
#479=CARTESIAN_POINT('',(30.5,0.0,0.0));
#480=DIRECTION('',(-1.0,0.0,0.0));
#481=DIRECTION('',(0.0,0.0,1.0));
#482=DIRECTION('',(1.0,-0.0,-0.0));
#483=CARTESIAN_POINT('',(3.5,0.0,0.0));
#484=DIRECTION('',(-1.0,0.0,0.0));
#485=DIRECTION('',(0.0,0.0,1.0));
#486=DIRECTION('',(-1.0,-0.0,-0.0));
#487=CARTESIAN_POINT('',(8.5,0.0,0.0));
#488=DIRECTION('',(-1.0,0.0,0.0));
#489=DIRECTION('',(0.0,0.0,1.0));
#490=DIRECTION('',(1.0,-0.0,-0.0));
#491=CARTESIAN_POINT('',(0.381966000000006,0.0,0.0));
#492=DIRECTION('',(-1.0,0.0,0.0));
#493=DIRECTION('',(0.0,0.0,1.0));
#494=DIRECTION('',(-1.0,-0.0,-0.0));
#495=CARTESIAN_POINT('',(3.5,0.0,0.0));
#496=DIRECTION('',(-1.0,0.0,0.0));
#497=DIRECTION('',(0.0,0.0,1.0));
#498=CARTESIAN_POINT('',(3.5,0.0,0.0));
#499=DIRECTION('',(-1.0,0.0,0.0));
#500=DIRECTION('',(0.0,0.0,1.0));
#501=CARTESIAN_POINT('',(0.381966000000006,0.0,0.0));
#502=DIRECTION('',(-1.0,0.0,0.0));
#503=DIRECTION('',(0.0,0.0,1.0));
#504=CARTESIAN_POINT('',(3.5,0.0,0.0));
#505=DIRECTION('',(-1.0,0.0,0.0));
#506=DIRECTION('',(0.0,0.0,1.0));
#507=CARTESIAN_POINT('',(8.5,0.0,0.0));
#508=DIRECTION('',(-1.0,0.0,0.0));
#509=DIRECTION('',(0.0,0.0,1.0));
#510=CARTESIAN_POINT('',(8.5,0.0,0.0));
#511=DIRECTION('',(-1.0,0.0,0.0));
#512=DIRECTION('',(0.0,0.0,1.0));
#513=CARTESIAN_POINT('',(30.5,0.0,0.0));
#514=DIRECTION('',(-1.0,0.0,0.0));
#515=DIRECTION('',(0.0,0.0,1.0));
#516=CARTESIAN_POINT('',(30.5,0.0,0.0));
#517=DIRECTION('',(-1.0,0.0,0.0));
#518=DIRECTION('',(0.0,0.0,1.0));
#519=CARTESIAN_POINT('',(42.0,0.0,0.0));
#520=DIRECTION('',(-1.0,0.0,0.0));
#521=DIRECTION('',(0.0,0.0,1.0));
#522=CARTESIAN_POINT('',(42.0,0.0,0.0));
#523=DIRECTION('',(-1.0,0.0,0.0));
#524=DIRECTION('',(0.0,0.0,1.0));
#525=CARTESIAN_POINT('',(48.0,0.0,0.0));
#526=DIRECTION('',(-1.0,0.0,0.0));
#527=DIRECTION('',(0.0,0.0,1.0));
ENDSEC;
END-ISO-10303-21;
