ISO-10303-21;
HEADER;
/* Generated by software containing ST-Developer
 * from STEP Tools, Inc. (www.steptools.com) 
 */

FILE_DESCRIPTION(
/* description */ (''),
/* implementation_level */ '2;1');

FILE_NAME(
/* name */ 'G:\\INVENTOR\\WEBSITE SOLIDS\\STP FILES\\DBKT-1.stp',
/* time_stamp */ '2015-08-19T11:29:58-04:00',
/* author */ ('eanderson'),
/* organization */ (''),
/* preprocessor_version */ 'ST-DEVELOPER v15.2',
/* originating_system */ 'Autodesk Inventor 2014',
/* authorisation */ '');

FILE_SCHEMA (('AUTOMOTIVE_DESIGN { 1 0 10303 214 3 1 1 }'));
ENDSEC;

DATA;
#10=SHAPE_REPRESENTATION_RELATIONSHIP('SRR','None',#558,#11);
#11=ADVANCED_BREP_SHAPE_REPRESENTATION($,(#322),#546);
#12=STYLED_ITEM($,(#566),#322);
#13=FACE_BOUND($,#49,.T.);
#14=FACE_BOUND($,#50,.T.);
#15=FACE_BOUND($,#51,.T.);
#16=FACE_BOUND($,#55,.T.);
#17=FACE_BOUND($,#56,.T.);
#18=FACE_BOUND($,#60,.T.);
#19=FACE_BOUND($,#62,.T.);
#20=FACE_BOUND($,#64,.T.);
#21=FACE_BOUND($,#66,.T.);
#22=FACE_BOUND($,#69,.T.);
#23=FACE_BOUND($,#70,.T.);
#24=PLANE($,#327);
#25=PLANE($,#328);
#26=PLANE($,#334);
#27=PLANE($,#340);
#28=PLANE($,#343);
#29=PLANE($,#352);
#30=PLANE($,#355);
#31=PLANE($,#358);
#32=FACE_OUTER_BOUND($,#47,.T.);
#33=FACE_OUTER_BOUND($,#48,.T.);
#34=FACE_OUTER_BOUND($,#52,.T.);
#35=FACE_OUTER_BOUND($,#53,.T.);
#36=FACE_OUTER_BOUND($,#54,.T.);
#37=FACE_OUTER_BOUND($,#57,.T.);
#38=FACE_OUTER_BOUND($,#58,.T.);
#39=FACE_OUTER_BOUND($,#59,.T.);
#40=FACE_OUTER_BOUND($,#61,.T.);
#41=FACE_OUTER_BOUND($,#63,.T.);
#42=FACE_OUTER_BOUND($,#65,.T.);
#43=FACE_OUTER_BOUND($,#67,.T.);
#44=FACE_OUTER_BOUND($,#68,.T.);
#45=FACE_OUTER_BOUND($,#71,.T.);
#46=FACE_OUTER_BOUND($,#72,.T.);
#47=EDGE_LOOP($,(#211,#212,#213,#214));
#48=EDGE_LOOP($,(#215,#216,#217,#218));
#49=EDGE_LOOP($,(#219));
#50=EDGE_LOOP($,(#220));
#51=EDGE_LOOP($,(#221,#222,#223,#224,#225,#226));
#52=EDGE_LOOP($,(#227,#228,#229,#230));
#53=EDGE_LOOP($,(#231,#232,#233,#234,#235,#236,#237,#238));
#54=EDGE_LOOP($,(#239,#240,#241,#242));
#55=EDGE_LOOP($,(#243));
#56=EDGE_LOOP($,(#244,#245,#246,#247,#248,#249));
#57=EDGE_LOOP($,(#250,#251,#252,#253));
#58=EDGE_LOOP($,(#254,#255,#256,#257));
#59=EDGE_LOOP($,(#258));
#60=EDGE_LOOP($,(#259));
#61=EDGE_LOOP($,(#260));
#62=EDGE_LOOP($,(#261));
#63=EDGE_LOOP($,(#262));
#64=EDGE_LOOP($,(#263));
#65=EDGE_LOOP($,(#264,#265,#266,#267,#268,#269));
#66=EDGE_LOOP($,(#270));
#67=EDGE_LOOP($,(#271,#272,#273,#274));
#68=EDGE_LOOP($,(#275,#276,#277,#278,#279,#280));
#69=EDGE_LOOP($,(#281));
#70=EDGE_LOOP($,(#282));
#71=EDGE_LOOP($,(#283,#284,#285,#286));
#72=EDGE_LOOP($,(#287,#288,#289,#290,#291,#292,#293,#294));
#73=LINE($,#461,#97);
#74=LINE($,#464,#98);
#75=LINE($,#467,#99);
#76=LINE($,#469,#100);
#77=LINE($,#470,#101);
#78=LINE($,#477,#102);
#79=LINE($,#479,#103);
#80=LINE($,#481,#104);
#81=LINE($,#485,#105);
#82=LINE($,#491,#106);
#83=LINE($,#493,#107);
#84=LINE($,#495,#108);
#85=LINE($,#498,#109);
#86=LINE($,#504,#110);
#87=LINE($,#509,#111);
#88=LINE($,#513,#112);
#89=LINE($,#514,#113);
#90=LINE($,#517,#114);
#91=LINE($,#518,#115);
#92=LINE($,#522,#116);
#93=LINE($,#534,#117);
#94=LINE($,#535,#118);
#95=LINE($,#540,#119);
#96=LINE($,#541,#120);
#97=VECTOR($,#365,0.0747000000000001);
#98=VECTOR($,#368,0.0747000000000001);
#99=VECTOR($,#371,1.7875);
#100=VECTOR($,#372,0.0747000000000001);
#101=VECTOR($,#373,1.7875);
#102=VECTOR($,#380,0.90675);
#103=VECTOR($,#381,1.85);
#104=VECTOR($,#382,0.90675);
#105=VECTOR($,#387,0.0747000000000001);
#106=VECTOR($,#394,1.87475);
#107=VECTOR($,#395,0.0747);
#108=VECTOR($,#396,1.87305);
#109=VECTOR($,#399,0.90505);
#110=VECTOR($,#406,0.0747);
#111=VECTOR($,#411,1.7875);
#112=VECTOR($,#414,1.87305);
#113=VECTOR($,#415,1.85);
#114=VECTOR($,#418,1.7875);
#115=VECTOR($,#419,0.0747);
#116=VECTOR($,#424,0.0747);
#117=VECTOR($,#439,1.85);
#118=VECTOR($,#440,1.87475);
#119=VECTOR($,#447,1.85);
#120=VECTOR($,#448,0.90505);
#121=CIRCLE($,#325,0.03125);
#122=CIRCLE($,#326,0.03125);
#123=CIRCLE($,#329,0.133);
#124=CIRCLE($,#330,0.133);
#125=CIRCLE($,#331,0.03125);
#126=CIRCLE($,#333,0.03125);
#127=CIRCLE($,#335,0.25);
#128=CIRCLE($,#336,0.177);
#129=CIRCLE($,#338,0.03125);
#130=CIRCLE($,#339,0.03125);
#131=CIRCLE($,#341,0.225);
#132=CIRCLE($,#342,0.03125);
#133=CIRCLE($,#345,0.03125);
#134=CIRCLE($,#347,0.133);
#135=CIRCLE($,#349,0.133);
#136=CIRCLE($,#351,0.225);
#137=CIRCLE($,#354,0.25);
#138=CIRCLE($,#357,0.177);
#139=VERTEX_POINT($,#457);
#140=VERTEX_POINT($,#458);
#141=VERTEX_POINT($,#460);
#142=VERTEX_POINT($,#462);
#143=VERTEX_POINT($,#466);
#144=VERTEX_POINT($,#468);
#145=VERTEX_POINT($,#472);
#146=VERTEX_POINT($,#474);
#147=VERTEX_POINT($,#476);
#148=VERTEX_POINT($,#478);
#149=VERTEX_POINT($,#480);
#150=VERTEX_POINT($,#484);
#151=VERTEX_POINT($,#488);
#152=VERTEX_POINT($,#490);
#153=VERTEX_POINT($,#492);
#154=VERTEX_POINT($,#494);
#155=VERTEX_POINT($,#496);
#156=VERTEX_POINT($,#500);
#157=VERTEX_POINT($,#502);
#158=VERTEX_POINT($,#506);
#159=VERTEX_POINT($,#508);
#160=VERTEX_POINT($,#510);
#161=VERTEX_POINT($,#512);
#162=VERTEX_POINT($,#516);
#163=VERTEX_POINT($,#520);
#164=VERTEX_POINT($,#524);
#165=VERTEX_POINT($,#527);
#166=VERTEX_POINT($,#530);
#167=VERTEX_POINT($,#533);
#168=VERTEX_POINT($,#539);
#169=EDGE_CURVE($,#139,#140,#121,.T.);
#170=EDGE_CURVE($,#140,#141,#73,.T.);
#171=EDGE_CURVE($,#141,#142,#122,.T.);
#172=EDGE_CURVE($,#142,#139,#74,.T.);
#173=EDGE_CURVE($,#140,#143,#75,.T.);
#174=EDGE_CURVE($,#144,#143,#76,.T.);
#175=EDGE_CURVE($,#141,#144,#77,.T.);
#176=EDGE_CURVE($,#145,#145,#123,.T.);
#177=EDGE_CURVE($,#146,#146,#124,.T.);
#178=EDGE_CURVE($,#139,#147,#78,.T.);
#179=EDGE_CURVE($,#147,#148,#79,.T.);
#180=EDGE_CURVE($,#149,#148,#80,.T.);
#181=EDGE_CURVE($,#143,#149,#125,.T.);
#182=EDGE_CURVE($,#149,#150,#81,.T.);
#183=EDGE_CURVE($,#150,#144,#126,.T.);
#184=EDGE_CURVE($,#148,#151,#127,.T.);
#185=EDGE_CURVE($,#151,#152,#82,.T.);
#186=EDGE_CURVE($,#153,#152,#83,.T.);
#187=EDGE_CURVE($,#153,#154,#84,.T.);
#188=EDGE_CURVE($,#154,#155,#128,.T.);
#189=EDGE_CURVE($,#155,#150,#85,.T.);
#190=EDGE_CURVE($,#156,#153,#129,.T.);
#191=EDGE_CURVE($,#152,#157,#130,.T.);
#192=EDGE_CURVE($,#157,#156,#86,.T.);
#193=EDGE_CURVE($,#158,#158,#131,.T.);
#194=EDGE_CURVE($,#159,#156,#87,.T.);
#195=EDGE_CURVE($,#160,#159,#132,.T.);
#196=EDGE_CURVE($,#160,#161,#88,.T.);
#197=EDGE_CURVE($,#161,#154,#89,.T.);
#198=EDGE_CURVE($,#162,#157,#90,.T.);
#199=EDGE_CURVE($,#159,#162,#91,.T.);
#200=EDGE_CURVE($,#162,#163,#133,.T.);
#201=EDGE_CURVE($,#163,#160,#92,.T.);
#202=EDGE_CURVE($,#164,#164,#134,.T.);
#203=EDGE_CURVE($,#165,#165,#135,.T.);
#204=EDGE_CURVE($,#166,#166,#136,.T.);
#205=EDGE_CURVE($,#167,#151,#93,.T.);
#206=EDGE_CURVE($,#167,#163,#94,.T.);
#207=EDGE_CURVE($,#147,#167,#137,.T.);
#208=EDGE_CURVE($,#168,#155,#95,.T.);
#209=EDGE_CURVE($,#168,#142,#96,.T.);
#210=EDGE_CURVE($,#161,#168,#138,.T.);
#211=ORIENTED_EDGE($,*,*,#169,.T.);
#212=ORIENTED_EDGE($,*,*,#170,.T.);
#213=ORIENTED_EDGE($,*,*,#171,.T.);
#214=ORIENTED_EDGE($,*,*,#172,.T.);
#215=ORIENTED_EDGE($,*,*,#170,.F.);
#216=ORIENTED_EDGE($,*,*,#173,.T.);
#217=ORIENTED_EDGE($,*,*,#174,.F.);
#218=ORIENTED_EDGE($,*,*,#175,.F.);
#219=ORIENTED_EDGE($,*,*,#176,.T.);
#220=ORIENTED_EDGE($,*,*,#177,.T.);
#221=ORIENTED_EDGE($,*,*,#169,.F.);
#222=ORIENTED_EDGE($,*,*,#178,.T.);
#223=ORIENTED_EDGE($,*,*,#179,.T.);
#224=ORIENTED_EDGE($,*,*,#180,.F.);
#225=ORIENTED_EDGE($,*,*,#181,.F.);
#226=ORIENTED_EDGE($,*,*,#173,.F.);
#227=ORIENTED_EDGE($,*,*,#181,.T.);
#228=ORIENTED_EDGE($,*,*,#182,.T.);
#229=ORIENTED_EDGE($,*,*,#183,.T.);
#230=ORIENTED_EDGE($,*,*,#174,.T.);
#231=ORIENTED_EDGE($,*,*,#182,.F.);
#232=ORIENTED_EDGE($,*,*,#180,.T.);
#233=ORIENTED_EDGE($,*,*,#184,.T.);
#234=ORIENTED_EDGE($,*,*,#185,.T.);
#235=ORIENTED_EDGE($,*,*,#186,.F.);
#236=ORIENTED_EDGE($,*,*,#187,.T.);
#237=ORIENTED_EDGE($,*,*,#188,.T.);
#238=ORIENTED_EDGE($,*,*,#189,.T.);
#239=ORIENTED_EDGE($,*,*,#190,.T.);
#240=ORIENTED_EDGE($,*,*,#186,.T.);
#241=ORIENTED_EDGE($,*,*,#191,.T.);
#242=ORIENTED_EDGE($,*,*,#192,.T.);
#243=ORIENTED_EDGE($,*,*,#193,.T.);
#244=ORIENTED_EDGE($,*,*,#190,.F.);
#245=ORIENTED_EDGE($,*,*,#194,.F.);
#246=ORIENTED_EDGE($,*,*,#195,.F.);
#247=ORIENTED_EDGE($,*,*,#196,.T.);
#248=ORIENTED_EDGE($,*,*,#197,.T.);
#249=ORIENTED_EDGE($,*,*,#187,.F.);
#250=ORIENTED_EDGE($,*,*,#192,.F.);
#251=ORIENTED_EDGE($,*,*,#198,.F.);
#252=ORIENTED_EDGE($,*,*,#199,.F.);
#253=ORIENTED_EDGE($,*,*,#194,.T.);
#254=ORIENTED_EDGE($,*,*,#195,.T.);
#255=ORIENTED_EDGE($,*,*,#199,.T.);
#256=ORIENTED_EDGE($,*,*,#200,.T.);
#257=ORIENTED_EDGE($,*,*,#201,.T.);
#258=ORIENTED_EDGE($,*,*,#176,.F.);
#259=ORIENTED_EDGE($,*,*,#202,.F.);
#260=ORIENTED_EDGE($,*,*,#177,.F.);
#261=ORIENTED_EDGE($,*,*,#203,.F.);
#262=ORIENTED_EDGE($,*,*,#204,.F.);
#263=ORIENTED_EDGE($,*,*,#193,.F.);
#264=ORIENTED_EDGE($,*,*,#191,.F.);
#265=ORIENTED_EDGE($,*,*,#185,.F.);
#266=ORIENTED_EDGE($,*,*,#205,.F.);
#267=ORIENTED_EDGE($,*,*,#206,.T.);
#268=ORIENTED_EDGE($,*,*,#200,.F.);
#269=ORIENTED_EDGE($,*,*,#198,.T.);
#270=ORIENTED_EDGE($,*,*,#204,.T.);
#271=ORIENTED_EDGE($,*,*,#207,.T.);
#272=ORIENTED_EDGE($,*,*,#205,.T.);
#273=ORIENTED_EDGE($,*,*,#184,.F.);
#274=ORIENTED_EDGE($,*,*,#179,.F.);
#275=ORIENTED_EDGE($,*,*,#171,.F.);
#276=ORIENTED_EDGE($,*,*,#175,.T.);
#277=ORIENTED_EDGE($,*,*,#183,.F.);
#278=ORIENTED_EDGE($,*,*,#189,.F.);
#279=ORIENTED_EDGE($,*,*,#208,.F.);
#280=ORIENTED_EDGE($,*,*,#209,.T.);
#281=ORIENTED_EDGE($,*,*,#202,.T.);
#282=ORIENTED_EDGE($,*,*,#203,.T.);
#283=ORIENTED_EDGE($,*,*,#210,.T.);
#284=ORIENTED_EDGE($,*,*,#208,.T.);
#285=ORIENTED_EDGE($,*,*,#188,.F.);
#286=ORIENTED_EDGE($,*,*,#197,.F.);
#287=ORIENTED_EDGE($,*,*,#172,.F.);
#288=ORIENTED_EDGE($,*,*,#209,.F.);
#289=ORIENTED_EDGE($,*,*,#210,.F.);
#290=ORIENTED_EDGE($,*,*,#196,.F.);
#291=ORIENTED_EDGE($,*,*,#201,.F.);
#292=ORIENTED_EDGE($,*,*,#206,.F.);
#293=ORIENTED_EDGE($,*,*,#207,.F.);
#294=ORIENTED_EDGE($,*,*,#178,.F.);
#295=CYLINDRICAL_SURFACE($,#324,0.03125);
#296=CYLINDRICAL_SURFACE($,#332,0.03125);
#297=CYLINDRICAL_SURFACE($,#337,0.03125);
#298=CYLINDRICAL_SURFACE($,#344,0.03125);
#299=CYLINDRICAL_SURFACE($,#346,0.133);
#300=CYLINDRICAL_SURFACE($,#348,0.133);
#301=CYLINDRICAL_SURFACE($,#350,0.225);
#302=CYLINDRICAL_SURFACE($,#353,0.25);
#303=CYLINDRICAL_SURFACE($,#356,0.177);
#304=ADVANCED_FACE($,(#32),#295,.T.);
#305=ADVANCED_FACE($,(#33),#24,.T.);
#306=ADVANCED_FACE($,(#13,#14,#15),#25,.T.);
#307=ADVANCED_FACE($,(#34),#296,.T.);
#308=ADVANCED_FACE($,(#35),#26,.T.);
#309=ADVANCED_FACE($,(#36),#297,.T.);
#310=ADVANCED_FACE($,(#16,#17),#27,.T.);
#311=ADVANCED_FACE($,(#37),#28,.T.);
#312=ADVANCED_FACE($,(#38),#298,.T.);
#313=ADVANCED_FACE($,(#39,#18),#299,.F.);
#314=ADVANCED_FACE($,(#40,#19),#300,.F.);
#315=ADVANCED_FACE($,(#41,#20),#301,.F.);
#316=ADVANCED_FACE($,(#42,#21),#29,.T.);
#317=ADVANCED_FACE($,(#43),#302,.T.);
#318=ADVANCED_FACE($,(#44,#22,#23),#30,.T.);
#319=ADVANCED_FACE($,(#45),#303,.F.);
#320=ADVANCED_FACE($,(#46),#31,.F.);
#321=CLOSED_SHELL($,(#304,#305,#306,#307,#308,#309,#310,#311,#312,#313,
#314,#315,#316,#317,#318,#319,#320));
#322=MANIFOLD_SOLID_BREP('Solid1',#321);
#323=AXIS2_PLACEMENT_3D('placement',#455,#359,#360);
#324=AXIS2_PLACEMENT_3D($,#456,#361,#362);
#325=AXIS2_PLACEMENT_3D($,#459,#363,#364);
#326=AXIS2_PLACEMENT_3D($,#463,#366,#367);
#327=AXIS2_PLACEMENT_3D($,#465,#369,#370);
#328=AXIS2_PLACEMENT_3D($,#471,#374,#375);
#329=AXIS2_PLACEMENT_3D($,#473,#376,#377);
#330=AXIS2_PLACEMENT_3D($,#475,#378,#379);
#331=AXIS2_PLACEMENT_3D($,#482,#383,#384);
#332=AXIS2_PLACEMENT_3D($,#483,#385,#386);
#333=AXIS2_PLACEMENT_3D($,#486,#388,#389);
#334=AXIS2_PLACEMENT_3D($,#487,#390,#391);
#335=AXIS2_PLACEMENT_3D($,#489,#392,#393);
#336=AXIS2_PLACEMENT_3D($,#497,#397,#398);
#337=AXIS2_PLACEMENT_3D($,#499,#400,#401);
#338=AXIS2_PLACEMENT_3D($,#501,#402,#403);
#339=AXIS2_PLACEMENT_3D($,#503,#404,#405);
#340=AXIS2_PLACEMENT_3D($,#505,#407,#408);
#341=AXIS2_PLACEMENT_3D($,#507,#409,#410);
#342=AXIS2_PLACEMENT_3D($,#511,#412,#413);
#343=AXIS2_PLACEMENT_3D($,#515,#416,#417);
#344=AXIS2_PLACEMENT_3D($,#519,#420,#421);
#345=AXIS2_PLACEMENT_3D($,#521,#422,#423);
#346=AXIS2_PLACEMENT_3D($,#523,#425,#426);
#347=AXIS2_PLACEMENT_3D($,#525,#427,#428);
#348=AXIS2_PLACEMENT_3D($,#526,#429,#430);
#349=AXIS2_PLACEMENT_3D($,#528,#431,#432);
#350=AXIS2_PLACEMENT_3D($,#529,#433,#434);
#351=AXIS2_PLACEMENT_3D($,#531,#435,#436);
#352=AXIS2_PLACEMENT_3D($,#532,#437,#438);
#353=AXIS2_PLACEMENT_3D($,#536,#441,#442);
#354=AXIS2_PLACEMENT_3D($,#537,#443,#444);
#355=AXIS2_PLACEMENT_3D($,#538,#445,#446);
#356=AXIS2_PLACEMENT_3D($,#542,#449,#450);
#357=AXIS2_PLACEMENT_3D($,#543,#451,#452);
#358=AXIS2_PLACEMENT_3D($,#544,#453,#454);
#359=DIRECTION('axis',(0.,0.,1.));
#360=DIRECTION('refdir',(1.,0.,0.));
#361=DIRECTION('center_axis',(0.,-1.,0.));
#362=DIRECTION('ref_axis',(-0.707106781186549,0.,0.707106781186546));
#363=DIRECTION('center_axis',(0.,1.,0.));
#364=DIRECTION('ref_axis',(-0.707106781186549,0.,0.707106781186546));
#365=DIRECTION($,(0.,1.,0.));
#366=DIRECTION('center_axis',(0.,-1.,0.));
#367=DIRECTION('ref_axis',(-0.707106781186549,0.,0.707106781186546));
#368=DIRECTION($,(0.,-1.,0.));
#369=DIRECTION('center_axis',(0.,0.,1.));
#370=DIRECTION('ref_axis',(0.,-1.,0.));
#371=DIRECTION($,(1.,0.,0.));
#372=DIRECTION($,(0.,-1.,0.));
#373=DIRECTION($,(1.,0.,0.));
#374=DIRECTION('center_axis',(0.,-1.,0.));
#375=DIRECTION('ref_axis',(0.,0.,-1.));
#376=DIRECTION('center_axis',(0.,1.,0.));
#377=DIRECTION('ref_axis',(-1.,0.,0.));
#378=DIRECTION('center_axis',(0.,1.,0.));
#379=DIRECTION('ref_axis',(-1.,0.,0.));
#380=DIRECTION($,(0.,0.,-1.));
#381=DIRECTION($,(1.,0.,0.));
#382=DIRECTION($,(0.,0.,-1.));
#383=DIRECTION('center_axis',(0.,1.,0.));
#384=DIRECTION('ref_axis',(0.707106781186543,0.,0.707106781186552));
#385=DIRECTION('center_axis',(0.,-1.,0.));
#386=DIRECTION('ref_axis',(0.707106781186543,0.,0.707106781186552));
#387=DIRECTION($,(0.,1.,0.));
#388=DIRECTION('center_axis',(0.,-1.,0.));
#389=DIRECTION('ref_axis',(0.707106781186543,0.,0.707106781186552));
#390=DIRECTION('center_axis',(1.,0.,0.));
#391=DIRECTION('ref_axis',(0.,0.,-1.));
#392=DIRECTION('center_axis',(1.,0.,0.));
#393=DIRECTION('ref_axis',(0.,-1.,-5.24514814783538E-016));
#394=DIRECTION($,(0.,1.,1.8346093556612E-016));
#395=DIRECTION($,(0.,0.,-1.));
#396=DIRECTION($,(0.,-1.,-2.18054348073816E-016));
#397=DIRECTION('center_axis',(-1.,0.,0.));
#398=DIRECTION('ref_axis',(0.,1.,1.48168026775011E-015));
#399=DIRECTION($,(0.,0.,1.));
#400=DIRECTION('center_axis',(0.,0.,1.));
#401=DIRECTION('ref_axis',(0.707106781186543,0.707106781186552,0.));
#402=DIRECTION('center_axis',(0.,2.18054348073816E-016,-1.));
#403=DIRECTION('ref_axis',(0.707106781186543,0.707106781186552,0.));
#404=DIRECTION('center_axis',(0.,-1.8346093556612E-016,1.));
#405=DIRECTION('ref_axis',(0.707106781186543,0.707106781186552,0.));
#406=DIRECTION($,(0.,0.,1.));
#407=DIRECTION('center_axis',(0.,-2.18054348073816E-016,1.));
#408=DIRECTION('ref_axis',(0.,-1.,-2.11497486191092E-016));
#409=DIRECTION('center_axis',(0.,2.18054348073816E-016,-1.));
#410=DIRECTION('ref_axis',(-1.,0.,0.));
#411=DIRECTION($,(1.,0.,0.));
#412=DIRECTION('center_axis',(0.,2.18054348073816E-016,-1.));
#413=DIRECTION('ref_axis',(-0.707106781186547,0.707106781186548,0.));
#414=DIRECTION($,(0.,-1.,-2.18054348073816E-016));
#415=DIRECTION($,(1.,0.,0.));
#416=DIRECTION('center_axis',(0.,1.,0.));
#417=DIRECTION('ref_axis',(0.,0.,1.));
#418=DIRECTION($,(1.,0.,0.));
#419=DIRECTION($,(0.,0.,-1.));
#420=DIRECTION('center_axis',(0.,0.,1.));
#421=DIRECTION('ref_axis',(-0.707106781186547,0.707106781186548,0.));
#422=DIRECTION('center_axis',(0.,-1.8346093556612E-016,1.));
#423=DIRECTION('ref_axis',(-0.707106781186547,0.707106781186548,0.));
#424=DIRECTION($,(0.,0.,1.));
#425=DIRECTION('center_axis',(0.,-1.,0.));
#426=DIRECTION('ref_axis',(-1.,0.,0.));
#427=DIRECTION('center_axis',(0.,-1.,0.));
#428=DIRECTION('ref_axis',(-1.,0.,0.));
#429=DIRECTION('center_axis',(0.,-1.,0.));
#430=DIRECTION('ref_axis',(-1.,0.,0.));
#431=DIRECTION('center_axis',(0.,-1.,0.));
#432=DIRECTION('ref_axis',(-1.,0.,0.));
#433=DIRECTION('center_axis',(0.,0.,-1.));
#434=DIRECTION('ref_axis',(-1.,0.,0.));
#435=DIRECTION('center_axis',(0.,-1.8346093556612E-016,1.));
#436=DIRECTION('ref_axis',(-1.,0.,0.));
#437=DIRECTION('center_axis',(0.,1.8346093556612E-016,-1.));
#438=DIRECTION('ref_axis',(0.,1.,1.8346093556612E-016));
#439=DIRECTION($,(1.,0.,0.));
#440=DIRECTION($,(0.,1.,1.8346093556612E-016));
#441=DIRECTION('center_axis',(1.,0.,0.));
#442=DIRECTION('ref_axis',(0.,-1.,-5.24514814783538E-016));
#443=DIRECTION('center_axis',(1.,0.,0.));
#444=DIRECTION('ref_axis',(0.,-1.,-5.24514814783538E-016));
#445=DIRECTION('center_axis',(0.,1.,0.));
#446=DIRECTION('ref_axis',(0.,0.,1.));
#447=DIRECTION($,(1.,0.,0.));
#448=DIRECTION($,(0.,0.,1.));
#449=DIRECTION('center_axis',(1.,0.,0.));
#450=DIRECTION('ref_axis',(0.,1.,1.48168026775011E-015));
#451=DIRECTION('center_axis',(-1.,0.,0.));
#452=DIRECTION('ref_axis',(0.,1.,1.48168026775011E-015));
#453=DIRECTION('center_axis',(1.,0.,0.));
#454=DIRECTION('ref_axis',(0.,0.,-1.));
#455=CARTESIAN_POINT('',(0.,0.,0.));
#456=CARTESIAN_POINT('Origin',(0.03125,-1.7340119666085,1.15675));
#457=CARTESIAN_POINT('',(0.,-2.156,1.15675));
#458=CARTESIAN_POINT('',(0.03125,-2.156,1.188));
#459=CARTESIAN_POINT('Origin',(0.03125,-2.156,1.15675));
#460=CARTESIAN_POINT('',(0.03125,-2.0813,1.188));
#461=CARTESIAN_POINT($,(0.03125,-1.7340119666085,1.188));
#462=CARTESIAN_POINT('',(0.,-2.0813,1.15675));
#463=CARTESIAN_POINT('Origin',(0.03125,-2.0813,1.15675));
#464=CARTESIAN_POINT($,(0.,-1.7340119666085,1.15675));
#465=CARTESIAN_POINT('Origin',(0.,-2.0813,1.188));
#466=CARTESIAN_POINT('',(1.81875,-2.156,1.188));
#467=CARTESIAN_POINT($,(0.,-2.156,1.188));
#468=CARTESIAN_POINT('',(1.81875,-2.0813,1.188));
#469=CARTESIAN_POINT($,(1.81875,-1.7340119666085,1.188));
#470=CARTESIAN_POINT($,(0.,-2.0813,1.188));
#471=CARTESIAN_POINT('Origin',(0.,-2.156,1.188));
#472=CARTESIAN_POINT('',(0.433,-2.156,0.594));
#473=CARTESIAN_POINT('Origin',(0.3,-2.156,0.594));
#474=CARTESIAN_POINT('',(1.683,-2.156,0.594));
#475=CARTESIAN_POINT('Origin',(1.55,-2.156,0.594));
#476=CARTESIAN_POINT('',(0.,-2.156,0.25));
#477=CARTESIAN_POINT($,(0.,-2.156,1.188));
#478=CARTESIAN_POINT('',(1.85,-2.156,0.25));
#479=CARTESIAN_POINT($,(0.,-2.156,0.25));
#480=CARTESIAN_POINT('',(1.85,-2.156,1.15675));
#481=CARTESIAN_POINT($,(1.85,-2.156,1.188));
#482=CARTESIAN_POINT('Origin',(1.81875,-2.156,1.15675));
#483=CARTESIAN_POINT('Origin',(1.81875,-1.7340119666085,1.15675));
#484=CARTESIAN_POINT('',(1.85,-2.0813,1.15675));
#485=CARTESIAN_POINT($,(1.85,-1.7340119666085,1.15675));
#486=CARTESIAN_POINT('Origin',(1.81875,-2.0813,1.15675));
#487=CARTESIAN_POINT('Origin',(1.85,-1.386723933217,0.25847162860948));
#488=CARTESIAN_POINT('',(1.85,-1.906,-3.49676543189026E-016));
#489=CARTESIAN_POINT('Origin',(1.85,-1.906,0.25));
#490=CARTESIAN_POINT('',(1.85,-0.0312499999999999,-5.73315423644127E-018));
#491=CARTESIAN_POINT($,(1.85,-1.906,-3.49676543189026E-016));
#492=CARTESIAN_POINT('',(1.85,-0.03125,0.0747));
#493=CARTESIAN_POINT($,(1.85,-0.03125,0.12923581430474));
#494=CARTESIAN_POINT('',(1.85,-1.9043,0.0746999999999996));
#495=CARTESIAN_POINT($,(1.85,0.,0.0747));
#496=CARTESIAN_POINT('',(1.85,-2.0813,0.2517));
#497=CARTESIAN_POINT('Origin',(1.85,-1.9043,0.2517));
#498=CARTESIAN_POINT($,(1.85,-2.0813,0.2517));
#499=CARTESIAN_POINT('Origin',(1.81875,-0.03125,0.12923581430474));
#500=CARTESIAN_POINT('',(1.81875,0.,0.0747));
#501=CARTESIAN_POINT('Origin',(1.81875,-0.03125,0.0747));
#502=CARTESIAN_POINT('',(1.81875,0.,0.));
#503=CARTESIAN_POINT('Origin',(1.81875,-0.03125,-3.49676543189026E-016));
#504=CARTESIAN_POINT($,(1.81875,0.,0.12923581430474));
#505=CARTESIAN_POINT('Origin',(0.,0.,0.0747));
#506=CARTESIAN_POINT('',(1.15,-0.925,0.0746999999999998));
#507=CARTESIAN_POINT('Origin',(0.925,-0.925,0.0747));
#508=CARTESIAN_POINT('',(0.03125,0.,0.0747));
#509=CARTESIAN_POINT($,(0.,0.,0.0747));
#510=CARTESIAN_POINT('',(0.,-0.0312500000000001,0.0747));
#511=CARTESIAN_POINT('Origin',(0.03125,-0.0312500000000001,0.0747));
#512=CARTESIAN_POINT('',(0.,-1.9043,0.0746999999999996));
#513=CARTESIAN_POINT($,(0.,0.,0.0747));
#514=CARTESIAN_POINT($,(0.,-1.9043,0.0746999999999996));
#515=CARTESIAN_POINT('Origin',(0.,0.,0.));
#516=CARTESIAN_POINT('',(0.03125,0.,0.));
#517=CARTESIAN_POINT($,(0.,0.,0.));
#518=CARTESIAN_POINT($,(0.03125,0.,0.12923581430474));
#519=CARTESIAN_POINT('Origin',(0.03125,-0.0312500000000001,0.12923581430474));
#520=CARTESIAN_POINT('',(0.,-0.0312500000000003,-5.73315423644134E-018));
#521=CARTESIAN_POINT('Origin',(0.03125,-0.0312500000000001,-3.49676543189026E-016));
#522=CARTESIAN_POINT($,(0.,-0.0312500000000001,0.12923581430474));
#523=CARTESIAN_POINT('Origin',(0.3,-2.0813,0.594));
#524=CARTESIAN_POINT('',(0.433,-2.0813,0.594));
#525=CARTESIAN_POINT('Origin',(0.3,-2.0813,0.594));
#526=CARTESIAN_POINT('Origin',(1.55,-2.0813,0.594));
#527=CARTESIAN_POINT('',(1.683,-2.0813,0.594));
#528=CARTESIAN_POINT('Origin',(1.55,-2.0813,0.594));
#529=CARTESIAN_POINT('Origin',(0.925,-0.925,0.0746999999999998));
#530=CARTESIAN_POINT('',(1.15,-0.925,-3.49676543189026E-016));
#531=CARTESIAN_POINT('Origin',(0.925,-0.925,-3.49676543189026E-016));
#532=CARTESIAN_POINT('Origin',(0.,-1.906,-3.49676543189026E-016));
#533=CARTESIAN_POINT('',(0.,-1.906,-3.49676543189026E-016));
#534=CARTESIAN_POINT($,(0.,-1.906,-3.49676543189026E-016));
#535=CARTESIAN_POINT($,(0.,-1.906,-3.49676543189026E-016));
#536=CARTESIAN_POINT('Origin',(0.,-1.906,0.25));
#537=CARTESIAN_POINT('Origin',(0.,-1.906,0.25));
#538=CARTESIAN_POINT('Origin',(0.,-2.0813,0.2517));
#539=CARTESIAN_POINT('',(0.,-2.0813,0.2517));
#540=CARTESIAN_POINT($,(0.,-2.0813,0.2517));
#541=CARTESIAN_POINT($,(0.,-2.0813,0.2517));
#542=CARTESIAN_POINT('Origin',(0.,-1.9043,0.2517));
#543=CARTESIAN_POINT('Origin',(0.,-1.9043,0.2517));
#544=CARTESIAN_POINT('Origin',(0.,-1.386723933217,0.25847162860948));
#545=UNCERTAINTY_MEASURE_WITH_UNIT(LENGTH_MEASURE(0.000393700787401575),
#547,'DISTANCE_ACCURACY_VALUE',
'Maximum model space distance between geometric entities at asserted c
onnectivities');
#546=(
GEOMETRIC_REPRESENTATION_CONTEXT(3)
GLOBAL_UNCERTAINTY_ASSIGNED_CONTEXT((#545))
GLOBAL_UNIT_ASSIGNED_CONTEXT((#547,#553,#550))
REPRESENTATION_CONTEXT('','3D')
);
#547=(
CONVERSION_BASED_UNIT('__CONSTANT UNIT inch',#549)
LENGTH_UNIT()
NAMED_UNIT(#552)
);
#548=(
LENGTH_UNIT()
NAMED_UNIT(*)
SI_UNIT(.MILLI.,.METRE.)
);
#549=LENGTH_MEASURE_WITH_UNIT(LENGTH_MEASURE(25.4),#548);
#550=(
NAMED_UNIT(*)
SI_UNIT($,.STERADIAN.)
SOLID_ANGLE_UNIT()
);
#551=DIMENSIONAL_EXPONENTS(0.,0.,0.,0.,0.,0.,0.);
#552=DIMENSIONAL_EXPONENTS(1.,0.,0.,0.,0.,0.,0.);
#553=(
CONVERSION_BASED_UNIT('degree',#555)
NAMED_UNIT(#551)
PLANE_ANGLE_UNIT()
);
#554=(
NAMED_UNIT(*)
PLANE_ANGLE_UNIT()
SI_UNIT($,.RADIAN.)
);
#555=PLANE_ANGLE_MEASURE_WITH_UNIT(PLANE_ANGLE_MEASURE(0.01745329252),#554);
#556=SHAPE_DEFINITION_REPRESENTATION(#557,#558);
#557=PRODUCT_DEFINITION_SHAPE('',$,#560);
#558=SHAPE_REPRESENTATION('',(#323),#546);
#559=PRODUCT_DEFINITION_CONTEXT('3D Mechanical Parts',#563,'design');
#560=PRODUCT_DEFINITION('707045','707045',#561,#559);
#561=PRODUCT_DEFINITION_FORMATION('',$,#565);
#562=APPLICATION_PROTOCOL_DEFINITION('international standard',
'automotive_design',2009,#563);
#563=APPLICATION_CONTEXT(
'Core Data for Automotive Mechanical Design Process');
#564=PRODUCT_CONTEXT('3D Mechanical Parts',#563,'mechanical');
#565=PRODUCT('707045','707045',$,(#564));
#566=PRESENTATION_STYLE_ASSIGNMENT((#567));
#567=SURFACE_STYLE_USAGE(.BOTH.,#568);
#568=SURFACE_SIDE_STYLE($,(#569));
#569=SURFACE_STYLE_FILL_AREA(#570);
#570=FILL_AREA_STYLE($,(#571));
#571=FILL_AREA_STYLE_COLOUR($,#572);
#572=COLOUR_RGB('',0.749019607843137,0.749019607843137,0.749019607843137);
ENDSEC;
END-ISO-10303-21;
