ISO-10303-21;
HEADER;
FILE_DESCRIPTION (( 'STEP AP203' ),
    '1' );
FILE_NAME ('DPF-9.step',
    '2020-12-14T22:13:26',
    ( '' ),
    ( '' ),
    'SwSTEP 2.0',
    'SolidWorks 2019',
    '' );
FILE_SCHEMA (( 'CONFIG_CONTROL_DESIGN' ));
ENDSEC;

DATA;
#1 = FACE_BOUND ( 'NONE', #94, .T. ) ;
#2 = DIRECTION ( 'NONE',  ( 0.0000000000000000000, 0.0000000000000000000, 1.000000000000000000 ) ) ;
#3 = DATE_AND_TIME ( #164, #161 ) ;
#4 = ORIENTED_EDGE ( 'NONE', *, *, #198, .T. ) ;
#5 = PERSON_AND_ORGANIZATION ( #59, #222 ) ;
#6 = EDGE_LOOP ( 'NONE', ( #34, #43 ) ) ;
#7 = ORIENTED_EDGE ( 'NONE', *, *, #118, .T. ) ;
#8 = SHAPE_DEFINITION_REPRESENTATION ( #137, #172 ) ;
#9 = EDGE_CURVE ( 'NONE', #225, #243, #56, .T. ) ;
#10 = DIRECTION ( 'NONE',  ( 1.000000000000000000, 0.0000000000000000000, 0.0000000000000000000 ) ) ;
#11 = CARTESIAN_POINT ( 'NONE',  ( -1.043307086614173151, 1.277682684149797662E-16, 0.0000000000000000000 ) ) ;
#12 = MANIFOLD_SOLID_BREP ( 'Imported1', #112 ) ;
#13 = LINE ( 'NONE', #11, #163 ) ;
#14 = CALENDAR_DATE ( 2020, 14, 12 ) ;
#15 = AXIS2_PLACEMENT_3D ( 'NONE', #173, #127, #10 ) ;
#16 = DIRECTION ( 'NONE',  ( 1.000000000000000000, 0.0000000000000000000, 0.0000000000000000000 ) ) ;
#17 = LOCAL_TIME ( 17, 13, 26.00000000000000000, #214 ) ;
#18 = DIRECTION ( 'NONE',  ( 0.0000000000000000000, 0.0000000000000000000, 1.000000000000000000 ) ) ;
#19 = APPROVAL ( #105, 'UNSPECIFIED' ) ;
#20 = AXIS2_PLACEMENT_3D ( 'NONE', #33, #196, #106 ) ;
#21 = LOCAL_TIME ( 17, 13, 26.00000000000000000, #88 ) ;
#22 = CARTESIAN_POINT ( 'NONE',  ( 0.0000000000000000000, 0.0000000000000000000, 0.0000000000000000000 ) ) ;
#23 = EDGE_CURVE ( 'NONE', #123, #229, #169, .T. ) ;
#24 = CARTESIAN_POINT ( 'NONE',  ( 0.0000000000000000000, 0.0000000000000000000, 0.0000000000000000000 ) ) ;
#25 = AXIS2_PLACEMENT_3D ( 'NONE', #92, #248, #176 ) ;
#26 = APPROVAL_ROLE ( '' ) ;
#27 = VERTEX_POINT ( 'NONE', #130 ) ;
#28 = APPROVAL_PERSON_ORGANIZATION ( #49, #19, #146 ) ;
#29 = CIRCLE ( 'NONE', #25, 0.6003937007874016185 ) ;
#30 = CARTESIAN_POINT ( 'NONE',  ( 0.0000000000000000000, 0.0000000000000000000, 0.0000000000000000000 ) ) ;
#31 = ORIENTED_EDGE ( 'NONE', *, *, #76, .F. ) ;
#32 = ADVANCED_FACE ( 'NONE', ( #90 ), #245, .T. ) ;
#33 = CARTESIAN_POINT ( 'NONE',  ( 0.0000000000000000000, 0.0000000000000000000, 0.01968503937007873988 ) ) ;
#34 = ORIENTED_EDGE ( 'NONE', *, *, #251, .F. ) ;
#35 = DIRECTION ( 'NONE',  ( -0.0000000000000000000, -0.0000000000000000000, -1.000000000000000000 ) ) ;
#36 = CARTESIAN_POINT ( 'NONE',  ( 0.0000000000000000000, 0.0000000000000000000, 0.0000000000000000000 ) ) ;
#37 = CARTESIAN_POINT ( 'NONE',  ( -0.6003937007874016185, 7.352702238975251229E-17, 0.01968503937007873988 ) ) ;
#38 = CARTESIAN_POINT ( 'NONE',  ( -1.043307086614173151, 1.277682684149797662E-16, 0.01968503937007873988 ) ) ;
#39 = CC_DESIGN_PERSON_AND_ORGANIZATION_ASSIGNMENT ( #70, #167, ( #238 ) ) ;
#40 = DIRECTION ( 'NONE',  ( 0.0000000000000000000, 0.0000000000000000000, 1.000000000000000000 ) ) ;
#41 = CIRCLE ( 'NONE', #159, 1.043307086614173151 ) ;
#42 = PERSON_AND_ORGANIZATION_ROLE ( 'creator' ) ;
#43 = ORIENTED_EDGE ( 'NONE', *, *, #179, .F. ) ;
#44 = VECTOR ( 'NONE', #116, 39.37007874015748143 ) ;
#45 = ORIENTED_EDGE ( 'NONE', *, *, #148, .T. ) ;
#46 = CARTESIAN_POINT ( 'NONE',  ( 0.0000000000000000000, 0.0000000000000000000, 0.01968503937007873988 ) ) ;
#47 = CYLINDRICAL_SURFACE ( 'NONE', #93, 0.6003937007874016185 ) ;
#48 = APPLICATION_CONTEXT ( 'configuration controlled 3d designs of mechanical parts and assemblies' ) ;
#49 = PERSON_AND_ORGANIZATION ( #59, #222 ) ;
#50 = DIRECTION ( 'NONE',  ( 1.000000000000000000, 0.0000000000000000000, 0.0000000000000000000 ) ) ;
#51 = DIRECTION ( 'NONE',  ( -0.0000000000000000000, -0.0000000000000000000, -1.000000000000000000 ) ) ;
#52 = DIRECTION ( 'NONE',  ( 0.0000000000000000000, 0.0000000000000000000, 1.000000000000000000 ) ) ;
#53 = EDGE_CURVE ( 'NONE', #243, #225, #212, .T. ) ;
#54 = DIRECTION ( 'NONE',  ( 0.0000000000000000000, 0.0000000000000000000, 1.000000000000000000 ) ) ;
#55 = DIRECTION ( 'NONE',  ( 1.000000000000000000, 0.0000000000000000000, 0.0000000000000000000 ) ) ;
#56 = CIRCLE ( 'NONE', #128, 1.043307086614173151 ) ;
#57 = AXIS2_PLACEMENT_3D ( 'NONE', #22, #40, #180 ) ;
#58 = PRODUCT_DEFINITION_FORMATION_WITH_SPECIFIED_SOURCE ( 'ANY', '', #149, .NOT_KNOWN. ) ;
#59 = PERSON ( 'UNSPECIFIED', 'UNSPECIFIED', 'UNSPECIFIED', ('UNSPECIFIED'), ('UNSPECIFIED'), ('UNSPECIFIED') ) ;
#60 = ADVANCED_FACE ( 'NONE', ( #1, #171 ), #133, .T. ) ;
#61 = CC_DESIGN_APPROVAL ( #65, ( #126 ) ) ;
#62 = APPLICATION_PROTOCOL_DEFINITION ( 'international standard', 'config_control_design', 1994, #203 ) ;
#63 = ORIENTED_EDGE ( 'NONE', *, *, #76, .T. ) ;
#64 = CALENDAR_DATE ( 2020, 14, 12 ) ;
#65 = APPROVAL ( #206, 'UNSPECIFIED' ) ;
#66 = VECTOR ( 'NONE', #18, 39.37007874015748143 ) ;
#67 = DATE_TIME_ROLE ( 'classification_date' ) ;
#68 = ORIENTED_EDGE ( 'NONE', *, *, #53, .T. ) ;
#69 = ORIENTED_EDGE ( 'NONE', *, *, #53, .F. ) ;
#70 = PERSON_AND_ORGANIZATION ( #59, #222 ) ;
#71 = LINE ( 'NONE', #233, #218 ) ;
#72 = AXIS2_PLACEMENT_3D ( 'NONE', #125, #51, #215 ) ;
#73 = CARTESIAN_POINT ( 'NONE',  ( 0.0000000000000000000, 0.0000000000000000000, 0.0000000000000000000 ) ) ;
#74 = EDGE_LOOP ( 'NONE', ( #4, #45, #217, #82 ) ) ;
#75 =( LENGTH_UNIT ( ) NAMED_UNIT ( * ) SI_UNIT ( $, .METRE. ) );
#76 = EDGE_CURVE ( 'NONE', #188, #243, #13, .T. ) ;
#77 = AXIS2_PLACEMENT_3D ( 'NONE', #155, #250, #195 ) ;
#78 = PLANE ( 'NONE',  #228 ) ;
#79 =( NAMED_UNIT ( * ) SI_UNIT ( $, .STERADIAN. ) SOLID_ANGLE_UNIT ( ) );
#80 = CIRCLE ( 'NONE', #113, 1.043307086614173151 ) ;
#81 = APPROVAL_DATE_TIME ( #3, #132 ) ;
#82 = ORIENTED_EDGE ( 'NONE', *, *, #160, .F. ) ;
#83 = CC_DESIGN_PERSON_AND_ORGANIZATION_ASSIGNMENT ( #227, #42, ( #58 ) ) ;
#84 = DESIGN_CONTEXT ( 'detailed design', #203, 'design' ) ;
#85 = MECHANICAL_CONTEXT ( 'NONE', #48, 'mechanical' ) ;
#86 = EDGE_LOOP ( 'NONE', ( #154, #184, #101, #234 ) ) ;
#87 = EDGE_CURVE ( 'NONE', #235, #96, #152, .T. ) ;
#88 = COORDINATED_UNIVERSAL_TIME_OFFSET ( 5, 0, .BEHIND. ) ;
#89 = SECURITY_CLASSIFICATION_LEVEL ( 'unclassified' ) ;
#90 = FACE_OUTER_BOUND ( 'NONE', #145, .T. ) ;
#91 = CARTESIAN_POINT ( 'NONE',  ( -0.6003937007874016185, 7.352702238975251229E-17, 0.0000000000000000000 ) ) ;
#92 = CARTESIAN_POINT ( 'NONE',  ( 0.0000000000000000000, 0.0000000000000000000, 0.01968503937007873988 ) ) ;
#93 = AXIS2_PLACEMENT_3D ( 'NONE', #36, #213, #16 ) ;
#94 = EDGE_LOOP ( 'NONE', ( #7, #191 ) ) ;
#95 = ADVANCED_FACE ( 'NONE', ( #131 ), #192, .T. ) ;
#96 = VERTEX_POINT ( 'NONE', #151 ) ;
#97 = AXIS2_PLACEMENT_3D ( 'NONE', #73, #197, #193 ) ;
#98 = CC_DESIGN_SECURITY_CLASSIFICATION ( #238, ( #58 ) ) ;
#99 = ADVANCED_FACE ( 'NONE', ( #216 ), #47, .F. ) ;
#100 = PERSON_AND_ORGANIZATION_ROLE ( 'creator' ) ;
#101 = ORIENTED_EDGE ( 'NONE', *, *, #160, .T. ) ;
#102 = APPROVAL_ROLE ( '' ) ;
#103 = EDGE_LOOP ( 'NONE', ( #150, #69 ) ) ;
#104 = ORIENTED_EDGE ( 'NONE', *, *, #251, .T. ) ;
#105 = APPROVAL_STATUS ( 'not_yet_approved' ) ;
#106 = DIRECTION ( 'NONE',  ( 1.000000000000000000, 0.0000000000000000000, -0.0000000000000000000 ) ) ;
#107 = PRODUCT_RELATED_PRODUCT_CATEGORY ( 'detail', '', ( #149 ) ) ;
#108 = LINE ( 'NONE', #91, #66 ) ;
#109 = DIRECTION ( 'NONE',  ( -0.0000000000000000000, -0.0000000000000000000, -1.000000000000000000 ) ) ;
#110 = DIRECTION ( 'NONE',  ( 0.0000000000000000000, 0.0000000000000000000, 1.000000000000000000 ) ) ;
#111 = CC_DESIGN_DATE_AND_TIME_ASSIGNMENT ( #162, #166, ( #126 ) ) ;
#112 = CLOSED_SHELL ( 'NONE', ( #99, #95, #242, #168, #32, #60 ) ) ;
#113 = AXIS2_PLACEMENT_3D ( 'NONE', #24, #54, #178 ) ;
#114 = DIRECTION ( 'NONE',  ( 1.000000000000000000, 0.0000000000000000000, 0.0000000000000000000 ) ) ;
#115 = LENGTH_MEASURE_WITH_UNIT ( LENGTH_MEASURE( 0.02539999999999999897 ), #75 );
#116 = DIRECTION ( 'NONE',  ( 0.0000000000000000000, 0.0000000000000000000, 1.000000000000000000 ) ) ;
#117 =( CONVERSION_BASED_UNIT ( 'INCH', #115 ) LENGTH_UNIT ( ) NAMED_UNIT ( #144 ) );
#118 = EDGE_CURVE ( 'NONE', #229, #123, #29, .T. ) ;
#119 = APPROVAL_STATUS ( 'not_yet_approved' ) ;
#120 = ORIENTED_EDGE ( 'NONE', *, *, #226, .T. ) ;
#121 = DIRECTION ( 'NONE',  ( 1.000000000000000000, 0.0000000000000000000, 0.0000000000000000000 ) ) ;
#122 = DIRECTION ( 'NONE',  ( 0.0000000000000000000, 0.0000000000000000000, 1.000000000000000000 ) ) ;
#123 = VERTEX_POINT ( 'NONE', #37 ) ;
#124 = CALENDAR_DATE ( 2020, 14, 12 ) ;
#125 = CARTESIAN_POINT ( 'NONE',  ( 0.0000000000000000000, 0.0000000000000000000, 0.0000000000000000000 ) ) ;
#126 = PRODUCT_DEFINITION ( 'UNKNOWN', '', #58, #84 ) ;
#127 = DIRECTION ( 'NONE',  ( 0.0000000000000000000, 0.0000000000000000000, 1.000000000000000000 ) ) ;
#128 = AXIS2_PLACEMENT_3D ( 'NONE', #252, #109, #114 ) ;
#129 = PERSON_AND_ORGANIZATION ( #59, #222 ) ;
#130 = CARTESIAN_POINT ( 'NONE',  ( 1.043307086614173151, 0.0000000000000000000, 0.0000000000000000000 ) ) ;
#131 = FACE_OUTER_BOUND ( 'NONE', #211, .T. ) ;
#132 = APPROVAL ( #119, 'UNSPECIFIED' ) ;
#133 = PLANE ( 'NONE',  #20 ) ;
#134 = AXIS2_PLACEMENT_3D ( 'NONE', #135, #158, #55 ) ;
#135 = CARTESIAN_POINT ( 'NONE',  ( 0.0000000000000000000, 0.0000000000000000000, 0.0000000000000000000 ) ) ;
#136 = APPROVAL_PERSON_ORGANIZATION ( #143, #132, #26 ) ;
#137 = PRODUCT_DEFINITION_SHAPE ( 'NONE', 'NONE',  #126 ) ;
#138 = CARTESIAN_POINT ( 'NONE',  ( 0.0000000000000000000, 0.0000000000000000000, 0.0000000000000000000 ) ) ;
#139 = LINE ( 'NONE', #221, #44 ) ;
#140 = PERSON_AND_ORGANIZATION ( #59, #222 ) ;
#141 = PERSON_AND_ORGANIZATION_ROLE ( 'design_owner' ) ;
#142 = DATE_AND_TIME ( #185, #186 ) ;
#143 = PERSON_AND_ORGANIZATION ( #59, #222 ) ;
#144 = DIMENSIONAL_EXPONENTS ( 1.000000000000000000, 0.0000000000000000000, 0.0000000000000000000, 0.0000000000000000000, 0.0000000000000000000, 0.0000000000000000000, 0.0000000000000000000 ) ;
#145 = EDGE_LOOP ( 'NONE', ( #31, #190, #120, #207 ) ) ;
#146 = APPROVAL_ROLE ( '' ) ;
#147 = CYLINDRICAL_SURFACE ( 'NONE', #57, 0.6003937007874016185 ) ;
#148 = EDGE_CURVE ( 'NONE', #235, #123, #108, .T. ) ;
#149 = PRODUCT ( 'DPF-9', 'DPF-9', '', ( #85 ) ) ;
#150 = ORIENTED_EDGE ( 'NONE', *, *, #9, .F. ) ;
#151 = CARTESIAN_POINT ( 'NONE',  ( 0.6003937007874016185, 0.0000000000000000000, 0.0000000000000000000 ) ) ;
#152 = CIRCLE ( 'NONE', #72, 0.6003937007874016185 ) ;
#153 = APPROVAL_DATE_TIME ( #194, #19 ) ;
#154 = ORIENTED_EDGE ( 'NONE', *, *, #148, .F. ) ;
#155 = CARTESIAN_POINT ( 'NONE',  ( 0.0000000000000000000, 0.0000000000000000000, 0.01968503937007873988 ) ) ;
#156 = CC_DESIGN_DATE_AND_TIME_ASSIGNMENT ( #170, #67, ( #238 ) ) ;
#157 = LOCAL_TIME ( 17, 13, 26.00000000000000000, #210 ) ;
#158 = DIRECTION ( 'NONE',  ( -0.0000000000000000000, -0.0000000000000000000, -1.000000000000000000 ) ) ;
#159 = AXIS2_PLACEMENT_3D ( 'NONE', #138, #220, #237 ) ;
#160 = EDGE_CURVE ( 'NONE', #96, #229, #71, .T. ) ;
#161 = LOCAL_TIME ( 17, 13, 26.00000000000000000, #183 ) ;
#162 = DATE_AND_TIME ( #64, #21 ) ;
#163 = VECTOR ( 'NONE', #52, 39.37007874015748143 ) ;
#164 = CALENDAR_DATE ( 2020, 14, 12 ) ;
#165 = CC_DESIGN_APPROVAL ( #19, ( #238 ) ) ;
#166 = DATE_TIME_ROLE ( 'creation_date' ) ;
#167 = PERSON_AND_ORGANIZATION_ROLE ( 'classification_officer' ) ;
#168 = ADVANCED_FACE ( 'NONE', ( #177 ), #147, .F. ) ;
#169 = CIRCLE ( 'NONE', #77, 0.6003937007874016185 ) ;
#170 = DATE_AND_TIME ( #124, #17 ) ;
#171 = FACE_OUTER_BOUND ( 'NONE', #103, .T. ) ;
#172 = ADVANCED_BREP_SHAPE_REPRESENTATION ( 'DPF-9', ( #12, #232 ), #205 ) ;
#173 = CARTESIAN_POINT ( 'NONE',  ( 0.0000000000000000000, 0.0000000000000000000, 0.0000000000000000000 ) ) ;
#174 = ORIENTED_EDGE ( 'NONE', *, *, #198, .F. ) ;
#175 = CIRCLE ( 'NONE', #134, 0.6003937007874016185 ) ;
#176 = DIRECTION ( 'NONE',  ( 1.000000000000000000, 0.0000000000000000000, 0.0000000000000000000 ) ) ;
#177 = FACE_OUTER_BOUND ( 'NONE', #86, .T. ) ;
#178 = DIRECTION ( 'NONE',  ( 1.000000000000000000, 0.0000000000000000000, 0.0000000000000000000 ) ) ;
#179 = EDGE_CURVE ( 'NONE', #188, #27, #41, .T. ) ;
#180 = DIRECTION ( 'NONE',  ( 1.000000000000000000, 0.0000000000000000000, 0.0000000000000000000 ) ) ;
#181 = FACE_OUTER_BOUND ( 'NONE', #6, .T. ) ;
#182 = CARTESIAN_POINT ( 'NONE',  ( 1.043307086614173151, 0.0000000000000000000, 0.01968503937007873988 ) ) ;
#183 = COORDINATED_UNIVERSAL_TIME_OFFSET ( 5, 0, .BEHIND. ) ;
#184 = ORIENTED_EDGE ( 'NONE', *, *, #87, .T. ) ;
#185 = CALENDAR_DATE ( 2020, 14, 12 ) ;
#186 = LOCAL_TIME ( 17, 13, 26.00000000000000000, #241 ) ;
#187 = APPLICATION_PROTOCOL_DEFINITION ( 'international standard', 'config_control_design', 1994, #48 ) ;
#188 = VERTEX_POINT ( 'NONE', #239 ) ;
#189 = APPROVAL_DATE_TIME ( #142, #65 ) ;
#190 = ORIENTED_EDGE ( 'NONE', *, *, #179, .T. ) ;
#191 = ORIENTED_EDGE ( 'NONE', *, *, #23, .T. ) ;
#192 = CYLINDRICAL_SURFACE ( 'NONE', #15, 1.043307086614173151 ) ;
#193 = DIRECTION ( 'NONE',  ( 1.000000000000000000, 0.0000000000000000000, 0.0000000000000000000 ) ) ;
#194 = DATE_AND_TIME ( #14, #157 ) ;
#195 = DIRECTION ( 'NONE',  ( 1.000000000000000000, 0.0000000000000000000, 0.0000000000000000000 ) ) ;
#196 = DIRECTION ( 'NONE',  ( 0.0000000000000000000, 0.0000000000000000000, 1.000000000000000000 ) ) ;
#197 = DIRECTION ( 'NONE',  ( 0.0000000000000000000, 0.0000000000000000000, 1.000000000000000000 ) ) ;
#198 = EDGE_CURVE ( 'NONE', #96, #235, #175, .T. ) ;
#199 =( NAMED_UNIT ( * ) PLANE_ANGLE_UNIT ( ) SI_UNIT ( $, .RADIAN. ) );
#200 = CC_DESIGN_APPROVAL ( #132, ( #58 ) ) ;
#201 = CARTESIAN_POINT ( 'NONE',  ( 0.6003937007874016185, 0.0000000000000000000, 0.01968503937007873988 ) ) ;
#202 = ORIENTED_EDGE ( 'NONE', *, *, #226, .F. ) ;
#203 = APPLICATION_CONTEXT ( 'configuration controlled 3d designs of mechanical parts and assemblies' ) ;
#204 = CC_DESIGN_PERSON_AND_ORGANIZATION_ASSIGNMENT ( #140, #100, ( #126 ) ) ;
#205 =( GEOMETRIC_REPRESENTATION_CONTEXT ( 3 ) GLOBAL_UNCERTAINTY_ASSIGNED_CONTEXT ( ( #208 ) ) GLOBAL_UNIT_ASSIGNED_CONTEXT ( ( #117, #199, #79 ) ) REPRESENTATION_CONTEXT ( 'NONE', 'WORKASPACE' ) );
#206 = APPROVAL_STATUS ( 'not_yet_approved' ) ;
#207 = ORIENTED_EDGE ( 'NONE', *, *, #9, .T. ) ;
#208 = UNCERTAINTY_MEASURE_WITH_UNIT (LENGTH_MEASURE( 1.000000000000000082E-05 ), #117, 'distance_accuracy_value', 'NONE');
#209 = PERSON_AND_ORGANIZATION ( #59, #222 ) ;
#210 = COORDINATED_UNIVERSAL_TIME_OFFSET ( 5, 0, .BEHIND. ) ;
#211 = EDGE_LOOP ( 'NONE', ( #104, #63, #68, #202 ) ) ;
#212 = CIRCLE ( 'NONE', #244, 1.043307086614173151 ) ;
#213 = DIRECTION ( 'NONE',  ( 0.0000000000000000000, 0.0000000000000000000, 1.000000000000000000 ) ) ;
#214 = COORDINATED_UNIVERSAL_TIME_OFFSET ( 5, 0, .BEHIND. ) ;
#215 = DIRECTION ( 'NONE',  ( 1.000000000000000000, 0.0000000000000000000, 0.0000000000000000000 ) ) ;
#216 = FACE_OUTER_BOUND ( 'NONE', #74, .T. ) ;
#217 = ORIENTED_EDGE ( 'NONE', *, *, #118, .F. ) ;
#218 = VECTOR ( 'NONE', #110, 39.37007874015748143 ) ;
#219 = DIRECTION ( 'NONE',  ( 1.000000000000000000, 0.0000000000000000000, -0.0000000000000000000 ) ) ;
#220 = DIRECTION ( 'NONE',  ( 0.0000000000000000000, 0.0000000000000000000, 1.000000000000000000 ) ) ;
#221 = CARTESIAN_POINT ( 'NONE',  ( 1.043307086614173151, 0.0000000000000000000, 0.0000000000000000000 ) ) ;
#222 = ORGANIZATION ( 'UNSPECIFIED', 'UNSPECIFIED', '' ) ;
#223 = FACE_BOUND ( 'NONE', #230, .T. ) ;
#224 = CARTESIAN_POINT ( 'NONE',  ( -0.6003937007874016185, 7.352702238975251229E-17, 0.0000000000000000000 ) ) ;
#225 = VERTEX_POINT ( 'NONE', #182 ) ;
#226 = EDGE_CURVE ( 'NONE', #27, #225, #139, .T. ) ;
#227 = PERSON_AND_ORGANIZATION ( #59, #222 ) ;
#228 = AXIS2_PLACEMENT_3D ( 'NONE', #240, #2, #219 ) ;
#229 = VERTEX_POINT ( 'NONE', #201 ) ;
#230 = EDGE_LOOP ( 'NONE', ( #174, #231 ) ) ;
#231 = ORIENTED_EDGE ( 'NONE', *, *, #87, .F. ) ;
#232 = AXIS2_PLACEMENT_3D ( 'NONE', #30, #122, #121 ) ;
#233 = CARTESIAN_POINT ( 'NONE',  ( 0.6003937007874016185, 0.0000000000000000000, 0.0000000000000000000 ) ) ;
#234 = ORIENTED_EDGE ( 'NONE', *, *, #23, .F. ) ;
#235 = VERTEX_POINT ( 'NONE', #224 ) ;
#236 = CC_DESIGN_PERSON_AND_ORGANIZATION_ASSIGNMENT ( #129, #247, ( #58 ) ) ;
#237 = DIRECTION ( 'NONE',  ( 1.000000000000000000, 0.0000000000000000000, 0.0000000000000000000 ) ) ;
#238 = SECURITY_CLASSIFICATION ( '', '', #89 ) ;
#239 = CARTESIAN_POINT ( 'NONE',  ( -1.043307086614173151, 1.277682684149797662E-16, 0.0000000000000000000 ) ) ;
#240 = CARTESIAN_POINT ( 'NONE',  ( 0.0000000000000000000, 0.0000000000000000000, 0.0000000000000000000 ) ) ;
#241 = COORDINATED_UNIVERSAL_TIME_OFFSET ( 5, 0, .BEHIND. ) ;
#242 = ADVANCED_FACE ( 'NONE', ( #223, #181 ), #78, .F. ) ;
#243 = VERTEX_POINT ( 'NONE', #38 ) ;
#244 = AXIS2_PLACEMENT_3D ( 'NONE', #46, #35, #50 ) ;
#245 = CYLINDRICAL_SURFACE ( 'NONE', #97, 1.043307086614173151 ) ;
#246 = CC_DESIGN_PERSON_AND_ORGANIZATION_ASSIGNMENT ( #5, #141, ( #149 ) ) ;
#247 = PERSON_AND_ORGANIZATION_ROLE ( 'design_supplier' ) ;
#248 = DIRECTION ( 'NONE',  ( -0.0000000000000000000, -0.0000000000000000000, -1.000000000000000000 ) ) ;
#249 = APPROVAL_PERSON_ORGANIZATION ( #209, #65, #102 ) ;
#250 = DIRECTION ( 'NONE',  ( -0.0000000000000000000, -0.0000000000000000000, -1.000000000000000000 ) ) ;
#251 = EDGE_CURVE ( 'NONE', #27, #188, #80, .T. ) ;
#252 = CARTESIAN_POINT ( 'NONE',  ( 0.0000000000000000000, 0.0000000000000000000, 0.01968503937007873988 ) ) ;
ENDSEC;
END-ISO-10303-21;
