ISO-10303-21;
HEADER;
FILE_DESCRIPTION (( 'STEP AP214' ),
    '1' );
FILE_NAME ('DW-AD-501-M8.STEP',
    '2018-04-11T10:44:19',
    ( '' ),
    ( '' ),
    'SwSTEP 2.0',
    'SolidWorks 2017',
    '' );
FILE_SCHEMA (( 'AUTOMOTIVE_DESIGN' ));
ENDSEC;

DATA;
#1 = FACE_OUTER_BOUND ( 'NONE', #182, .T. ) ;
#2 = ADVANCED_FACE ( 'NONE', ( #85, #102 ), #220, .T. ) ;
#3 = CARTESIAN_POINT ( 'NONE',  ( 0.0000000000000000000, -1.759842519685039600, 0.0000000000000000000 ) ) ;
#4 = ADVANCED_FACE ( 'NONE', ( #126, #66 ), #130, .F. ) ;
#5 = ADVANCED_FACE ( 'NONE', ( #75, #40 ), #18, .T. ) ;
#6 =( NAMED_UNIT ( * ) SI_UNIT ( $, .STERADIAN. ) SOLID_ANGLE_UNIT ( ) );
#7 = ORIENTED_EDGE ( 'NONE', *, *, #162, .F. ) ;
#8 = FACE_OUTER_BOUND ( 'NONE', #222, .T. ) ;
#9 = PLANE ( 'NONE',  #248 ) ;
#10 = ORIENTED_EDGE ( 'NONE', *, *, #45, .T. ) ;
#11 = AXIS2_PLACEMENT_3D ( 'NONE', #103, #186, #145 ) ;
#12 = DIMENSIONAL_EXPONENTS ( 1.000000000000000000, 0.0000000000000000000, 0.0000000000000000000, 0.0000000000000000000, 0.0000000000000000000, 0.0000000000000000000, 0.0000000000000000000 ) ;
#13 = VERTEX_POINT ( 'NONE', #25 ) ;
#14 = AXIS2_PLACEMENT_3D ( 'NONE', #131, #152, #87 ) ;
#15 = SURFACE_STYLE_USAGE ( .BOTH. , #232 ) ;
#16 = DIRECTION ( 'NONE',  ( 0.0000000000000000000, 0.0000000000000000000, 1.000000000000000000 ) ) ;
#17 = DIRECTION ( 'NONE',  ( 0.0000000000000000000, 0.0000000000000000000, -1.000000000000000000 ) ) ;
#18 = TOROIDAL_SURFACE ( 'NONE', #74, 0.1179500000000000400, 0.01000000000000000000 ) ;
#19 = ADVANCED_BREP_SHAPE_REPRESENTATION ( 'DW-AD-501-M8', ( #172, #245 ), #200 ) ;
#20 = PRODUCT_DEFINITION_FORMATION_WITH_SPECIFIED_SOURCE ( 'ANY', '', #83, .NOT_KNOWN. ) ;
#21 = EDGE_LOOP ( 'NONE', ( #120 ) ) ;
#22 = AXIS2_PLACEMENT_3D ( 'NONE', #243, #177, #17 ) ;
#23 = ADVANCED_FACE ( 'NONE', ( #214, #153 ), #207, .T. ) ;
#24 = DIRECTION ( 'NONE',  ( -0.0000000000000000000, -1.000000000000000000, -0.0000000000000000000 ) ) ;
#25 = CARTESIAN_POINT ( 'NONE',  ( 0.0000000000000000000, 0.0000000000000000000, 0.1279500000000000400 ) ) ;
#26 = EDGE_CURVE ( 'NONE', #241, #241, #27, .T. ) ;
#27 = CIRCLE ( 'NONE', #14, 0.1574803149606299200 ) ;
#28 = ORIENTED_EDGE ( 'NONE', *, *, #205, .F. ) ;
#29 = APPLICATION_CONTEXT ( 'automotive_design' ) ;
#30 = CARTESIAN_POINT ( 'NONE',  ( 0.0000000000000000000, -2.237929876409764400E-012, 0.0000000000000000000 ) ) ;
#31 = DIRECTION ( 'NONE',  ( -0.0000000000000000000, -1.000000000000000000, -0.0000000000000000000 ) ) ;
#32 = CARTESIAN_POINT ( 'NONE',  ( 0.0000000000000000000, -2.237929876409764400E-012, -0.1370230219575699600 ) ) ;
#33 = VERTEX_POINT ( 'NONE', #32 ) ;
#34 =( LENGTH_UNIT ( ) NAMED_UNIT ( * ) SI_UNIT ( $, .METRE. ) );
#35 =( NAMED_UNIT ( * ) PLANE_ANGLE_UNIT ( ) SI_UNIT ( $, .RADIAN. ) );
#36 = ORIENTED_EDGE ( 'NONE', *, *, #218, .T. ) ;
#37 = CARTESIAN_POINT ( 'NONE',  ( 0.0000000000000000000, -0.01181102362204321200, 0.0000000000000000000 ) ) ;
#38 = PRESENTATION_STYLE_ASSIGNMENT (( #98 ) ) ;
#39 = EDGE_CURVE ( 'NONE', #33, #33, #47, .T. ) ;
#40 = FACE_OUTER_BOUND ( 'NONE', #164, .T. ) ;
#41 = UNCERTAINTY_MEASURE_WITH_UNIT (LENGTH_MEASURE( 1.000000000000000100E-005 ), #165, 'distance_accuracy_value', 'NONE');
#42 = AXIS2_PLACEMENT_3D ( 'NONE', #180, #125, #16 ) ;
#43 = CIRCLE ( 'NONE', #141, 0.1370230219575699600 ) ;
#44 = SHAPE_DEFINITION_REPRESENTATION ( #159, #19 ) ;
#45 = EDGE_CURVE ( 'NONE', #52, #52, #111, .T. ) ;
#46 = ORIENTED_EDGE ( 'NONE', *, *, #244, .T. ) ;
#47 = CIRCLE ( 'NONE', #204, 0.1370230219575699600 ) ;
#48 = AXIS2_PLACEMENT_3D ( 'NONE', #234, #50, #174 ) ;
#49 = CARTESIAN_POINT ( 'NONE',  ( 0.0000000000000000000, 0.01969999999999999900, 0.0000000000000000000 ) ) ;
#50 = DIRECTION ( 'NONE',  ( 0.0000000000000000000, 1.000000000000000000, 0.0000000000000000000 ) ) ;
#51 = DIRECTION ( 'NONE',  ( 0.0000000000000000000, 0.0000000000000000000, 1.000000000000000000 ) ) ;
#52 = VERTEX_POINT ( 'NONE', #171 ) ;
#53 = DIRECTION ( 'NONE',  ( 0.0000000000000000000, 1.000000000000000000, 0.0000000000000000000 ) ) ;
#54 = AXIS2_PLACEMENT_3D ( 'NONE', #133, #88, #134 ) ;
#55 =( NAMED_UNIT ( * ) SI_UNIT ( $, .STERADIAN. ) SOLID_ANGLE_UNIT ( ) );
#56 = FACE_BOUND ( 'NONE', #115, .T. ) ;
#57 =( NAMED_UNIT ( * ) SI_UNIT ( $, .STERADIAN. ) SOLID_ANGLE_UNIT ( ) );
#58 = LENGTH_MEASURE_WITH_UNIT ( LENGTH_MEASURE( 0.02539999999999999900 ), #34 );
#59 = EDGE_LOOP ( 'NONE', ( #224 ) ) ;
#60 = EDGE_LOOP ( 'NONE', ( #28 ) ) ;
#61 = CARTESIAN_POINT ( 'NONE',  ( 0.01574803149606299200, 1.031500000000000100, 0.0000000000000000000 ) ) ;
#62 = FACE_OUTER_BOUND ( 'NONE', #59, .T. ) ;
#63 = DIRECTION ( 'NONE',  ( 0.0000000000000000000, 0.0000000000000000000, 1.000000000000000000 ) ) ;
#64 = AXIS2_PLACEMENT_3D ( 'NONE', #49, #31, #71 ) ;
#65 = PLANE ( 'NONE',  #11 ) ;
#66 = FACE_OUTER_BOUND ( 'NONE', #21, .T. ) ;
#67 = FACE_OUTER_BOUND ( 'NONE', #238, .T. ) ;
#68 = CARTESIAN_POINT ( 'NONE',  ( 0.0000000000000000000, 0.0000000000000000000, 0.0000000000000000000 ) ) ;
#69 = DIRECTION ( 'NONE',  ( 0.0000000000000000000, 1.000000000000000000, 0.0000000000000000000 ) ) ;
#70 = PRODUCT_CONTEXT ( 'NONE', #216, 'mechanical' ) ;
#71 = DIRECTION ( 'NONE',  ( 0.0000000000000000000, 0.0000000000000000000, -1.000000000000000000 ) ) ;
#72 = ORIENTED_EDGE ( 'NONE', *, *, #162, .T. ) ;
#73 = CLOSED_SHELL ( 'NONE', ( #82, #147, #5, #23, #148, #227, #2, #212, #166, #4 ) ) ;
#74 = AXIS2_PLACEMENT_3D ( 'NONE', #129, #188, #210 ) ;
#75 = FACE_OUTER_BOUND ( 'NONE', #86, .T. ) ;
#76 =( GEOMETRIC_REPRESENTATION_CONTEXT ( 3 ) GLOBAL_UNCERTAINTY_ASSIGNED_CONTEXT ( ( #237 ) ) GLOBAL_UNIT_ASSIGNED_CONTEXT ( ( #105, #198, #55 ) ) REPRESENTATION_CONTEXT ( 'NONE', 'WORKASPACE' ) );
#77 = STYLED_ITEM ( 'NONE', ( #38 ), #172 ) ;
#78 = DIRECTION ( 'NONE',  ( 0.0000000000000000000, 0.0000000000000000000, -1.000000000000000000 ) ) ;
#79 = DIRECTION ( 'NONE',  ( 0.0000000000000000000, 0.0000000000000000000, -1.000000000000000000 ) ) ;
#80 = CIRCLE ( 'NONE', #192, 0.1279500000000000400 ) ;
#81 = VERTEX_POINT ( 'NONE', #226 ) ;
#82 = ADVANCED_FACE ( 'NONE', ( #62, #8 ), #242, .T. ) ;
#83 = PRODUCT ( 'DW-AD-501-M8', 'DW-AD-501-M8', '', ( #70 ) ) ;
#84 = SURFACE_STYLE_FILL_AREA ( #197 ) ;
#85 = FACE_BOUND ( 'NONE', #132, .T. ) ;
#86 = EDGE_LOOP ( 'NONE', ( #206 ) ) ;
#87 = DIRECTION ( 'NONE',  ( 0.0000000000000000000, 0.0000000000000000000, -1.000000000000000000 ) ) ;
#88 = DIRECTION ( 'NONE',  ( 0.0000000000000000000, 1.000000000000000000, 0.0000000000000000000 ) ) ;
#89 = CARTESIAN_POINT ( 'NONE',  ( 0.0000000000000000000, 0.009699999999999996800, 0.0000000000000000000 ) ) ;
#90 = COLOUR_RGB ( '',0.7921568627450980000, 0.8196078431372548800, 0.9333333333333333500 ) ;
#91 = CARTESIAN_POINT ( 'NONE',  ( 0.0000000000000000000, -1.771653543305475400, 0.0000000000000000000 ) ) ;
#92 = EDGE_LOOP ( 'NONE', ( #101 ) ) ;
#93 = DIMENSIONAL_EXPONENTS ( 1.000000000000000000, 0.0000000000000000000, 0.0000000000000000000, 0.0000000000000000000, 0.0000000000000000000, 0.0000000000000000000, 0.0000000000000000000 ) ;
#94 = CARTESIAN_POINT ( 'NONE',  ( 0.0000000000000000000, -1.759842519685039600, -0.1574803149606299200 ) ) ;
#95 = FACE_OUTER_BOUND ( 'NONE', #136, .T. ) ;
#96 = DIMENSIONAL_EXPONENTS ( 1.000000000000000000, 0.0000000000000000000, 0.0000000000000000000, 0.0000000000000000000, 0.0000000000000000000, 0.0000000000000000000, 0.0000000000000000000 ) ;
#97 = PRESENTATION_LAYER_ASSIGNMENT (  '', '', ( #77 ) ) ;
#98 = SURFACE_STYLE_USAGE ( .BOTH. , #124 ) ;
#99 = SURFACE_STYLE_FILL_AREA ( #239 ) ;
#100 = DIRECTION ( 'NONE',  ( -0.0000000000000000000, -1.000000000000000000, -0.0000000000000000000 ) ) ;
#101 = ORIENTED_EDGE ( 'NONE', *, *, #244, .F. ) ;
#102 = FACE_OUTER_BOUND ( 'NONE', #246, .T. ) ;
#103 = CARTESIAN_POINT ( 'NONE',  ( 0.0000000000000000000, -1.771653543305475400, 0.1370230219575699600 ) ) ;
#104 = LENGTH_MEASURE_WITH_UNIT ( LENGTH_MEASURE( 0.02539999999999999900 ), #139 );
#105 =( CONVERSION_BASED_UNIT ( 'INCH', #142 ) LENGTH_UNIT ( ) NAMED_UNIT ( #96 ) );
#106 = ORIENTED_EDGE ( 'NONE', *, *, #149, .F. ) ;
#107 = EDGE_LOOP ( 'NONE', ( #138 ) ) ;
#108 = PRODUCT_DEFINITION ( 'UNKNOWN', '', #20, #208 ) ;
#109 = AXIS2_PLACEMENT_3D ( 'NONE', #37, #100, #223 ) ;
#110 = CARTESIAN_POINT ( 'NONE',  ( 0.0000000000000000000, 0.01969999999999999900, 0.0000000000000000000 ) ) ;
#111 = CIRCLE ( 'NONE', #48, 0.1179500000000000400 ) ;
#112 = DIRECTION ( 'NONE',  ( 0.0000000000000000000, 0.0000000000000000000, -1.000000000000000000 ) ) ;
#113 = CARTESIAN_POINT ( 'NONE',  ( 0.0000000000000000000, -1.771653543305475400, -0.1370230219575699600 ) ) ;
#114 = ORIENTED_EDGE ( 'NONE', *, *, #205, .T. ) ;
#115 = EDGE_LOOP ( 'NONE', ( #46 ) ) ;
#116 = DIRECTION ( 'NONE',  ( -0.0000000000000000000, -1.000000000000000000, -0.0000000000000000000 ) ) ;
#117 = FACE_OUTER_BOUND ( 'NONE', #175, .T. ) ;
#118 = MECHANICAL_DESIGN_GEOMETRIC_PRESENTATION_REPRESENTATION (  '', ( #77 ), #158 ) ;
#119 = CARTESIAN_POINT ( 'NONE',  ( 0.0000000000000000000, -1.118966005333004800E-012, 0.0000000000000000000 ) ) ;
#120 = ORIENTED_EDGE ( 'NONE', *, *, #39, .F. ) ;
#121 = PLANE ( 'NONE',  #54 ) ;
#122 = EDGE_LOOP ( 'NONE', ( #36 ) ) ;
#123 = AXIS2_PLACEMENT_3D ( 'NONE', #203, #116, #240 ) ;
#124 = SURFACE_SIDE_STYLE ('',( #99 ) ) ;
#125 = DIRECTION ( 'NONE',  ( 0.0000000000000000000, 1.000000000000000000, 0.0000000000000000000 ) ) ;
#126 = FACE_BOUND ( 'NONE', #127, .T. ) ;
#127 = EDGE_LOOP ( 'NONE', ( #7 ) ) ;
#128 = CIRCLE ( 'NONE', #169, 0.09845000000000001000 ) ;
#129 = CARTESIAN_POINT ( 'NONE',  ( 0.0000000000000000000, 0.009699999999999996800, 0.0000000000000000000 ) ) ;
#130 = PLANE ( 'NONE',  #228 ) ;
#131 = CARTESIAN_POINT ( 'NONE',  ( 0.0000000000000000000, -1.759842519685039600, 0.0000000000000000000 ) ) ;
#132 = EDGE_LOOP ( 'NONE', ( #229 ) ) ;
#133 = CARTESIAN_POINT ( 'NONE',  ( 0.01574803149606299200, 1.031500000000000100, 0.0000000000000000000 ) ) ;
#134 = DIRECTION ( 'NONE',  ( 0.0000000000000000000, -0.0000000000000000000, 1.000000000000000000 ) ) ;
#135 = DIRECTION ( 'NONE',  ( -0.0000000000000000000, -1.000000000000000000, -0.0000000000000000000 ) ) ;
#136 = EDGE_LOOP ( 'NONE', ( #144 ) ) ;
#137 = DIRECTION ( 'NONE',  ( 0.0000000000000000000, 0.0000000000000000000, 1.000000000000000000 ) ) ;
#138 = ORIENTED_EDGE ( 'NONE', *, *, #39, .T. ) ;
#139 =( LENGTH_UNIT ( ) NAMED_UNIT ( * ) SI_UNIT ( $, .METRE. ) );
#140 = CIRCLE ( 'NONE', #42, 0.1279500000000000400 ) ;
#141 = AXIS2_PLACEMENT_3D ( 'NONE', #91, #236, #79 ) ;
#142 = LENGTH_MEASURE_WITH_UNIT ( LENGTH_MEASURE( 0.02539999999999999900 ), #196 );
#143 = EDGE_LOOP ( 'NONE', ( #230 ) ) ;
#144 = ORIENTED_EDGE ( 'NONE', *, *, #149, .T. ) ;
#145 = DIRECTION ( 'NONE',  ( 0.0000000000000000000, -0.0000000000000000000, 1.000000000000000000 ) ) ;
#146 = FACE_BOUND ( 'NONE', #107, .T. ) ;
#147 = ADVANCED_FACE ( 'NONE', ( #56, #67 ), #9, .T. ) ;
#148 = ADVANCED_FACE ( 'NONE', ( #1 ), #121, .T. ) ;
#149 = EDGE_CURVE ( 'NONE', #81, #81, #193, .T. ) ;
#150 = DIRECTION ( 'NONE',  ( 0.0000000000000000000, 0.0000000000000000000, -1.000000000000000000 ) ) ;
#151 = ORIENTED_EDGE ( 'NONE', *, *, #26, .T. ) ;
#152 = DIRECTION ( 'NONE',  ( -0.0000000000000000000, -1.000000000000000000, -0.0000000000000000000 ) ) ;
#153 = FACE_OUTER_BOUND ( 'NONE', #60, .T. ) ;
#154 = CIRCLE ( 'NONE', #189, 0.09845000000000001000 ) ;
#155 = APPLICATION_PROTOCOL_DEFINITION ( 'draft international standard', 'automotive_design', 1998, #216 ) ;
#156 = DIRECTION ( 'NONE',  ( 0.0000000000000000000, 0.0000000000000000000, 1.000000000000000000 ) ) ;
#157 = CARTESIAN_POINT ( 'NONE',  ( 0.01574803149606299200, 0.01969999999999992900, 0.0000000000000000000 ) ) ;
#158 =( GEOMETRIC_REPRESENTATION_CONTEXT ( 3 ) GLOBAL_UNCERTAINTY_ASSIGNED_CONTEXT ( ( #190 ) ) GLOBAL_UNIT_ASSIGNED_CONTEXT ( ( #160, #35, #57 ) ) REPRESENTATION_CONTEXT ( 'NONE', 'WORKASPACE' ) );
#159 = PRODUCT_DEFINITION_SHAPE ( 'NONE', 'NONE',  #108 ) ;
#160 =( CONVERSION_BASED_UNIT ( 'INCH', #104 ) LENGTH_UNIT ( ) NAMED_UNIT ( #12 ) );
#161 = CARTESIAN_POINT ( 'NONE',  ( 0.01574803149606299200, 0.01969999999999992900, 0.09845000000000001000 ) ) ;
#162 = EDGE_CURVE ( 'NONE', #13, #13, #140, .T. ) ;
#163 = DIRECTION ( 'NONE',  ( 0.0000000000000000000, -1.000000000000000000, -0.0000000000000000000 ) ) ;
#164 = EDGE_LOOP ( 'NONE', ( #249 ) ) ;
#165 =( CONVERSION_BASED_UNIT ( 'INCH', #58 ) LENGTH_UNIT ( ) NAMED_UNIT ( #93 ) );
#166 = ADVANCED_FACE ( 'NONE', ( #117, #146 ), #167, .T. ) ;
#167 = CONICAL_SURFACE ( 'NONE', #22, 0.1370230219575699600, 1.047197551184987400 ) ;
#168 = STYLED_ITEM ( 'NONE', ( #181 ), #19 ) ;
#169 = AXIS2_PLACEMENT_3D ( 'NONE', #176, #53, #137 ) ;
#170 = VERTEX_POINT ( 'NONE', #161 ) ;
#171 = CARTESIAN_POINT ( 'NONE',  ( 0.0000000000000000000, 0.01969999999999999900, 0.1179500000000000400 ) ) ;
#172 = MANIFOLD_SOLID_BREP ( 'Revolve1', #73 ) ;
#173 = VERTEX_POINT ( 'NONE', #202 ) ;
#174 = DIRECTION ( 'NONE',  ( 0.0000000000000000000, 0.0000000000000000000, 1.000000000000000000 ) ) ;
#175 = EDGE_LOOP ( 'NONE', ( #106 ) ) ;
#176 = CARTESIAN_POINT ( 'NONE',  ( 0.01574803149606299200, 1.031500000000000100, 0.0000000000000000000 ) ) ;
#177 = DIRECTION ( 'NONE',  ( -0.0000000000000000000, -1.000000000000000000, -0.0000000000000000000 ) ) ;
#178 = VERTEX_POINT ( 'NONE', #113 ) ;
#179 = CYLINDRICAL_SURFACE ( 'NONE', #123, 0.1574803149582750800 ) ;
#180 = CARTESIAN_POINT ( 'NONE',  ( 0.0000000000000000000, 0.0000000000000000000, 0.0000000000000000000 ) ) ;
#181 = PRESENTATION_STYLE_ASSIGNMENT (( #15 ) ) ;
#182 = EDGE_LOOP ( 'NONE', ( #114 ) ) ;
#183 = AXIS2_PLACEMENT_3D ( 'NONE', #61, #24, #78 ) ;
#184 = COLOUR_RGB ( '',0.7921568627450980000, 0.8196078431372548800, 0.9333333333333333500 ) ;
#185 = DIRECTION ( 'NONE',  ( 0.0000000000000000000, 1.000000000000000000, 0.0000000000000000000 ) ) ;
#186 = DIRECTION ( 'NONE',  ( 0.0000000000000000000, 1.000000000000000000, 0.0000000000000000000 ) ) ;
#187 = PRESENTATION_LAYER_ASSIGNMENT (  '', '', ( #168 ) ) ;
#188 = DIRECTION ( 'NONE',  ( 0.0000000000000000000, 1.000000000000000000, 0.0000000000000000000 ) ) ;
#189 = AXIS2_PLACEMENT_3D ( 'NONE', #157, #235, #51 ) ;
#190 = UNCERTAINTY_MEASURE_WITH_UNIT (LENGTH_MEASURE( 1.000000000000000100E-005 ), #160, 'distance_accuracy_value', 'NONE');
#191 = FACE_OUTER_BOUND ( 'NONE', #122, .T. ) ;
#192 = AXIS2_PLACEMENT_3D ( 'NONE', #89, #135, #156 ) ;
#193 = CIRCLE ( 'NONE', #109, 0.1574803149559202700 ) ;
#194 = DIRECTION ( 'NONE',  ( 0.0000000000000000000, 0.0000000000000000000, 1.000000000000000000 ) ) ;
#195 = DIRECTION ( 'NONE',  ( -0.0000000000000000000, -1.000000000000000000, -0.0000000000000000000 ) ) ;
#196 =( LENGTH_UNIT ( ) NAMED_UNIT ( * ) SI_UNIT ( $, .METRE. ) );
#197 = FILL_AREA_STYLE ('',( #199 ) ) ;
#198 =( NAMED_UNIT ( * ) PLANE_ANGLE_UNIT ( ) SI_UNIT ( $, .RADIAN. ) );
#199 = FILL_AREA_STYLE_COLOUR ( '', #90 ) ;
#200 =( GEOMETRIC_REPRESENTATION_CONTEXT ( 3 ) GLOBAL_UNCERTAINTY_ASSIGNED_CONTEXT ( ( #41 ) ) GLOBAL_UNIT_ASSIGNED_CONTEXT ( ( #165, #211, #6 ) ) REPRESENTATION_CONTEXT ( 'NONE', 'WORKASPACE' ) );
#201 = EDGE_CURVE ( 'NONE', #173, #173, #80, .T. ) ;
#202 = CARTESIAN_POINT ( 'NONE',  ( 0.0000000000000000000, 0.009699999999999996800, 0.1279500000000000400 ) ) ;
#203 = CARTESIAN_POINT ( 'NONE',  ( 0.0000000000000000000, -1.771653543305475400, 0.0000000000000000000 ) ) ;
#204 = AXIS2_PLACEMENT_3D ( 'NONE', #30, #195, #112 ) ;
#205 = EDGE_CURVE ( 'NONE', #209, #209, #128, .T. ) ;
#206 = ORIENTED_EDGE ( 'NONE', *, *, #201, .F. ) ;
#207 = CYLINDRICAL_SURFACE ( 'NONE', #183, 0.09845000000000001000 ) ;
#208 = PRODUCT_DEFINITION_CONTEXT ( 'detailed design', #29, 'design' ) ;
#209 = VERTEX_POINT ( 'NONE', #219 ) ;
#210 = DIRECTION ( 'NONE',  ( 0.0000000000000000000, 0.0000000000000000000, 1.000000000000000000 ) ) ;
#211 =( NAMED_UNIT ( * ) PLANE_ANGLE_UNIT ( ) SI_UNIT ( $, .RADIAN. ) );
#212 = ADVANCED_FACE ( 'NONE', ( #247, #95 ), #179, .T. ) ;
#213 = AXIS2_PLACEMENT_3D ( 'NONE', #3, #185, #63 ) ;
#214 = FACE_OUTER_BOUND ( 'NONE', #92, .T. ) ;
#215 = MECHANICAL_DESIGN_GEOMETRIC_PRESENTATION_REPRESENTATION (  '', ( #168 ), #76 ) ;
#216 = APPLICATION_CONTEXT ( 'automotive_design' ) ;
#217 = DIRECTION ( 'NONE',  ( 0.0000000000000000000, -0.0000000000000000000, 1.000000000000000000 ) ) ;
#218 = EDGE_CURVE ( 'NONE', #178, #178, #43, .T. ) ;
#219 = CARTESIAN_POINT ( 'NONE',  ( 0.01574803149606299200, 1.031500000000000100, 0.09845000000000001000 ) ) ;
#220 = CONICAL_SURFACE ( 'NONE', #213, 0.1574803149606299200, 1.047197551261559700 ) ;
#221 = FILL_AREA_STYLE_COLOUR ( '', #184 ) ;
#222 = EDGE_LOOP ( 'NONE', ( #72 ) ) ;
#223 = DIRECTION ( 'NONE',  ( 0.0000000000000000000, 0.0000000000000000000, -1.000000000000000000 ) ) ;
#224 = ORIENTED_EDGE ( 'NONE', *, *, #201, .T. ) ;
#225 = PRODUCT_RELATED_PRODUCT_CATEGORY ( 'part', '', ( #83 ) ) ;
#226 = CARTESIAN_POINT ( 'NONE',  ( 0.0000000000000000000, -0.01181102362204321200, -0.1574803149559202700 ) ) ;
#227 = ADVANCED_FACE ( 'NONE', ( #191 ), #65, .F. ) ;
#228 = AXIS2_PLACEMENT_3D ( 'NONE', #119, #163, #150 ) ;
#229 = ORIENTED_EDGE ( 'NONE', *, *, #218, .F. ) ;
#230 = ORIENTED_EDGE ( 'NONE', *, *, #26, .F. ) ;
#231 = APPLICATION_PROTOCOL_DEFINITION ( 'draft international standard', 'automotive_design', 1998, #29 ) ;
#232 = SURFACE_SIDE_STYLE ('',( #84 ) ) ;
#233 = DIRECTION ( 'NONE',  ( 1.000000000000000000, 0.0000000000000000000, 0.0000000000000000000 ) ) ;
#234 = CARTESIAN_POINT ( 'NONE',  ( 0.0000000000000000000, 0.01969999999999999900, 0.0000000000000000000 ) ) ;
#235 = DIRECTION ( 'NONE',  ( -0.0000000000000000000, -1.000000000000000000, -0.0000000000000000000 ) ) ;
#236 = DIRECTION ( 'NONE',  ( -0.0000000000000000000, -1.000000000000000000, -0.0000000000000000000 ) ) ;
#237 = UNCERTAINTY_MEASURE_WITH_UNIT (LENGTH_MEASURE( 1.000000000000000100E-005 ), #105, 'distance_accuracy_value', 'NONE');
#238 = EDGE_LOOP ( 'NONE', ( #10 ) ) ;
#239 = FILL_AREA_STYLE ('',( #221 ) ) ;
#240 = DIRECTION ( 'NONE',  ( 0.0000000000000000000, 0.0000000000000000000, -1.000000000000000000 ) ) ;
#241 = VERTEX_POINT ( 'NONE', #94 ) ;
#242 = CYLINDRICAL_SURFACE ( 'NONE', #64, 0.1279500000000000400 ) ;
#243 = CARTESIAN_POINT ( 'NONE',  ( 0.0000000000000000000, -2.237929876409764400E-012, 0.0000000000000000000 ) ) ;
#244 = EDGE_CURVE ( 'NONE', #170, #170, #154, .T. ) ;
#245 = AXIS2_PLACEMENT_3D ( 'NONE', #68, #194, #233 ) ;
#246 = EDGE_LOOP ( 'NONE', ( #151 ) ) ;
#247 = FACE_OUTER_BOUND ( 'NONE', #143, .T. ) ;
#248 = AXIS2_PLACEMENT_3D ( 'NONE', #110, #69, #217 ) ;
#249 = ORIENTED_EDGE ( 'NONE', *, *, #45, .F. ) ;
ENDSEC;
END-ISO-10303-21;
